  0
SECTION
  2
HEADER
  9
$ACADVER
  1
AC1009
  9
$INSBASE
 10
4432.8990457873878768
 20
183.0518625798177084
 30
0.0
  9
$EXTMIN
 10
4399.1166728481748578
 20
183.0468442443979029
 30
-0.0000000000000058
  9
$EXTMAX
 10
4466.5877821032790962
 20
207.2726089434227958
 30
0.0000000000000104
  9
$LIMMIN
 10
0.0
 20
0.0
  9
$LIMMAX
 10
11.6929133858000007
 20
8.2677165353999982
  9
$ORTHOMODE
 70
     0
  9
$REGENMODE
 70
     1
  9
$FILLMODE
 70
     1
  9
$QTEXTMODE
 70
     0
  9
$MIRRTEXT
 70
     0
  9
$DRAGMODE
 70
     2
  9
$LTSCALE
 40
0.6431102362
  9
$OSMODE
 70
  4095
  9
$ATTMODE
 70
     1
  9
$TEXTSIZE
 40
0.2
  9
$TRACEWID
 40
0.05
  9
$TEXTSTYLE
  7
STANDARD
  9
$CLAYER
  8
0
  9
$CELTYPE
  6
BYLAYER
  9
$CECOLOR
 62
   256
  9
$DIMSCALE
 40
1.0
  9
$DIMASZ
 40
0.1875
  9
$DIMEXO
 40
0.0625
  9
$DIMDLI
 40
0.4443307087
  9
$DIMRND
 40
0.0
  9
$DIMDLE
 40
0.0
  9
$DIMEXE
 40
0.125
  9
$DIMTP
 40
0.01
  9
$DIMTM
 40
0.01
  9
$DIMTXT
 40
2.0
  9
$DIMCEN
 40
0.1052362205
  9
$DIMTSZ
 40
0.0
  9
$DIMTOL
 70
     1
  9
$DIMLIM
 70
     0
  9
$DIMTIH
 70
     1
  9
$DIMTOH
 70
     1
  9
$DIMSE1
 70
     0
  9
$DIMSE2
 70
     0
  9
$DIMTAD
 70
     0
  9
$DIMZIN
 70
     0
  9
$DIMBLK
  1

  9
$DIMASO
 70
     1
  9
$DIMSHO
 70
     1
  9
$DIMPOST
  1
\X
  9
$DIMAPOST
  1

  9
$DIMALT
 70
     1
  9
$DIMALTD
 70
     2
  9
$DIMALTF
 40
25.3999999999999986
  9
$DIMLFAC
 40
1.0
  9
$DIMTOFL
 70
     0
  9
$DIMTVP
 40
0.0
  9
$DIMTIX
 70
     0
  9
$DIMSOXD
 70
     0
  9
$DIMSAH
 70
     0
  9
$DIMBLK1
  1

  9
$DIMBLK2
  1

  9
$DIMSTYLE
  2
STANDARD
  9
$DIMCLRD
 70
     0
  9
$DIMCLRE
 70
     0
  9
$DIMCLRT
 70
     0
  9
$DIMTFAC
 40
1.0
  9
$DIMGAP
 40
0.09
  9
$LUNITS
 70
     2
  9
$LUPREC
 70
     4
  9
$SKETCHINC
 40
0.1
  9
$FILLETRAD
 40
0.0
  9
$AUNITS
 70
     0
  9
$AUPREC
 70
     0
  9
$MENU
  1
.
  9
$ELEVATION
 40
0.0
  9
$PELEVATION
 40
0.0
  9
$THICKNESS
 40
0.0
  9
$LIMCHECK
 70
     0
  9
$BLIPMODE
 70
     0
  9
$CHAMFERA
 40
0.0
  9
$CHAMFERB
 40
0.0
  9
$SKPOLY
 70
     0
  9
$TDCREATE
 40
2458060.468368056230247
  9
$TDUPDATE
 40
2459392.7655787039548159
  9
$TDINDWG
 40
0.3937917824
  9
$TDUSRTIMER
 40
0.3937917824
  9
$USRTIMER
 70
     1
  9
$ANGBASE
 50
0.0
  9
$ANGDIR
 70
     0
  9
$PDMODE
 70
     0
  9
$PDSIZE
 40
0.3125
  9
$PLINEWID
 40
0.0
  9
$COORDS
 70
     1
  9
$SPLFRAME
 70
     0
  9
$SPLINETYPE
 70
     6
  9
$SPLINESEGS
 70
     8
  9
$ATTDIA
 70
     1
  9
$ATTREQ
 70
     1
  9
$HANDLING
 70
     1
  9
$HANDSEED
  5
9C59
  9
$SURFTAB1
 70
     6
  9
$SURFTAB2
 70
     6
  9
$SURFTYPE
 70
     6
  9
$SURFU
 70
     6
  9
$SURFV
 70
     6
  9
$UCSNAME
  2

  9
$UCSORG
 10
0.0
 20
0.0
 30
0.0
  9
$UCSXDIR
 10
1.0
 20
0.0
 30
0.0
  9
$UCSYDIR
 10
0.0
 20
1.0
 30
0.0
  9
$PUCSNAME
  2

  9
$PUCSORG
 10
0.0
 20
0.0
 30
0.0
  9
$PUCSXDIR
 10
1.0
 20
0.0
 30
0.0
  9
$PUCSYDIR
 10
0.0
 20
1.0
 30
0.0
  9
$USERI1
 70
     0
  9
$USERI2
 70
     0
  9
$USERI3
 70
     0
  9
$USERI4
 70
     0
  9
$USERI5
 70
     0
  9
$USERR1
 40
0.0
  9
$USERR2
 40
0.0
  9
$USERR3
 40
0.0
  9
$USERR4
 40
0.0
  9
$USERR5
 40
0.0
  9
$WORLDVIEW
 70
     1
  9
$SHADEDGE
 70
     3
  9
$SHADEDIF
 70
    70
  9
$TILEMODE
 70
     1
  9
$MAXACTVP
 70
    64
  9
$PLIMCHECK
 70
     0
  9
$PEXTMIN
 10
1.0000000000000000E+20
 20
1.0000000000000000E+20
 30
1.0000000000000000E+20
  9
$PEXTMAX
 10
-1.0000000000000000E+20
 20
-1.0000000000000000E+20
 30
-1.0000000000000000E+20
  9
$PLIMMIN
 10
0.0
 20
0.0
  9
$PLIMMAX
 10
12.0
 20
9.0
  9
$UNITMODE
 70
     0
  9
$VISRETAIN
 70
     1
  9
$PLINEGEN
 70
     0
  9
$PSLTSCALE
 70
     1
  0
ENDSEC
  0
SECTION
  2
TABLES
  0
TABLE
  2
VPORT
 70
     1
  0
VPORT
  2
*ACTIVE
 70
     0
 10
0.0
 20
0.0
 11
1.0
 21
1.0
 12
629.3081600929143633
 22
69.1644643971604438
 13
0.0
 23
0.0
 14
1.0
 24
1.0
 15
0.0
 25
0.0
 16
0.0
 26
0.0
 36
17.1152628219792007
 17
3803.5440673828129547
 27
125.9952621967499056
 37
0.0
 40
24.4430361313031703
 41
2.8398203592814371
 42
50.0
 43
0.0
 44
0.0
 50
0.0
 51
0.0
 71
     0
 72
   100
 73
     1
 74
     1
 75
     0
 76
     0
 77
     0
 78
     0
  0
ENDTAB
  0
TABLE
  2
LTYPE
 70
     2
  0
LTYPE
  2
CONTINUOUS
 70
     0
  3
Solid line
 72
    65
 73
     0
 40
0.0
  0
LTYPE
  2
PHANTOM2
 70
     0
  3
___ _ _ ___ _ _ ___ _ _ ___ _ _
 72
    65
 73
     6
 40
1.25
 49
0.625
 49
-0.125
 49
0.125
 49
-0.125
 49
0.125
 49
-0.125
  0
ENDTAB
  0
TABLE
  2
LAYER
 70
     2
  0
LAYER
  2
0
 70
     0
 62
   255
  6
CONTINUOUS
  0
LAYER
  2
DEFPOINTS
 70
     0
 62
     7
  6
CONTINUOUS
  0
ENDTAB
  0
TABLE
  2
STYLE
 70
     1
  0
STYLE
  2
STANDARD
 70
     0
 40
0.0
 41
0.8
 50
0.0
 71
     0
 42
0.2
  3
txt
  4

  0
ENDTAB
  0
TABLE
  2
VIEW
 70
     0
  0
ENDTAB
  0
TABLE
  2
UCS
 70
     0
  0
ENDTAB
  0
TABLE
  2
APPID
 70
     9
  0
APPID
  2
ACAD
 70
     0
  0
APPID
  2
ACAD_MLEADERVER
 70
     0
  0
APPID
  2
ACAD_EXEMPT_FROM_CAD_STANDARDS
 70
     0
  0
APPID
  2
ACAD_NAV_VCDISPLAY
 70
     0
  0
APPID
  2
ACAECLAYERSTANDARD
 70
     0
  0
APPID
  2
ACCMTRANSPARENCY
 70
     0
  0
APPID
  2
ACAD_DSTYLE_DIMJAG
 70
     0
  0
APPID
  2
ACAD_DSTYLE_DIMTALN
 70
     0
  0
APPID
  2
ACDBATTR
 70
     0
  0
ENDTAB
  0
TABLE
  2
DIMSTYLE
 70
     1
  0
DIMSTYLE
  2
STANDARD
 70
     0
  3

  4

  5

  6

  7

 40
1.0
 41
0.1875
 42
0.0625
 43
0.38
 44
0.125
 45
0.0
 46
0.0
 47
0.01
 48
0.01
140
0.15625
141
0.09
142
0.0
143
25.3999999999999986
144
1.0
145
0.0
146
1.0
147
0.09
 71
     1
 72
     0
 73
     1
 74
     1
 75
     0
 76
     0
 77
     0
 78
     4
170
     0
171
     2
172
     0
173
     0
174
     0
175
     0
176
     0
177
     0
178
     0
  0
ENDTAB
  0
ENDSEC
  0
SECTION
  2
BLOCKS
  0
BLOCK
  8
0
  2
$MODEL_SPACE
 70
     0
 10
0.0
 20
0.0
 30
0.0
  3
$MODEL_SPACE
  1

  0
ENDBLK
  5
21
  8
0
  0
BLOCK
 67
     1
  8
0
  2
$PAPER_SPACE
 70
     0
 10
0.0
 20
0.0
 30
0.0
  3
$PAPER_SPACE
  1

  0
ENDBLK
  5
1D
 67
     1
  8
0
  0
ENDSEC
  0
SECTION
  2
ENTITIES
  0
ATTDEF
  5
3930
  8
DEFPOINTS
 10
4432.8963175198969111
 20
183.0560118897276993
 30
0.0
 40
0.001
  1
K-30904T-GR
  3

  2
MODELNUMBER
 70
     0
1001
ACDBATTR
1070
     0
1070
     1
  0
ATTDEF
  5
3931
  8
DEFPOINTS
 10
4432.8963175198969111
 20
183.054345223061091
 30
0.0
 40
0.001
  1

  3

  2
TRADENAME
 70
     0
1001
ACDBATTR
1070
     0
1070
     1
  0
ATTDEF
  5
3932
  8
DEFPOINTS
 10
4432.8963175198969111
 20
183.0526785563943974
 30
0.0
 40
0.001
  1
BATH
  3

  2
PRODUCT
 70
     0
1001
ACDBATTR
1070
     0
1070
     1
  0
LINE
  5
9AFA
  8
0
 10
4405.299530382751982
 20
183.280621394017686
 30
0.0
 11
4460.4985611920283191
 21
183.280621394017686
 31
0.0
  0
LINE
  5
9AFB
  8
0
 10
4400.7275807764181081
 20
207.2589412284389141
 30
0.0
 11
4465.0705107983603739
 21
207.2589412284389141
 31
0.0
  0
ARC
  5
9AFC
  8
0
 10
4699.4690771936911915
 20
179.9309632732928037
 30
0.0
 40
300.2036084203169253
 50
174.8182314792452132
 51
178.0773146126915947
  0
ARC
  5
9AFD
  8
0
 10
4407.9614327575227435
 20
192.2102573923928048
 30
0.0
 40
8.8079866032607477
 50
194.5124393139221866
 51
247.0053864830713053
  0
ARC
  5
9AFE
  8
0
 10
4404.308159592271295
 20
183.6495338048754036
 30
0.0
 40
0.5000000001231845
 50
7.5324444417194041
 51
64.851759047469784
  0
ARC
  5
9AFF
  8
0
 10
4400.7275807764181081
 20
207.022741228438889
 30
0.0
 40
0.2362
 50
90.0
 51
174.8182352830027924
  0
ARC
  5
9B00
  8
0
 10
4405.299530382751982
 20
183.780621394017686
 30
0.0
 40
0.5
 50
187.5324444407758051
 51
270.0
  0
ARC
  5
9B01
  8
0
 10
4166.3290143810882
 20
179.9309632732928037
 30
0.0
 40
300.2036084203169253
 50
1.922685387308374
 51
5.1817685207547877
  0
ARC
  5
9B02
  8
0
 10
4457.8366588172557385
 20
192.2102573923928048
 30
0.0
 40
8.8079866032607477
 50
292.9946135169286094
 51
345.4875606860776998
  0
ARC
  5
9B03
  8
0
 10
4461.4899319825080966
 20
183.6495338048754036
 30
0.0
 40
0.5000000001231845
 50
115.1482409525302018
 51
172.4675555582805941
  0
ARC
  5
9B04
  8
0
 10
4465.0705107983603739
 20
207.022741228438889
 30
0.0
 40
0.2362
 50
5.181764716997213
 51
90.0
  0
ARC
  5
9B05
  8
0
 10
4460.4985611920283191
 20
183.780621394017686
 30
0.0
 40
0.5
 50
270.0
 51
352.4675555592240812
  0
LINE
  5
9B06
  8
0
 10
4404.520640456388719
 20
184.1021394638177071
 30
0.0
 11
4461.277451118389763
 21
184.1021394638177071
 31
0.0
  0
LINE
  5
9B08
  8
0
 10
4445.6943213778904465
 20
183.280621394017686
 30
0.0
 11
4445.6943213778904465
 21
183.0518625798177084
 31
0.0
  0
LINE
  5
9B09
  8
0
 10
4445.6943213778904465
 20
183.0518625798177084
 30
0.0
 11
4443.7258174407897968
 21
183.0518625798177084
 31
0.0
  0
LINE
  5
9B0A
  8
0
 10
4443.7258174407897968
 20
183.0518625798177084
 30
0.0
 11
4443.7258174407897968
 21
183.280621394017686
 31
0.0
  0
LINE
  5
9B0B
  8
0
 10
4422.0722741337885964
 20
183.280621394017686
 30
0.0
 11
4422.0722741337885964
 21
183.0518625798177084
 31
0.0
  0
LINE
  5
9B0C
  8
0
 10
4422.0722741337885964
 20
183.0518625798177084
 30
0.0
 11
4420.1037701966888562
 21
183.0518625798177084
 31
0.0
  0
LINE
  5
9B0D
  8
0
 10
4420.1037701966888562
 20
183.0518625798177084
 30
0.0
 11
4420.1037701966888562
 21
183.280621394017686
 31
0.0
  0
LINE
  5
9B0E
  8
0
 10
4399.4344803075882737
 20
190.0030623580175018
 30
0.0
 11
4466.3636112671902083
 21
190.0030623580175018
 31
0.0
  0
ENDSEC
  0
EOF
