  0
SECTION
  2
HEADER
  9
$ACADVER
  1
AC1009
  9
$INSBASE
 10
2958.9237002988979839
 20
170.7386022499850924
 30
0.0
  9
$EXTMIN
 10
2932.9262864727529632
 20
170.7330045676079919
 30
0.0
  9
$EXTMAX
 10
2984.9920042569679026
 20
212.5889942499788106
 30
0.0
  9
$LIMMIN
 10
0.0
 20
0.0
  9
$LIMMAX
 10
11.6929133858000007
 20
8.2677165353999982
  9
$ORTHOMODE
 70
     0
  9
$REGENMODE
 70
     1
  9
$FILLMODE
 70
     1
  9
$QTEXTMODE
 70
     0
  9
$MIRRTEXT
 70
     0
  9
$DRAGMODE
 70
     2
  9
$LTSCALE
 40
0.6431102362
  9
$OSMODE
 70
  4095
  9
$ATTMODE
 70
     1
  9
$TEXTSIZE
 40
0.2
  9
$TRACEWID
 40
0.05
  9
$TEXTSTYLE
  7
STANDARD
  9
$CLAYER
  8
0
  9
$CELTYPE
  6
BYLAYER
  9
$CECOLOR
 62
   256
  9
$DIMSCALE
 40
1.0
  9
$DIMASZ
 40
0.1875
  9
$DIMEXO
 40
0.0625
  9
$DIMDLI
 40
0.4443307087
  9
$DIMRND
 40
0.0
  9
$DIMDLE
 40
0.0
  9
$DIMEXE
 40
0.125
  9
$DIMTP
 40
0.01
  9
$DIMTM
 40
0.01
  9
$DIMTXT
 40
2.0
  9
$DIMCEN
 40
0.1052362205
  9
$DIMTSZ
 40
0.0
  9
$DIMTOL
 70
     1
  9
$DIMLIM
 70
     0
  9
$DIMTIH
 70
     1
  9
$DIMTOH
 70
     1
  9
$DIMSE1
 70
     0
  9
$DIMSE2
 70
     0
  9
$DIMTAD
 70
     0
  9
$DIMZIN
 70
     0
  9
$DIMBLK
  1

  9
$DIMASO
 70
     1
  9
$DIMSHO
 70
     1
  9
$DIMPOST
  1
\X
  9
$DIMAPOST
  1

  9
$DIMALT
 70
     1
  9
$DIMALTD
 70
     2
  9
$DIMALTF
 40
25.3999999999999986
  9
$DIMLFAC
 40
1.0
  9
$DIMTOFL
 70
     0
  9
$DIMTVP
 40
0.0
  9
$DIMTIX
 70
     0
  9
$DIMSOXD
 70
     0
  9
$DIMSAH
 70
     0
  9
$DIMBLK1
  1

  9
$DIMBLK2
  1

  9
$DIMSTYLE
  2
STANDARD
  9
$DIMCLRD
 70
     0
  9
$DIMCLRE
 70
     0
  9
$DIMCLRT
 70
     0
  9
$DIMTFAC
 40
1.0
  9
$DIMGAP
 40
0.09
  9
$LUNITS
 70
     2
  9
$LUPREC
 70
     4
  9
$SKETCHINC
 40
0.1
  9
$FILLETRAD
 40
0.0
  9
$AUNITS
 70
     0
  9
$AUPREC
 70
     0
  9
$MENU
  1
.
  9
$ELEVATION
 40
0.0
  9
$PELEVATION
 40
0.0
  9
$THICKNESS
 40
0.0
  9
$LIMCHECK
 70
     0
  9
$BLIPMODE
 70
     0
  9
$CHAMFERA
 40
0.0
  9
$CHAMFERB
 40
0.0
  9
$SKPOLY
 70
     0
  9
$TDCREATE
 40
2458060.468368056230247
  9
$TDUPDATE
 40
2459620.7921527777798474
  9
$TDINDWG
 40
0.3621945602
  9
$TDUSRTIMER
 40
0.3621945602
  9
$USRTIMER
 70
     1
  9
$ANGBASE
 50
0.0
  9
$ANGDIR
 70
     0
  9
$PDMODE
 70
     0
  9
$PDSIZE
 40
0.3125
  9
$PLINEWID
 40
0.0
  9
$COORDS
 70
     1
  9
$SPLFRAME
 70
     0
  9
$SPLINETYPE
 70
     6
  9
$SPLINESEGS
 70
     8
  9
$ATTDIA
 70
     1
  9
$ATTREQ
 70
     1
  9
$HANDLING
 70
     1
  9
$HANDSEED
  5
A5D8
  9
$SURFTAB1
 70
     6
  9
$SURFTAB2
 70
     6
  9
$SURFTYPE
 70
     6
  9
$SURFU
 70
     6
  9
$SURFV
 70
     6
  9
$UCSNAME
  2

  9
$UCSORG
 10
0.0
 20
0.0
 30
0.0
  9
$UCSXDIR
 10
1.0
 20
0.0
 30
0.0
  9
$UCSYDIR
 10
0.0
 20
1.0
 30
0.0
  9
$PUCSNAME
  2

  9
$PUCSORG
 10
0.0
 20
0.0
 30
0.0
  9
$PUCSXDIR
 10
1.0
 20
0.0
 30
0.0
  9
$PUCSYDIR
 10
0.0
 20
1.0
 30
0.0
  9
$USERI1
 70
     0
  9
$USERI2
 70
     0
  9
$USERI3
 70
     0
  9
$USERI4
 70
     0
  9
$USERI5
 70
     0
  9
$USERR1
 40
0.0
  9
$USERR2
 40
0.0
  9
$USERR3
 40
0.0
  9
$USERR4
 40
0.0
  9
$USERR5
 40
0.0
  9
$WORLDVIEW
 70
     1
  9
$SHADEDGE
 70
     3
  9
$SHADEDIF
 70
    70
  9
$TILEMODE
 70
     1
  9
$MAXACTVP
 70
    64
  9
$PLIMCHECK
 70
     0
  9
$PEXTMIN
 10
1.0000000000000000E+20
 20
1.0000000000000000E+20
 30
1.0000000000000000E+20
  9
$PEXTMAX
 10
-1.0000000000000000E+20
 20
-1.0000000000000000E+20
 30
-1.0000000000000000E+20
  9
$PLIMMIN
 10
0.0
 20
0.0
  9
$PLIMMAX
 10
12.0
 20
9.0
  9
$UNITMODE
 70
     0
  9
$VISRETAIN
 70
     1
  9
$PLINEGEN
 70
     0
  9
$PSLTSCALE
 70
     1
  0
ENDSEC
  0
SECTION
  2
TABLES
  0
TABLE
  2
VPORT
 70
     1
  0
VPORT
  2
*ACTIVE
 70
     0
 10
0.0
 20
0.0
 11
1.0
 21
1.0
 12
624.7954400160676869
 22
55.3307859006485501
 13
0.0
 23
0.0
 14
1.0
 24
1.0
 15
0.0
 25
0.0
 16
0.0
 26
0.0
 36
48.1717359839548322
 17
2341.974853515625
 27
136.3334975801919029
 37
0.0
 40
42.2154069241413481
 41
2.0410052910052912
 42
50.0
 43
0.0
 44
0.0
 50
0.0
 51
0.0
 71
     0
 72
   100
 73
     1
 74
     1
 75
     0
 76
     0
 77
     0
 78
     0
  0
ENDTAB
  0
TABLE
  2
LTYPE
 70
     2
  0
LTYPE
  2
CONTINUOUS
 70
     0
  3
Solid line
 72
    65
 73
     0
 40
0.0
  0
LTYPE
  2
PHANTOM2
 70
     0
  3
___ _ _ ___ _ _ ___ _ _ ___ _ _
 72
    65
 73
     6
 40
1.25
 49
0.625
 49
-0.125
 49
0.125
 49
-0.125
 49
0.125
 49
-0.125
  0
ENDTAB
  0
TABLE
  2
LAYER
 70
     2
  0
LAYER
  2
0
 70
     0
 62
   255
  6
CONTINUOUS
  0
LAYER
  2
DEFPOINTS
 70
     0
 62
     7
  6
CONTINUOUS
  0
ENDTAB
  0
TABLE
  2
STYLE
 70
     1
  0
STYLE
  2
STANDARD
 70
     0
 40
0.0
 41
0.8
 50
0.0
 71
     0
 42
0.2
  3
txt
  4

  0
ENDTAB
  0
TABLE
  2
VIEW
 70
     0
  0
ENDTAB
  0
TABLE
  2
UCS
 70
     0
  0
ENDTAB
  0
TABLE
  2
APPID
 70
     9
  0
APPID
  2
ACAD
 70
     0
  0
APPID
  2
ACAD_MLEADERVER
 70
     0
  0
APPID
  2
ACAD_EXEMPT_FROM_CAD_STANDARDS
 70
     0
  0
APPID
  2
ACAD_NAV_VCDISPLAY
 70
     0
  0
APPID
  2
ACAECLAYERSTANDARD
 70
     0
  0
APPID
  2
ACCMTRANSPARENCY
 70
     0
  0
APPID
  2
ACAD_DSTYLE_DIMJAG
 70
     0
  0
APPID
  2
ACAD_DSTYLE_DIMTALN
 70
     0
  0
APPID
  2
ACDBATTR
 70
     0
  0
ENDTAB
  0
TABLE
  2
DIMSTYLE
 70
     1
  0
DIMSTYLE
  2
STANDARD
 70
     0
  3

  4

  5

  6

  7

 40
1.0
 41
0.1875
 42
0.0625
 43
0.38
 44
0.125
 45
0.0
 46
0.0
 47
0.01
 48
0.01
140
0.15625
141
0.09
142
0.0
143
25.3999999999999986
144
1.0
145
0.0
146
1.0
147
0.09
 71
     1
 72
     0
 73
     1
 74
     1
 75
     0
 76
     0
 77
     0
 78
     4
170
     0
171
     2
172
     0
173
     0
174
     0
175
     0
176
     0
177
     0
178
     0
  0
ENDTAB
  0
ENDSEC
  0
SECTION
  2
BLOCKS
  0
BLOCK
  8
0
  2
$MODEL_SPACE
 70
     0
 10
0.0
 20
0.0
 30
0.0
  3
$MODEL_SPACE
  1

  0
ENDBLK
  5
21
  8
0
  0
BLOCK
 67
     1
  8
0
  2
$PAPER_SPACE
 70
     0
 10
0.0
 20
0.0
 30
0.0
  3
$PAPER_SPACE
  1

  0
ENDBLK
  5
1D
 67
     1
  8
0
  0
ENDSEC
  0
SECTION
  2
ENTITIES
  0
ATTDEF
  5
3930
  8
DEFPOINTS
 10
2958.9178392696949231
 20
170.7363379009414075
 30
0.0
 40
0.001
  1
K-29720T-LCP
  3

  2
MODELNUMBER
 70
     0
1001
ACDBATTR
1070
     0
1070
     1
  0
ATTDEF
  5
3931
  8
DEFPOINTS
 10
2958.9178392696949231
 20
170.7346712342747139
 30
0.0
 40
0.001
  1

  3

  2
TRADENAME
 70
     0
1001
ACDBATTR
1070
     0
1070
     1
  0
ATTDEF
  5
3932
  8
DEFPOINTS
 10
2958.9178392696949231
 20
170.7330045676079919
 30
0.0
 40
0.001
  1
BATH
  3

  2
PRODUCT
 70
     0
1001
ACDBATTR
1070
     0
1070
     1
  0
LINE
  5
A47D
  8
0
 10
2935.3016530547979528
 20
170.7386022499850924
 30
0.0
 11
2982.3607475429980695
 21
170.7386022499850924
 31
0.0
  0
LINE
  5
A47E
  8
0
 10
2984.7341427911619576
 20
212.5889938785799984
 30
0.0
 11
2933.173449063488988
 21
212.5889938785797142
 31
0.0
  0
LINE
  5
A47F
  8
0
 10
2984.9920042569679026
 20
211.5889959507850904
 30
0.0
 11
2959.1129725118530587
 21
211.5889959507850904
 31
0.0
  0
LINE
  5
A480
  8
0
 10
2958.8613854793529754
 20
211.5892180549739123
 30
0.0
 11
2941.7341431576328432
 21
211.5892180549739123
 31
0.0
  0
LINE
  5
A481
  8
0
 10
2941.2487888086529892
 20
211.5889959507850904
 30
0.0
 11
2932.9262864727529632
 21
211.5889959507850904
 31
0.0
  0
LINE
  5
A482
  8
0
 10
2932.9262864727529632
 20
210.3395494939852028
 30
0.0
 11
2941.0823627880049571
 21
210.3395494939852028
 31
0.0
  0
ARC
  5
A483
  8
0
 10
2939.0632902934980848
 20
210.4701289733374097
 30
0.0
 40
0.1305800320884037
 50
270.1667087341082265
 51
359.9309470620738125
  0
LINE
  5
A484
  8
0
 10
2941.7606330529010847
 20
210.3395494939852881
 30
0.0
 11
2958.8613854793529754
 21
210.3397715981739111
 31
0.0
  0
LINE
  5
A485
  8
0
 10
2959.1129725118530587
 20
210.3395494939852028
 30
0.0
 11
2984.7443684871518599
 21
210.3395494939852028
 31
0.0
  0
LINE
  5
A486
  8
0
 10
2984.8788588595321016
 20
209.8798887135181985
 30
0.0
 11
2967.5232009436949738
 21
209.8796600523621123
 31
0.0
  0
LINE
  5
A487
  8
0
 10
2932.9262864727529632
 20
211.5889959507850904
 30
0.0
 11
2932.9262864727529632
 21
170.7386022499850924
 31
0.0
  0
LINE
  5
A488
  8
0
 10
2932.9262864727529632
 20
211.5889959507850904
 30
0.0
 11
2932.9624892693850597
 21
212.3759305077975057
 31
0.0
  0
ARC
  5
A489
  8
0
 10
2933.1833508076379076
 20
212.3682197160239866
 30
0.0
 40
0.2209960981316469
 50
92.568000720461086
 51
178.0004827341398936
  0
LINE
  5
A48A
  8
0
 10
2984.9920042569679026
 20
211.5889959507850904
 30
0.0
 11
2984.9558119710741266
 21
212.3754800783844132
 31
0.0
  0
ARC
  5
A48B
  8
0
 10
2984.7345483260369292
 20
212.3675899717977984
 30
0.0
 40
0.2214042781810285
 50
2.0422620180003119
 51
90.1049458030330044
  0
LINE
  5
A48C
  8
0
 10
2983.492014779370038
 20
211.3998925175291106
 30
0.0
 11
2983.4920147793691285
 21
210.5283281102292108
 31
0.0
  0
ARC
  5
A48D
  8
0
 10
2983.6220147793951583
 20
211.3998921718219037
 30
0.0
 40
0.130000000026282
 50
93.0000000131032039
 51
179.9999999968260909
  0
LINE
  5
A48E
  8
0
 10
2983.6152111050791973
 20
211.5297140113659964
 30
0.0
 11
2984.5050999802961087
 21
211.5763511111514958
 31
0.0
  0
ARC
  5
A48F
  8
0
 10
2984.4920147793309297
 20
211.8260084314686083
 30
0.0
 40
0.2500000001444676
 50
273.0002780295214961
 51
288.5493644885810909
  0
ARC
  5
A490
  8
0
 10
2984.7416510770499372
 20
210.0892490179236916
 30
0.0
 40
0.2503152265330246
 50
303.239500958874487
 51
89.3779875458238848
  0
LINE
  5
A491
  8
0
 10
2984.8070147793691831
 20
170.7386022499850924
 30
0.0
 11
2984.8070147793691831
 21
209.747715705626689
 31
0.0
  0
ARC
  5
A492
  8
0
 10
2984.9645198739949592
 20
209.7477144140650864
 30
0.0
 40
0.1575050946307327
 50
122.9469217142750068
 51
179.9995301673926065
  0
ARC
  5
A493
  8
0
 10
2983.6220147793687829
 20
210.5283281102290971
 30
0.0
 40
0.1299999999999919
 50
179.9999999999689919
 51
266.9999999999943725
  0
LINE
  5
A494
  8
0
 10
2983.6152111050569147
 20
210.3985062707110103
 30
0.0
 11
2984.7443684871532241
 21
210.339549493993303
 31
0.0
  0
LINE
  5
A495
  8
0
 10
2984.551109267269112
 20
209.7147515416291128
 30
0.0
 11
2984.5511092675710643
 21
170.7386022499850924
 31
0.0
  0
LINE
  5
A496
  8
0
 10
2984.551109267269112
 20
209.7147515416291128
 30
0.0
 11
2967.5308523911671728
 21
209.7147515415207977
 31
0.0
  0
LINE
  5
A497
  8
0
 10
2984.5196132043688522
 20
209.6832554786290927
 30
0.0
 11
2984.5196132043688522
 21
170.7698696518289978
 31
0.0
  0
LINE
  5
A498
  8
0
 10
2984.5196132043688522
 20
209.6832554786290927
 30
0.0
 11
2967.5622221624171289
 21
209.6832554786290927
 31
0.0
  0
LINE
  5
A499
  8
0
 10
2984.5196132043688522
 20
209.6832554786290927
 30
0.0
 11
2984.551109267269112
 21
209.7147515416291128
 31
0.0
  0
LINE
  5
A49A
  8
0
 10
2967.5307260994168246
 20
209.714877833271089
 30
0.0
 11
2967.5307260994168246
 21
170.7384998802708083
 31
0.0
  0
LINE
  5
A49B
  8
0
 10
2967.5622221624171289
 20
209.6833817703708007
 30
0.0
 11
2967.5622221624171289
 21
170.7699959432707999
 31
0.0
  0
LINE
  5
A49C
  8
0
 10
2967.5307260994168246
 20
209.714877833271089
 30
0.0
 11
2967.5622221624171289
 21
209.6833817702706995
 31
0.0
  0
LINE
  5
A49D
  8
0
 10
2967.5622221624171289
 20
170.7699959434706898
 30
0.0
 11
2967.5307260994168246
 21
170.7384998805707141
 31
0.0
  0
LINE
  5
A49E
  8
0
 10
2967.5622221626181272
 20
170.7699959436706934
 30
0.0
 11
2984.5196132043688522
 21
170.7699959436706934
 31
0.0
  0
LINE
  5
A49F
  8
0
 10
2984.519613204568941
 20
170.7698696519290991
 30
0.0
 11
2984.5511092675710643
 21
170.7386022499850924
 31
0.0
  0
LINE
  5
A4A0
  8
0
 10
2944.3457053090860427
 20
176.4463566616707908
 30
0.0
 11
2956.0069290474530135
 21
176.4463566616707908
 31
0.0
  0
LINE
  5
A4A1
  8
0
 10
2941.3890053090858601
 20
179.4030566616708029
 30
0.0
 11
2941.2674435208527939
 21
210.0514172190738975
 31
0.0
  0
ARC
  5
A4A2
  8
0
 10
2944.3457053090860427
 20
179.4030566616708029
 30
0.0
 40
2.9567000000000001
 50
180.0
 51
270.0
  0
ARC
  5
A4A3
  8
0
 10
2955.8946501237701341
 20
179.6741219619937908
 30
0.0
 40
3.2297175403852689
 50
271.99225005816362
 51
355.1855885924244944
  0
LINE
  5
A4A4
  8
0
 10
2959.1129725118530587
 20
212.3042710897227892
 30
0.0
 11
2959.1129725118530587
 21
179.4030566616708029
 31
0.0
  0
ARC
  5
A4A5
  8
0
 10
2957.9844630537581907
 20
209.8384538525691028
 30
0.0
 40
2.7536522849214742
 50
76.5305311056252151
 51
87.2756565746226585
  0
ARC
  5
A4A6
  8
0
 10
2958.9819024012140289
 20
215.3137698873740078
 30
0.0
 40
2.8199715671749339
 50
262.7466949566968992
 51
269.628722009971284
  0
ARC
  5
A4A7
  8
0
 10
2959.1225209613098741
 20
229.0388218905964948
 30
0.0
 40
16.5457273172440189
 50
269.4497687637298213
 51
270.1933345645142026
  0
ARC
  5
A4A8
  8
0
 10
2959.5180192754150994
 20
212.2698677407508114
 30
0.0
 40
0.4065051919627395
 50
146.6763199720805915
 51
175.1451360071980901
  0
LINE
  5
A4A9
  8
0
 10
2958.8613854793529754
 20
212.4963747586745058
 30
0.0
 11
2958.8613854793529754
 21
179.3990776765737962
 31
0.0
  0
LINE
  5
A4AA
  8
0
 10
2939.1938702307529638
 20
211.4590180549739102
 30
0.0
 11
2939.1938702307529638
 21
210.4699715981739132
 31
0.0
  0
ARC
  5
A4AB
  8
0
 10
2939.0611170323040824
 20
211.4562381997066893
 30
0.0
 40
0.1327823003781812
 50
1.199599728809797
 51
88.8982227975542543
  0
LINE
  5
A4AC
  8
0
 10
2956.108685479352971
 20
176.6463776765737919
 30
0.0
 11
2944.341632598553133
 21
176.6463776765737919
 31
0.0
  0
ARC
  5
A4AD
  8
0
 10
2956.108685479352971
 20
179.3990776765737962
 30
0.0
 40
2.752699999999999
 50
270.0
 51
0.0
  0
LINE
  5
A4AE
  8
0
 10
2941.5889325985531286
 20
179.3990776765737962
 30
0.0
 11
2941.5089278085388287
 21
210.3224916818454915
 31
0.0
  0
ARC
  5
A4AF
  8
0
 10
2944.341632598553133
 20
179.3990776765737962
 30
0.0
 40
2.752699999999999
 50
180.0
 51
270.0
  0
LINE
  5
A4B0
  8
0
 10
2960.9128433620458054
 20
211.5889959507850904
 30
0.0
 11
2960.9128433620458054
 21
210.3395494939852028
 31
0.0
  0
LINE
  5
A4B1
  8
0
 10
2967.4029991134179909
 20
209.7389053123704912
 30
0.0
 11
2967.4029991134179909
 21
170.7384998805707141
 31
0.0
  0
ARC
  5
A4B2
  8
0
 10
2967.6113042538017908
 20
209.682719135515697
 30
0.0
 40
0.2157496650750506
 50
114.0195265067277006
 51
164.904836556367286
  0
LINE
  5
A4B3
  8
0
 10
2941.2396642880930813
 20
212.2147676888658054
 30
0.0
 11
2941.2487888086529892
 21
211.5889959507850904
 31
0.0
  0
ARC
  5
A4B4
  8
0
 10
2940.7316073339170543
 20
212.2485542402328065
 30
0.0
 40
0.5091777314423933
 50
356.1953358228278717
 51
26.0815654909944499
  0
ARC
  5
A4B5
  8
0
 10
2940.9766219954849475
 20
212.3378566620804122
 30
0.0
 40
0.2513614757802709
 50
32.3653055727129626
 51
87.5795518800707526
  0
ARC
  5
A4B6
  8
0
 10
2941.2777005532771
 20
216.2652204233023099
 30
0.0
 40
3.7750965183517762
 50
268.4495211670885055
 51
276.9017312841908165
  0
ARC
  5
A4B7
  8
0
 10
2944.4164163790378552
 20
200.2216961363452867
 30
0.0
 40
12.5855436643891707
 50
101.4671940224475009
 51
102.3185042687471054
  0
ARC
  5
A4B8
  8
0
 10
2942.3673885647158386
 20
209.5770628201588011
 30
0.0
 40
3.0132090603156851
 50
91.6687992575231476
 51
98.6477518731187359
  0
LINE
  5
A4B9
  8
0
 10
2941.231888171483206
 20
211.5889959507850904
 30
0.0
 11
2941.2477639242260921
 21
210.2200363040005868
 31
0.0
  0
LINE
  5
A4BA
  8
0
 10
2941.0676490353657755
 20
209.9589823283739065
 30
0.0
 11
2932.9262864727529632
 21
209.9589823283739065
 31
0.0
  0
LINE
  5
A4BB
  8
0
 10
2941.7602742411349936
 20
209.9589823283739065
 30
0.0
 11
2958.8613854793529754
 21
209.9589823283739065
 31
0.0
  0
ARC
  5
A4BC
  8
0
 10
2941.7671921728028792
 20
210.078588610470689
 30
0.0
 40
0.2610433005815786
 50
91.4397973144406677
 51
164.0910319332978133
  0
ARC
  5
A4BD
  8
0
 10
2941.9509788784289412
 20
210.0659689831759067
 30
0.0
 40
0.4429038681646901
 50
169.0442634768980952
 51
175.6725994443143009
  0
ARC
  5
A4BE
  8
0
 10
2941.6467311651072123
 20
210.1343944510659867
 30
0.0
 40
0.1417828915191678
 50
194.2940180526088056
 51
245.9423621506192887
  0
ARC
  5
A4BF
  8
0
 10
2941.7788433962818999
 20
210.3706939284720079
 30
0.0
 40
0.4121301434961489
 50
242.561065604652299
 51
267.4175765942272278
  0
ARC
  5
A4C0
  8
0
 10
2941.0516440436608718
 20
210.1333065653435028
 30
0.0
 40
0.2144412626346952
 50
2.4062862437793391
 51
30.3946139169465113
  0
ARC
  5
A4C1
  8
0
 10
2941.0648509621901212
 20
210.1413328208550979
 30
0.0
 40
0.198988727193544
 50
30.3252040420616709
 51
84.9512046453907033
  0
ARC
  5
A4C2
  8
0
 10
2940.2360646126571737
 20
210.0794399559792112
 30
0.0
 40
1.031759529180456
 50
358.4436470178129071
 51
3.433709811123669
  0
ARC
  5
A4C3
  8
0
 10
2941.1774285435449201
 20
210.0766528818616052
 30
0.0
 40
0.093485479172015
 50
297.2895197804580789
 51
344.3391809114721127
  0
ARC
  5
A4C4
  8
0
 10
2941.0697729659541437
 20
210.3036993084133996
 30
0.0
 40
0.344723523143986
 50
269.6469836804923261
 51
295.8892108161487045
  0
LINE
  5
A4C5
  8
0
 10
2941.5089278085388287
 20
210.3224916818454062
 30
0.0
 11
2941.4798336508520151
 21
212.2116450827739129
 31
0.0
  0
ARC
  5
A4C6
  8
0
 10
2941.9776668857339246
 20
212.1913068463180991
 30
0.0
 40
0.4982485058829922
 50
141.2790384617179029
 51
177.6605670688892076
  0
ARC
  5
A4C7
  8
0
 10
2941.7648159818991189
 20
211.8677466263806082
 30
0.0
 40
0.2802123966536513
 50
184.5035762971484132
 51
263.7156526267368122
  0
LINE
  5
A4C9
  8
0
 10
2932.9262864727529632
 20
170.7386022499850924
 30
0.0
 11
2984.8070147793691831
 21
170.7386022499850924
 31
0.0
  0
ENDSEC
  0
EOF
