  0
SECTION
  2
HEADER
  9
$ACADVER
  1
AC1009
  9
$INSBASE
 10
2975.695777094890218
 20
187.1731392264786109
 30
0.0
  9
$EXTMIN
 10
2948.7731884194618033
 20
187.1534271307795905
 30
-0.0015258207003583
  9
$EXTMAX
 10
2975.8331257737158921
 20
229.0302709034436077
 30
0.0000000349246037
  9
$LIMMIN
 10
0.0
 20
0.0
  9
$LIMMAX
 10
11.6929133858000007
 20
8.2677165353999982
  9
$ORTHOMODE
 70
     0
  9
$REGENMODE
 70
     1
  9
$FILLMODE
 70
     1
  9
$QTEXTMODE
 70
     0
  9
$MIRRTEXT
 70
     0
  9
$DRAGMODE
 70
     2
  9
$LTSCALE
 40
0.6431102362
  9
$OSMODE
 70
  4095
  9
$ATTMODE
 70
     1
  9
$TEXTSIZE
 40
0.2
  9
$TRACEWID
 40
0.05
  9
$TEXTSTYLE
  7
STANDARD
  9
$CLAYER
  8
0
  9
$CELTYPE
  6
BYLAYER
  9
$CECOLOR
 62
   256
  9
$DIMSCALE
 40
1.0
  9
$DIMASZ
 40
0.1875
  9
$DIMEXO
 40
0.0625
  9
$DIMDLI
 40
0.4443307087
  9
$DIMRND
 40
0.0
  9
$DIMDLE
 40
0.0
  9
$DIMEXE
 40
0.125
  9
$DIMTP
 40
0.01
  9
$DIMTM
 40
0.01
  9
$DIMTXT
 40
2.0
  9
$DIMCEN
 40
0.1052362205
  9
$DIMTSZ
 40
0.0
  9
$DIMTOL
 70
     1
  9
$DIMLIM
 70
     0
  9
$DIMTIH
 70
     1
  9
$DIMTOH
 70
     1
  9
$DIMSE1
 70
     0
  9
$DIMSE2
 70
     0
  9
$DIMTAD
 70
     0
  9
$DIMZIN
 70
     0
  9
$DIMBLK
  1

  9
$DIMASO
 70
     1
  9
$DIMSHO
 70
     1
  9
$DIMPOST
  1
\X
  9
$DIMAPOST
  1

  9
$DIMALT
 70
     1
  9
$DIMALTD
 70
     2
  9
$DIMALTF
 40
25.3999999999999986
  9
$DIMLFAC
 40
1.0
  9
$DIMTOFL
 70
     0
  9
$DIMTVP
 40
0.0
  9
$DIMTIX
 70
     0
  9
$DIMSOXD
 70
     0
  9
$DIMSAH
 70
     0
  9
$DIMBLK1
  1

  9
$DIMBLK2
  1

  9
$DIMSTYLE
  2
STANDARD
  9
$DIMCLRD
 70
     0
  9
$DIMCLRE
 70
     0
  9
$DIMCLRT
 70
     0
  9
$DIMTFAC
 40
1.0
  9
$DIMGAP
 40
0.09
  9
$LUNITS
 70
     2
  9
$LUPREC
 70
     4
  9
$SKETCHINC
 40
0.1
  9
$FILLETRAD
 40
0.0
  9
$AUNITS
 70
     0
  9
$AUPREC
 70
     0
  9
$MENU
  1
.
  9
$ELEVATION
 40
0.0
  9
$PELEVATION
 40
0.0
  9
$THICKNESS
 40
0.0
  9
$LIMCHECK
 70
     0
  9
$BLIPMODE
 70
     0
  9
$CHAMFERA
 40
0.0
  9
$CHAMFERB
 40
0.0
  9
$SKPOLY
 70
     0
  9
$TDCREATE
 40
2458060.468368056230247
  9
$TDUPDATE
 40
2459615.7877199067734182
  9
$TDINDWG
 40
0.3651575231
  9
$TDUSRTIMER
 40
0.3651575231
  9
$USRTIMER
 70
     1
  9
$ANGBASE
 50
0.0
  9
$ANGDIR
 70
     0
  9
$PDMODE
 70
     0
  9
$PDSIZE
 40
0.3125
  9
$PLINEWID
 40
0.0
  9
$COORDS
 70
     1
  9
$SPLFRAME
 70
     0
  9
$SPLINETYPE
 70
     6
  9
$SPLINESEGS
 70
     8
  9
$ATTDIA
 70
     1
  9
$ATTREQ
 70
     1
  9
$HANDLING
 70
     1
  9
$HANDSEED
  5
A62B
  9
$SURFTAB1
 70
     6
  9
$SURFTAB2
 70
     6
  9
$SURFTYPE
 70
     6
  9
$SURFU
 70
     6
  9
$SURFV
 70
     6
  9
$UCSNAME
  2

  9
$UCSORG
 10
0.0
 20
0.0
 30
0.0
  9
$UCSXDIR
 10
1.0
 20
0.0
 30
0.0
  9
$UCSYDIR
 10
0.0
 20
1.0
 30
0.0
  9
$PUCSNAME
  2

  9
$PUCSORG
 10
0.0
 20
0.0
 30
0.0
  9
$PUCSXDIR
 10
1.0
 20
0.0
 30
0.0
  9
$PUCSYDIR
 10
0.0
 20
1.0
 30
0.0
  9
$USERI1
 70
     0
  9
$USERI2
 70
     0
  9
$USERI3
 70
     0
  9
$USERI4
 70
     0
  9
$USERI5
 70
     0
  9
$USERR1
 40
0.0
  9
$USERR2
 40
0.0
  9
$USERR3
 40
0.0
  9
$USERR4
 40
0.0
  9
$USERR5
 40
0.0
  9
$WORLDVIEW
 70
     1
  9
$SHADEDGE
 70
     3
  9
$SHADEDIF
 70
    70
  9
$TILEMODE
 70
     1
  9
$MAXACTVP
 70
    64
  9
$PLIMCHECK
 70
     0
  9
$PEXTMIN
 10
1.0000000000000000E+20
 20
1.0000000000000000E+20
 30
1.0000000000000000E+20
  9
$PEXTMAX
 10
-1.0000000000000000E+20
 20
-1.0000000000000000E+20
 30
-1.0000000000000000E+20
  9
$PLIMMIN
 10
0.0
 20
0.0
  9
$PLIMMAX
 10
12.0
 20
9.0
  9
$UNITMODE
 70
     0
  9
$VISRETAIN
 70
     1
  9
$PLINEGEN
 70
     0
  9
$PSLTSCALE
 70
     1
  0
ENDSEC
  0
SECTION
  2
TABLES
  0
TABLE
  2
VPORT
 70
     1
  0
VPORT
  2
*ACTIVE
 70
     0
 10
0.0
 20
0.0
 11
1.0
 21
1.0
 12
620.3283035809636203
 22
71.7583514369196536
 13
0.0
 23
0.0
 14
1.0
 24
1.0
 15
0.0
 25
0.0
 16
0.0
 26
0.0
 36
48.1717359839548322
 17
2341.974853515625
 27
136.3334975801919029
 37
0.0
 40
42.2087606321566611
 41
1.67063492063492
 42
50.0
 43
0.0
 44
0.0
 50
0.0
 51
0.0
 71
     0
 72
   100
 73
     1
 74
     1
 75
     0
 76
     0
 77
     0
 78
     0
  0
ENDTAB
  0
TABLE
  2
LTYPE
 70
     2
  0
LTYPE
  2
CONTINUOUS
 70
     0
  3
Solid line
 72
    65
 73
     0
 40
0.0
  0
LTYPE
  2
PHANTOM2
 70
     0
  3
___ _ _ ___ _ _ ___ _ _ ___ _ _
 72
    65
 73
     6
 40
1.25
 49
0.625
 49
-0.125
 49
0.125
 49
-0.125
 49
0.125
 49
-0.125
  0
ENDTAB
  0
TABLE
  2
LAYER
 70
     2
  0
LAYER
  2
0
 70
     0
 62
   255
  6
CONTINUOUS
  0
LAYER
  2
DEFPOINTS
 70
     0
 62
     7
  6
CONTINUOUS
  0
ENDTAB
  0
TABLE
  2
STYLE
 70
     1
  0
STYLE
  2
STANDARD
 70
     0
 40
0.0
 41
0.8
 50
0.0
 71
     0
 42
0.2
  3
txt
  4

  0
ENDTAB
  0
TABLE
  2
VIEW
 70
     0
  0
ENDTAB
  0
TABLE
  2
UCS
 70
     0
  0
ENDTAB
  0
TABLE
  2
APPID
 70
     9
  0
APPID
  2
ACAD
 70
     0
  0
APPID
  2
ACAD_MLEADERVER
 70
     0
  0
APPID
  2
ACAD_EXEMPT_FROM_CAD_STANDARDS
 70
     0
  0
APPID
  2
ACAD_NAV_VCDISPLAY
 70
     0
  0
APPID
  2
ACAECLAYERSTANDARD
 70
     0
  0
APPID
  2
ACCMTRANSPARENCY
 70
     0
  0
APPID
  2
ACAD_DSTYLE_DIMJAG
 70
     0
  0
APPID
  2
ACAD_DSTYLE_DIMTALN
 70
     0
  0
APPID
  2
ACDBATTR
 70
     0
  0
ENDTAB
  0
TABLE
  2
DIMSTYLE
 70
     1
  0
DIMSTYLE
  2
STANDARD
 70
     0
  3

  4

  5

  6

  7

 40
1.0
 41
0.1875
 42
0.0625
 43
0.38
 44
0.125
 45
0.0
 46
0.0
 47
0.01
 48
0.01
140
0.15625
141
0.09
142
0.0
143
25.3999999999999986
144
1.0
145
0.0
146
1.0
147
0.09
 71
     1
 72
     0
 73
     1
 74
     1
 75
     0
 76
     0
 77
     0
 78
     4
170
     0
171
     2
172
     0
173
     0
174
     0
175
     0
176
     0
177
     0
178
     0
  0
ENDTAB
  0
ENDSEC
  0
SECTION
  2
BLOCKS
  0
BLOCK
  8
0
  2
$MODEL_SPACE
 70
     0
 10
0.0
 20
0.0
 30
0.0
  3
$MODEL_SPACE
  1

  0
ENDBLK
  5
21
  8
0
  0
BLOCK
 67
     1
  8
0
  2
$PAPER_SPACE
 70
     0
 10
0.0
 20
0.0
 30
0.0
  3
$PAPER_SPACE
  1

  0
ENDBLK
  5
1D
 67
     1
  8
0
  0
ENDSEC
  0
SECTION
  2
ENTITIES
  0
ATTDEF
  5
3930
  8
DEFPOINTS
 10
2975.6922485785348726
 20
187.1697969433965909
 30
0.0
 40
0.001
  1
K-29719T-RCP
  3

  2
MODELNUMBER
 70
     0
1001
ACDBATTR
1070
     0
1070
     1
  0
ATTDEF
  5
3931
  8
DEFPOINTS
 10
2975.6922485785348726
 20
187.168130276730011
 30
0.0
 40
0.001
  1

  3

  2
TRADENAME
 70
     0
1001
ACDBATTR
1070
     0
1070
     1
  0
ATTDEF
  5
3932
  8
DEFPOINTS
 10
2975.6922485785348726
 20
187.166463610063289
 30
0.0
 40
0.001
  1
BATH
  3

  2
PRODUCT
 70
     0
1001
ACDBATTR
1070
     0
1070
     1
  0
LINE
  5
A57F
  8
0
 10
2975.695777094890218
 20
228.0235329272786089
 30
0.0
 11
2975.695777094890218
 21
187.1731392264786109
 31
0.0
  0
LINE
  5
A580
  8
0
 10
2948.9831392995902206
 20
187.1731392264786109
 30
0.0
 11
2975.695777094890218
 21
187.1731392264786109
 31
0.0
  0
LINE
  5
A581
  8
0
 10
2948.9831392995902206
 20
226.3286224290243922
 30
0.0
 11
2948.9831392995902206
 21
187.1731392264786109
 31
0.0
  0
LINE
  5
A582
  8
0
 10
2948.9328549420902164
 20
228.0235329272786089
 30
0.0
 11
2948.9509234469342118
 21
228.5409815199627985
 31
0.0
  0
ARC
  5
A583
  8
0
 10
2949.4506189007988723
 20
228.5235329272786089
 30
0.0
 40
0.5
 50
90.0
 51
178.000132510399709
  0
LINE
  5
A584
  8
0
 10
2949.4506189007988723
 20
229.0235329272786089
 30
0.0
 11
2975.4107039393361447
 21
229.0235329272786089
 31
0.0
  0
LINE
  5
A585
  8
0
 10
2949.3111235515898443
 20
227.9686251343786125
 30
0.0
 11
2949.3111235515898443
 21
226.9047638895785894
 31
0.0
  0
LINE
  5
A586
  8
0
 10
2948.9328549420902164
 20
228.0235329272786089
 30
0.0
 11
2975.695777094890218
 21
228.0235329272786089
 31
0.0
  0
ARC
  5
A587
  8
0
 10
2949.2147584846861719
 20
227.9232090876610926
 30
0.0
 40
0.10653095052013
 50
25.23410812227986
 51
70.3680839309772637
  0
ARC
  5
A588
  8
0
 10
2949.1688900796029884
 20
226.9168089341019083
 30
0.0
 40
0.1427425782696791
 50
270.9618828091855107
 51
355.1594550855044758
  0
ARC
  5
A589
  8
0
 10
2949.1743103187282031
 20
226.5239447599873017
 30
0.0
 40
0.2501599884467772
 50
89.3073798002722725
 51
236.8812848678628882
  0
LINE
  5
A58A
  8
0
 10
2949.0146353625900701
 20
226.1495171792786039
 30
0.0
 11
2949.1091235515900735
 21
226.1495171792786039
 31
0.0
  0
LINE
  5
A58B
  8
0
 10
2949.0146353625900701
 20
226.1495171792786039
 30
0.0
 11
2948.9831392995902206
 21
226.1180211162786122
 31
0.0
  0
LINE
  5
A58C
  8
0
 10
2949.1091235515900735
 20
226.1495171792786039
 30
0.0
 11
2949.1091235515900735
 21
187.1731392264786109
 31
0.0
  0
ARC
  5
A58D
  8
0
 10
2948.8266432365899163
 20
226.311043126478495
 30
0.0
 40
0.1574803150001386
 50
6.4092040800605528
 51
31.4875561954443697
  0
LINE
  5
A58E
  8
0
 10
2949.1773343048348579
 20
226.7740864704786077
 30
0.0
 11
2973.2956779985811409
 21
226.7740864704786077
 31
0.0
  0
LINE
  5
A58F
  8
0
 10
2949.0376290137292017
 20
226.3144256900116034
 30
0.0
 11
2973.2795497968231757
 21
226.3144256900116034
 31
0.0
  0
LINE
  5
A590
  8
0
 10
2975.687046902489783
 20
228.0235329272786089
 30
0.0
 11
2975.6605516460908802
 21
228.7822578014389023
 31
0.0
  0
ARC
  5
A591
  8
0
 10
2975.4107039393361447
 20
228.7735329272786089
 30
0.0
 40
0.25
 50
1.9999999970155691
 51
90.0
  0
LINE
  5
A592
  8
0
 10
2950.674123551590128
 20
228.0235329272786089
 30
0.0
 11
2950.674123551590128
 21
226.7735329272786089
 31
0.0
  0
LINE
  5
A594
  8
0
 10
2972.1220638261102067
 20
193.3255709703117873
 30
0.0
 11
2973.3395175546129394
 21
228.0235329272786089
 31
0.0
  0
ARC
  5
A595
  8
0
 10
2960.8896048996512036
 20
190.9669761009830893
 30
0.0
 40
0.4262204975848469
 50
225.0000002096518017
 51
269.9999994809563191
  0
ARC
  5
A596
  8
0
 10
2963.7296048908738157
 20
190.9669761107724923
 30
0.0
 40
0.4262205073742981
 50
270.0000006339466836
 51
314.9999976559877837
  0
ARC
  5
A597
  8
0
 10
2969.8873908750329065
 20
193.4076234014817999
 30
0.0
 40
2.2361788389427768
 50
273.9455101156464139
 51
357.8971656852472165
  0
ARC
  5
A598
  8
0
 10
2957.7226120287800768
 20
502.0229413244733223
 30
0.0
 40
311.0901913223531778
 50
271.3046478568401199
 51
272.26940927502568
  0
ARC
  5
A599
  8
0
 10
2961.2848598004297855
 20
346.1741812509529836
 30
0.0
 40
155.2007263400074066
 50
269.5658658221145174
 51
271.2998883943839132
  0
ARC
  5
A59A
  8
0
 10
2960.3577447312932236
 20
196.4522316707204936
 30
0.0
 40
5.4799743145325976
 50
262.9750771326022232
 51
267.397356635831386
  0
ARC
  5
A59B
  8
0
 10
2981.6185654938908556
 20
988.6950174771053526
 30
0.0
 40
797.9830451677374867
 50
267.8140482140562995
 51
268.4251375240709763
  0
LINE
  5
A59C
  8
0
 10
2950.8636602664851125
 20
191.6782673960551051
 30
0.0
 11
2949.656170499783002
 21
226.3144256900116034
 31
0.0
  0
ARC
  5
A59D
  8
0
 10
2951.277923590716
 20
191.6958775252606983
 30
0.0
 40
0.4146374542349708
 50
182.4341497636918916
 51
256.5182667513295769
  0
LINE
  5
A59E
  8
0
 10
2949.5738035980461973
 20
192.8228907806910115
 30
0.0
 11
2950.823668423071922
 21
192.7574100635156924
 31
0.0
  0
LINE
  5
A59F
  8
0
 10
2949.6787642600270374
 20
225.6663365070969007
 30
0.0
 11
2949.4823618027899101
 21
225.6615675359983015
 31
0.0
  0
LINE
  5
A5A0
  8
0
 10
2949.4823618027899101
 20
225.6615675359983015
 30
0.0
 11
2949.5738035980461973
 21
192.8228907806910115
 31
0.0
  0
CIRCLE
  5
A5A1
  8
0
 10
2955.5603123730311381
 20
223.7692276405954033
 30
0.0
 40
1.2492428354940881
  0
ARC
  5
A5A2
  8
0
 10
2964.7740858406650659
 20
190.238420311050902
 30
0.0
 40
0.834156418404925
 50
113.1050154353998067
 51
127.7600818164658989
  0
LINE
  5
A5A3
  8
0
 10
2964.263284818421198
 20
190.8978892231615134
 30
0.0
 11
2964.0309882895890041
 21
190.665592687397492
 31
0.0
  0
ARC
  5
A5A4
  8
0
 10
2960.1623347174217997
 20
190.7042994894090953
 30
0.0
 40
0.2737775987944207
 50
44.9999231879821266
 51
87.9986135296612986
  0
LINE
  5
A5A5
  8
0
 10
2960.3559249735981211
 20
190.8978892265222953
 30
0.0
 11
2960.5882214966300126
 21
190.6655926957573968
 31
0.0
  0
LINE
  5
A5A6
  8
0
 10
2960.8896048996512036
 20
190.5407556033981962
 30
0.0
 11
2963.7296048955900005
 21
190.5407556033981962
 31
0.0
  0
ENDSEC
  0
EOF
