  0
SECTION
  2
HEADER
  9
$ACADVER
  1
AC1018
  9
$ACADMAINTVER
 70
   104
  9
$DWGCODEPAGE
  3
ANSI_936
  9
$LASTSAVEDBY
  1
ko59342
  9
$INSBASE
 10
0.0
 20
0.0
 30
0.0
  9
$EXTMIN
 10
-11.4576867797
 20
-7.2867631946
 30
0.0
  9
$EXTMAX
 10
21.7745796227464
 20
25.34153760276629
 30
0.0
  9
$LIMMIN
 10
0.0
 20
0.0
  9
$LIMMAX
 10
22.0
 20
17.0
  9
$ORTHOMODE
 70
     1
  9
$REGENMODE
 70
     1
  9
$FILLMODE
 70
     1
  9
$QTEXTMODE
 70
     0
  9
$MIRRTEXT
 70
     0
  9
$LTSCALE
 40
1.209999999999999
  9
$ATTMODE
 70
     1
  9
$TEXTSIZE
 40
0.2
  9
$TRACEWID
 40
0.05
  9
$TEXTSTYLE
  7
STANDARD
  9
$CLAYER
  8
0
  9
$CELTYPE
  6
BYLAYER
  9
$CECOLOR
 62
   256
  9
$CELTSCALE
 40
1.0
  9
$DISPSILH
 70
     0
  9
$DIMSCALE
 40
1.0
  9
$DIMASZ
 40
0.12
  9
$DIMEXO
 40
0.05
  9
$DIMDLI
 40
0.5
  9
$DIMRND
 40
0.0
  9
$DIMDLE
 40
0.0
  9
$DIMEXE
 40
0.1
  9
$DIMTP
 40
0.1
  9
$DIMTM
 40
0.1
  9
$DIMTXT
 40
0.12
  9
$DIMCEN
 40
0.0
  9
$DIMTSZ
 40
0.0
  9
$DIMTOL
 70
     0
  9
$DIMLIM
 70
     0
  9
$DIMTIH
 70
     1
  9
$DIMTOH
 70
     1
  9
$DIMSE1
 70
     0
  9
$DIMSE2
 70
     0
  9
$DIMTAD
 70
     0
  9
$DIMZIN
 70
     7
  9
$DIMBLK
  1

  9
$DIMASO
 70
     1
  9
$DIMSHO
 70
     1
  9
$DIMPOST
  1

  9
$DIMAPOST
  1
mm
  9
$DIMALT
 70
     0
  9
$DIMALTD
 70
     2
  9
$DIMALTF
 40
25.4
  9
$DIMLFAC
 40
1.0
  9
$DIMTOFL
 70
     0
  9
$DIMTVP
 40
0.0
  9
$DIMTIX
 70
     0
  9
$DIMSOXD
 70
     0
  9
$DIMSAH
 70
     0
  9
$DIMBLK1
  1

  9
$DIMBLK2
  1

  9
$DIMSTYLE
  2
AM_ANSI
  9
$DIMCLRD
 70
   256
  9
$DIMCLRE
 70
   256
  9
$DIMCLRT
 70
     2
  9
$DIMTFAC
 40
0.71
  9
$DIMGAP
 40
0.06
  9
$DIMJUST
 70
     0
  9
$DIMSD1
 70
     0
  9
$DIMSD2
 70
     0
  9
$DIMTOLJ
 70
     1
  9
$DIMTZIN
 70
     7
  9
$DIMALTZ
 70
     0
  9
$DIMALTTZ
 70
     0
  9
$DIMUPT
 70
     0
  9
$DIMDEC
 70
     4
  9
$DIMTDEC
 70
     4
  9
$DIMALTU
 70
     2
  9
$DIMALTTD
 70
     4
  9
$DIMTXSTY
  7
STANDARD
  9
$DIMAUNIT
 70
     0
  9
$DIMADEC
 70
     0
  9
$DIMALTRND
 40
0.0
  9
$DIMAZIN
 70
     2
  9
$DIMDSEP
 70
    46
  9
$DIMATFIT
 70
     3
  9
$DIMFRAC
 70
     0
  9
$DIMLDRBLK
  1

  9
$DIMLUNIT
 70
     2
  9
$DIMLWD
 70
    -1
  9
$DIMLWE
 70
    -1
  9
$DIMTMOVE
 70
     0
  9
$LUNITS
 70
     2
  9
$LUPREC
 70
     4
  9
$SKETCHINC
 40
0.1
  9
$FILLETRAD
 40
0.0
  9
$AUNITS
 70
     0
  9
$AUPREC
 70
     0
  9
$MENU
  1
.
  9
$ELEVATION
 40
0.0
  9
$PELEVATION
 40
0.0
  9
$THICKNESS
 40
0.0
  9
$LIMCHECK
 70
     0
  9
$CHAMFERA
 40
0.0
  9
$CHAMFERB
 40
0.0
  9
$CHAMFERC
 40
0.0
  9
$CHAMFERD
 40
0.0
  9
$SKPOLY
 70
     0
  9
$TDCREATE
 40
2455757.365658437
  9
$TDUCREATE
 40
2455757.032325105
  9
$TDUPDATE
 40
2455757.372674294
  9
$TDUUPDATE
 40
2455757.039340961
  9
$TDINDWG
 40
0.0060741782
  9
$TDUSRTIMER
 40
0.0060741782
  9
$USRTIMER
 70
     1
  9
$ANGBASE
 50
0.0
  9
$ANGDIR
 70
     0
  9
$PDMODE
 70
     3
  9
$PDSIZE
 40
0.3125
  9
$PLINEWID
 40
0.0
  9
$SPLFRAME
 70
     0
  9
$SPLINETYPE
 70
     6
  9
$SPLINESEGS
 70
     8
  9
$HANDSEED
  5
6B1
  9
$SURFTAB1
 70
     6
  9
$SURFTAB2
 70
     6
  9
$SURFTYPE
 70
     6
  9
$SURFU
 70
     6
  9
$SURFV
 70
     6
  9
$UCSBASE
  2

  9
$UCSNAME
  2

  9
$UCSORG
 10
0.0
 20
0.0
 30
0.0
  9
$UCSXDIR
 10
1.0
 20
0.0
 30
0.0
  9
$UCSYDIR
 10
0.0
 20
1.0
 30
0.0
  9
$UCSORTHOREF
  2

  9
$UCSORTHOVIEW
 70
     0
  9
$UCSORGTOP
 10
0.0
 20
0.0
 30
0.0
  9
$UCSORGBOTTOM
 10
0.0
 20
0.0
 30
0.0
  9
$UCSORGLEFT
 10
0.0
 20
0.0
 30
0.0
  9
$UCSORGRIGHT
 10
0.0
 20
0.0
 30
0.0
  9
$UCSORGFRONT
 10
0.0
 20
0.0
 30
0.0
  9
$UCSORGBACK
 10
0.0
 20
0.0
 30
0.0
  9
$PUCSBASE
  2

  9
$PUCSNAME
  2

  9
$PUCSORG
 10
0.0
 20
0.0
 30
0.0
  9
$PUCSXDIR
 10
1.0
 20
0.0
 30
0.0
  9
$PUCSYDIR
 10
0.0
 20
1.0
 30
0.0
  9
$PUCSORTHOREF
  2

  9
$PUCSORTHOVIEW
 70
     0
  9
$PUCSORGTOP
 10
0.0
 20
0.0
 30
0.0
  9
$PUCSORGBOTTOM
 10
0.0
 20
0.0
 30
0.0
  9
$PUCSORGLEFT
 10
0.0
 20
0.0
 30
0.0
  9
$PUCSORGRIGHT
 10
0.0
 20
0.0
 30
0.0
  9
$PUCSORGFRONT
 10
0.0
 20
0.0
 30
0.0
  9
$PUCSORGBACK
 10
0.0
 20
0.0
 30
0.0
  9
$USERI1
 70
     0
  9
$USERI2
 70
     0
  9
$USERI3
 70
     0
  9
$USERI4
 70
     0
  9
$USERI5
 70
     0
  9
$USERR1
 40
0.0
  9
$USERR2
 40
0.0
  9
$USERR3
 40
0.0
  9
$USERR4
 40
0.0
  9
$USERR5
 40
0.0
  9
$WORLDVIEW
 70
     1
  9
$SHADEDGE
 70
     3
  9
$SHADEDIF
 70
    70
  9
$TILEMODE
 70
     1
  9
$MAXACTVP
 70
    64
  9
$PINSBASE
 10
0.0
 20
0.0
 30
0.0
  9
$PLIMCHECK
 70
     0
  9
$PEXTMIN
 10
1.000000000000000E+20
 20
1.000000000000000E+20
 30
1.000000000000000E+20
  9
$PEXTMAX
 10
-1.000000000000000E+20
 20
-1.000000000000000E+20
 30
-1.000000000000000E+20
  9
$PLIMMIN
 10
0.0
 20
0.0
  9
$PLIMMAX
 10
12.0
 20
9.0
  9
$UNITMODE
 70
     0
  9
$VISRETAIN
 70
     1
  9
$PLINEGEN
 70
     0
  9
$PSLTSCALE
 70
     1
  9
$TREEDEPTH
 70
  3020
  9
$CMLSTYLE
  2
Standard
  9
$CMLJUST
 70
     0
  9
$CMLSCALE
 40
1.0
  9
$PROXYGRAPHICS
 70
     1
  9
$MEASUREMENT
 70
     0
  9
$CELWEIGHT
370
    -1
  9
$ENDCAPS
280
     0
  9
$JOINSTYLE
280
     0
  9
$LWDISPLAY
290
     0
  9
$INSUNITS
 70
     1
  9
$HYPERLINKBASE
  1

  9
$STYLESHEET
  1

  9
$XEDIT
290
     1
  9
$CEPSNTYPE
380
     0
  9
$PSTYLEMODE
290
     1
  9
$FINGERPRINTGUID
  2
{53F2403B-EE8F-40FD-A7D4-B9DE63DD159C}
  9
$VERSIONGUID
  2
{48C67A7B-D06A-47D3-8061-30A7340B06C5}
  9
$EXTNAMES
290
     1
  9
$PSVPSCALE
 40
0.0
  9
$OLESTARTUP
290
     0
  9
$SORTENTS
280
   127
  9
$INDEXCTL
280
     0
  9
$HIDETEXT
280
     1
  9
$XCLIPFRAME
290
     0
  9
$HALOGAP
280
     0
  9
$OBSCOLOR
 70
   257
  9
$OBSLTYPE
280
     0
  9
$INTERSECTIONDISPLAY
280
     0
  9
$INTERSECTIONCOLOR
 70
   257
  9
$DIMASSOC
280
     2
  9
$PROJECTNAME
  1

  0
ENDSEC
  0
SECTION
  2
CLASSES
  0
CLASS
  1
ACDBDICTIONARYWDFLT
  2
AcDbDictionaryWithDefault
  3
ObjectDBX Classes
 90
        0
 91
        1
280
     0
281
     0
  0
CLASS
  1
MATERIAL
  2
AcDbMaterial
  3
ObjectDBX Classes
 90
     1153
 91
        3
280
     0
281
     0
  0
CLASS
  1
VISUALSTYLE
  2
AcDbVisualStyle
  3
ObjectDBX Classes
 90
     4095
 91
       16
280
     0
281
     0
  0
CLASS
  1
TABLESTYLE
  2
AcDbTableStyle
  3
ObjectDBX Classes
 90
     4095
 91
        1
280
     0
281
     0
  0
CLASS
  1
SCALE
  2
AcDbScale
  3
ObjectDBX Classes
 90
     1153
 91
       33
280
     0
281
     0
  0
CLASS
  1
MLEADERSTYLE
  2
AcDbMLeaderStyle
  3
ACDB_MLEADERSTYLE_CLASS
 90
     4095
 91
        1
280
     0
281
     0
  0
CLASS
  1
CELLSTYLEMAP
  2
AcDbCellStyleMap
  3
ObjectDBX Classes
 90
     1152
 91
        5
280
     0
281
     0
  0
CLASS
  1
DICTIONARYVAR
  2
AcDbDictionaryVar
  3
ObjectDBX Classes
 90
        0
 91
        5
280
     0
281
     0
  0
CLASS
  1
ACME_DOCUMENT
  2
AcMeDbDoc
  3
AcMeServices
 90
     1024
 91
        2
280
     0
281
     0
  0
CLASS
  1
ACMESCOPE
  2
AcMeScope
  3
AcMeServices
 90
     1024
 91
        1
280
     0
281
     0
  0
CLASS
  1
ACMECOMMANDHISTORY
  2
AcMeCommandHistory
  3
AcMeServices
 90
     1024
 91
        1
280
     0
281
     0
  0
CLASS
  1
ACIMSYSVARMAN
  2
AcImSysVarManager
  3
AcMeServices
 90
     1024
 91
        5
280
     0
281
     0
  0
CLASS
  1
ACIMINTSYSVAR
  2
AcImIntSysVar
  3
AcMeServices
 90
     1024
 91
       27
280
     0
281
     0
  0
CLASS
  1
ACMEDRAWINGMAN
  2
AcMeDrawingMan
  3
AcMeServices
 90
     1024
 91
        1
280
     0
281
     0
  0
CLASS
  1
ACMEVIEW
  2
AcMeView
  3
AcMeServices
 90
     1024
 91
        1
280
     0
281
     0
  0
CLASS
  1
ACDBENTITYCACHE
  2
AcMeEntityCache
  3
AcMeServices
 90
     1024
 91
        1
280
     0
281
     0
  0
CLASS
  1
GSMANAGER
  2
AcMeGSManager
  3
AcMeServices
 90
     1024
 91
        1
280
     0
281
     0
  0
CLASS
  1
AMDTINTERNALREACTOR
  2
AmdtInternalReactor
  3
AcMeServices
 90
     1024
 91
        2
280
     0
281
     0
  0
CLASS
  1
ACMESTATEMGR
  2
AcMeStateMgr
  3
AcMeServices
 90
     1024
 91
        1
280
     0
281
     0
  0
CLASS
  1
ACGREFMASTER
  2
AcGrefMaster
  3
AcAttribServices
 90
     1024
 91
        1
280
     0
281
     0
  0
CLASS
  1
AM_DRAWING_MGR
  2
AcDmDwgMgr
  3
AcMechDwgViewMgmt
 90
     1024
 91
        1
280
     0
281
     0
  0
CLASS
  1
AM_DWG_DOCUMENT
  2
AcDmDwgDocument
  3
AcMechDwgViewMgmt
 90
     1024
 91
        1
280
     0
281
     0
  0
CLASS
  1
AM_DWG_SHEET
  2
AcDmSheet
  3
AcMechDwgViewMgmt
 90
     1024
 91
        1
280
     0
281
     0
  0
CLASS
  1
AM_VIEWDIMPARMAP
  2
AcDmViewDimParMap
  3
AcMechDwgViewMgmt
 90
     1024
 91
        1
280
     0
281
     0
  0
CLASS
  1
ACIMREALSYSVAR
  2
AcImRealSysVar
  3
AcMeServices
 90
     1024
 91
        1
280
     0
281
     0
  0
CLASS
  1
AM_DWGMGR_NAME
  2
AcDmDwgMgrName
  3
AcMechDwgViewMgmt
 90
     1024
 91
        1
280
     0
281
     0
  0
CLASS
  1
ACME_DATABASE
  2
AcMeDbDatabase
  3
AcMeServices
 90
     1024
 91
        2
280
     0
281
     0
  0
CLASS
  1
ACRFINSADJUSTERMGR
  2
AcRfInsAdjusterMgr
  3
AcMeServices
 90
     1024
 91
        1
280
     0
281
     0
  0
CLASS
  1
ACGREFACADMASTER
  2
AcGrefacadMaster
  3
AcGrefServices
 90
     1024
 91
        1
280
     0
281
     0
  0
CLASS
  1
AMDTMENUSTATEMGR
  2
AmdtMenuStateMgr
  3
McadcomServices
 90
     1024
 91
        1
280
     0
281
     0
  0
CLASS
  1
AMDTMCOMMENUSTATE
  2
AmdtMcomMenuState
  3
McadcomServices
 90
     1024
 91
        1
280
     0
281
     0
  0
CLASS
  1
AMIMASTER
  2
AmiMaster
  3
AmiServices
 90
     1024
 91
        1
280
     0
281
     0
  0
CLASS
  1
AMGSETTINGSOBJ
  2
AmgSettingsObj
  3
"AcadM|Product Description: AutoCAD Mechanical|Company: Autodesk, Inc."
 90
     1024
 91
        2
280
     0
281
     0
  0
CLASS
  1
MAPIAMMOUDLE
  2
MApiAmModule
  3
MApiAmServices
 90
     1024
 91
        1
280
     0
281
     0
  0
CLASS
  1
ACIMSTRSYSVAR
  2
AcImStrSysVar
  3
AcMeServices
 90
     1024
 91
        4
280
     0
281
     0
  0
CLASS
  1
AMDTADMENUSTATE
  2
AmdtAdMenuState
  3
DesignerServices
 90
     1024
 91
        1
280
     0
281
     0
  0
CLASS
  1
ADAPPL
  2
AcAdAppl
  3
DesignerServices
 90
     1024
 91
        1
280
     0
281
     0
  0
CLASS
  1
DEPMGR
  2
AcAdDepMgr
  3
DesignerServices
 90
     1024
 91
        1
280
     0
281
     0
  0
CLASS
  1
PARAMMGR
  2
AcAdParamMgr
  3
DesignerServices
 90
     1024
 91
        1
280
     0
281
     0
  0
CLASS
  1
PARAMSCOPE
  2
AcAdParamScope
  3
DesignerServices
 90
     1024
 91
        1
280
     0
281
     0
  0
CLASS
  1
NAMEDAPPL
  2
AcAdNamedAppl
  3
DesignerServices
 90
     1024
 91
        1
280
     0
281
     0
  0
CLASS
  1
AMDTDMMENUSTATE
  2
AmdtDmMenuState
  3
AcMechDwgViewMgmt
 90
     1024
 91
        1
280
     0
281
     0
  0
CLASS
  1
AMDTAMMENUSTATE
  2
AmdtAmMenuState
  3
DesignerAssemblies
 90
     1024
 91
        1
280
     0
281
     0
  0
CLASS
  1
ACAMPROJECT
  2
AcAmProject
  3
DesignerAssemblies
 90
     1024
 91
        1
280
     0
281
     0
  0
CLASS
  1
ACAMGRCOMPDEF
  2
AcAmGrCompDef
  3
DesignerAssemblies
 90
     1024
 91
        1
280
     0
281
     0
  0
CLASS
  1
ACCMCONTEXT
  2
AcCmContext
  3
DesignerAssemblies
 90
     1024
 91
        1
280
     0
281
     0
  0
CLASS
  1
ACAMCOMPDEF
  2
AcAmCompDef
  3
DesignerAssemblies
 90
     1024
 91
        1
280
     0
281
     0
  0
CLASS
  1
ACAMCOMPDEFMGR
  2
AcAmCompDefMgr
  3
DesignerAssemblies
 90
     1024
 91
        1
280
     0
281
     0
  0
CLASS
  1
AMCONTEXTMGR
  2
AcAmContextMgr
  3
DesignerAssemblies
 90
     1024
 91
        1
280
     0
281
     0
  0
CLASS
  1
ACAMCONTEXTMODELER
  2
AcAmContextModeler
  3
DesignerAssemblies
 90
     1024
 91
        1
280
     0
281
     0
  0
CLASS
  1
ACMDATADICTIONARY
  2
AcmDataDictionary
  3
"AcmSymBB|Product Description: AutoCAD Mechanical|Company: Autodesk, Inc."
 90
     1024
 91
        1
280
     0
281
     0
  0
CLASS
  1
CATALOGSTATE
  2
AcAmCatalogState
  3
DesignerAssemblies
 90
     1024
 91
        1
280
     0
281
     0
  0
CLASS
  1
ACAMGRCOMPDEFSET
  2
AcAmGrCompDefSet
  3
DesignerAssemblies
 90
     1024
 91
        1
280
     0
281
     0
  0
CLASS
  1
AMDTBROWSERDBTAB
  2
AmdtBrowserDbTab
  3
McadcomServices
 90
     1024
 91
        1
280
     0
281
     0
  0
CLASS
  1
CBROWSERAPPOBJECT
  2
CBrowserAppObject
  3
McadcomServices
 90
     1024
 91
        3
280
     0
281
     0
  0
CLASS
  1
DM_PLACEHOLDER
  2
AcDmSelsetPlaceholder
  3
AcMechDwgViewMgmt
 90
     1024
 91
        1
280
     0
281
     0
  0
CLASS
  1
ACMSTANDARDANSI
  2
AcmStandardANSI
  3
"Amdt_StdImp|Product Description: AutoCAD Mechanical|Company: Autodesk, Inc."
 90
     1024
 91
        0
280
     0
281
     0
  0
CLASS
  1
ACMSURFSTANDARDANSI
  2
AcmSurfTextStdANSI
  3
"Amdt_StdImp|Product Description: AutoCAD Mechanical|Company: Autodesk, Inc."
 90
     1024
 91
        0
280
     0
281
     0
  0
CLASS
  1
ACMFCFSTANDARDANSI
  2
AcmFCFStdANSI
  3
"Amdt_StdImp|Product Description: AutoCAD Mechanical|Company: Autodesk, Inc."
 90
     1024
 91
        0
280
     0
281
     0
  0
CLASS
  1
ACMWELDSTANDARDANSI
  2
AcmWeldingStdANSI
  3
"Amdt_StdImp|Product Description: AutoCAD Mechanical|Company: Autodesk, Inc."
 90
     1024
 91
        0
280
     0
281
     0
  0
CLASS
  1
ACMIDSTANDARDANSI
  2
AcmIdStdANSI
  3
"Amdt_StdImp|Product Description: AutoCAD Mechanical|Company: Autodesk, Inc."
 90
     1024
 91
        0
280
     0
281
     0
  0
CLASS
  1
ACMDATUMSTANDARDANSI
  2
AcmDatumStdANSI
  3
"Amdt_StdImp|Product Description: AutoCAD Mechanical|Company: Autodesk, Inc."
 90
     1024
 91
        0
280
     0
281
     0
  0
CLASS
  1
ACMBOMSTANDARDANSI
  2
AcmBOMStdANSI
  3
"Amdt_StdImp|Product Description: AutoCAD Mechanical|Company: Autodesk, Inc."
 90
     1024
 91
        0
280
     0
281
     0
  0
CLASS
  1
ACMDETAILSTANDARDANSI
  2
AmdtDetailSymStdANSI
  3
"Amdt_StdImp|Product Description: AutoCAD Mechanical|Company: Autodesk, Inc."
 90
     1024
 91
        0
280
     0
281
     0
  0
CLASS
  1
ACMSECTIONSTANDARDANSI
  2
AmdtSectionSymStdANSI
  3
"Amdt_StdImp|Product Description: AutoCAD Mechanical|Company: Autodesk, Inc."
 90
     1024
 91
        0
280
     0
281
     0
  0
CLASS
  1
ACMCENTERLINESTANDARDANSI
  2
AmdtCenterLineStdANSI
  3
"Amdt_StdImp|Product Description: AutoCAD Mechanical|Company: Autodesk, Inc."
 90
     1024
 91
        0
280
     0
281
     0
  0
CLASS
  1
ACMTHREADLINESTANDARDANSI
  2
AmdtThreadLineStdANSI
  3
"Amdt_StdImp|Product Description: AutoCAD Mechanical|Company: Autodesk, Inc."
 90
     1024
 91
        0
280
     0
281
     0
  0
CLASS
  1
ACMNOTESTANDARDANSI
  2
AmdtNoteStdANSI
  3
"Amdt_StdImp|Product Description: AutoCAD Mechanical|Company: Autodesk, Inc."
 90
     1024
 91
        0
280
     0
281
     0
  0
CLASS
  1
ACMTAPERSTANDARDANSI
  2
AcmTaperStdANSI
  3
"Amdt_StdImp|Product Description: AutoCAD Mechanical|Company: Autodesk, Inc."
 90
     1024
 91
        0
280
     0
281
     0
  0
CLASS
  1
ACMANOOTATIONVIEWSTANDARDANSI
  2
AmdtAnViewStdANSI
  3
"Amdt_StdImp|Product Description: AutoCAD Mechanical|Company: Autodesk, Inc."
 90
     1024
 91
        0
280
     0
281
     0
  0
CLASS
  1
ACAMGLAYSTD
  2
AcAmgLayStd
  3
"AmgLay|Product Description: AutoCAD Mechanical|Company: Autodesk, Inc."
 90
     1024
 91
        0
280
     0
281
     0
  0
CLASS
  1
ACAMGDIMSTD
  2
AcAmgDimStd
  3
"AmgDim|Product Description: AutoCAD Mechanical|Company: Autodesk, Inc."
 90
     1024
 91
        0
280
     0
281
     0
  0
CLASS
  1
AMGOBJPROPCFG
  2
AmgObjPropCfg
  3
"AmgLay|Product Description: AutoCAD Mechanical|Company: Autodesk, Inc."
 90
     1025
 91
        1
280
     0
281
     0
  0
CLASS
  1
ACAMGHOLECHARTSTDANSI
  2
AcAmgHoleChartStdANSI
  3
AmgDim|Product Description: AutoCAD Mechanical|Company: Autodesk, Inc.
 90
     1024
 91
        0
280
     0
281
     0
  0
CLASS
  1
ACAMGTITLESTD
  2
AcAmgTitleStd
  3
"AmgTitle|Product Description: AutoCAD Mechanical|Company: Autodesk, Inc."
 90
     4095
 91
        0
280
     0
281
     0
  0
CLASS
  1
AMDTNOTETEMPLATEDB
  2
AmdtNoteTemplateDB
  3
AcmSymBB|Product Description: AutoCAD Mechanical|Company: Autodesk, Inc.
 90
     1024
 91
        0
280
     0
281
     0
  0
CLASS
  1
EXACXREFPANELOBJECT
  2
ExAcXREFPanelObject
  3
EXAC_ESW
 90
     1025
 91
        1
280
     0
281
     0
  0
CLASS
  1
NPOCOLLECTION
  2
AcDbImpNonPersistentObjectsCollection
  3
ObjectDBX Classes
 90
     1153
 91
        1
280
     0
281
     0
  0
CLASS
  1
ACAMGFILTERDAT
  2
AcAmgFilterDat
  3
"AcadM|Product Description: AutoCAD Mechanical|Company: Autodesk, Inc."
 90
     1024
 91
        0
280
     0
281
     0
  0
ENDSEC
  0
SECTION
  2
TABLES
  0
TABLE
  2
VPORT
  5
8
102
{ACAD_XDICTIONARY
360
507
102
}
330
0
100
AcDbSymbolTable
 70
     1
  0
VPORT
  5
1F4
330
8
100
AcDbSymbolTableRecord
100
AcDbViewportTableRecord
  2
*ACTIVE
 70
     0
 10
0.0
 20
0.0
 11
1.0
 21
1.0
 12
-0.8341521325403959
 22
14.64564194251657
 13
0.0
 23
0.0
 14
1.0
 24
1.0
 15
0.0
 25
0.0
 16
0.0
 26
0.0
 36
1.0
 17
0.0
 27
0.0
 37
0.0
 40
32.79807628819327
 41
2.143364928909952
 42
50.0
 43
0.0
 44
0.0
 50
0.0
 51
0.0
 71
     0
 72
   100
 73
     1
 74
     1
 75
     0
 76
     0
 77
     0
 78
     0
281
     0
 65
     0
110
0.0
120
0.0
130
0.0
111
1.0
121
0.0
131
0.0
112
0.0
122
1.0
132
0.0
 79
     0
146
0.0
  0
ENDTAB
  0
TABLE
  2
LTYPE
  5
5
330
0
100
AcDbSymbolTable
 70
    19
  0
LTYPE
  5
14
330
5
100
AcDbSymbolTableRecord
100
AcDbLinetypeTableRecord
  2
BYBLOCK
 70
     0
  3

 72
    65
 73
     0
 40
0.0
  0
LTYPE
  5
15
330
5
100
AcDbSymbolTableRecord
100
AcDbLinetypeTableRecord
  2
BYLAYER
 70
     0
  3

 72
    65
 73
     0
 40
0.0
  0
LTYPE
  5
16
330
5
100
AcDbSymbolTableRecord
100
AcDbLinetypeTableRecord
  2
CONTINUOUS
 70
     0
  3
Solid line
 72
    65
 73
     0
 40
0.0
  0
LTYPE
  5
1F5
330
5
100
AcDbSymbolTableRecord
100
AcDbLinetypeTableRecord
  2
CENTER
 70
     0
  3
____ _ ____ _ ____ _ ____ _ ____ _ ____ _ ____
 72
    65
 73
     4
 40
0.6
 49
0.375
 74
     0
 49
-0.075
 74
     0
 49
0.075
 74
     0
 49
-0.075
 74
     0
  0
LTYPE
  5
1F6
330
5
100
AcDbSymbolTableRecord
100
AcDbLinetypeTableRecord
  2
HIDDEN
 70
     0
  3
- - - - - - - - - - - - - - - - - - - -
 72
    65
 73
     2
 40
0.2
 49
0.1
 74
     0
 49
-0.1
 74
     0
  0
LTYPE
  5
1F7
330
5
100
AcDbSymbolTableRecord
100
AcDbLinetypeTableRecord
  2
PHANTOM
 70
     0
  3
_____ _ _ _____ _ _ _____ _ _ _____
 72
    65
 73
     6
 40
0.8
 49
0.45
 74
     0
 49
-0.05
 74
     0
 49
0.1
 74
     0
 49
-0.05
 74
     0
 49
0.1
 74
     0
 49
-0.05
 74
     0
  0
LTYPE
  5
1F8
330
5
100
AcDbSymbolTableRecord
100
AcDbLinetypeTableRecord
  2
DOT
 70
     0
  3
. . . . . . . . . . . . . . . . . . . .
 72
    65
 73
     2
 40
0.2
 49
0.1
 74
     0
 49
-0.1
 74
     0
  0
LTYPE
  5
1F9
330
5
100
AcDbSymbolTableRecord
100
AcDbLinetypeTableRecord
  2
DASHED
 70
     0
  3
- - - - - - - - - - - - - - - - - - - -
 72
    65
 73
     2
 40
0.2
 49
0.1
 74
     0
 49
-0.1
 74
     0
  0
LTYPE
  5
45D
330
5
100
AcDbSymbolTableRecord
100
AcDbLinetypeTableRecord
  2
PHANTOM2
 70
     0
  3
Phantom (.5x) ___ _ _ ___ _ _ ___ _ _ ___ _ _
 72
    65
 73
     6
 40
1.25
 49
0.625
 74
     0
 49
-0.125
 74
     0
 49
0.125
 74
     0
 49
-0.125
 74
     0
 49
0.125
 74
     0
 49
-0.125
 74
     0
  0
LTYPE
  5
4A6
330
5
100
AcDbSymbolTableRecord
100
AcDbLinetypeTableRecord
  2
AM_ISO02W050
 70
     0
  3
__ __ __ __ __ __ __ __ __ __ __ __ __ __ __
 72
    65
 73
     2
 40
7.5
 49
6.0
 74
     0
 49
-1.5
 74
     0
  0
LTYPE
  5
4A7
330
5
100
AcDbSymbolTableRecord
100
AcDbLinetypeTableRecord
  2
AM_ISO08W050
 70
     0
  3
____ . ____ . ____ . ____ . ____ . ____ . ____
 72
    65
 73
     4
 40
18.0
 49
12.0
 74
     0
 49
-1.5
 74
     0
 49
3.0
 74
     0
 49
-1.5
 74
     0
  0
LTYPE
  5
4A8
330
5
100
AcDbSymbolTableRecord
100
AcDbLinetypeTableRecord
  2
AM_ISO09W050
 70
     0
  3
_____ . . _____ . . _____ . . ____ .. ____
 72
    65
 73
     6
 40
22.5
 49
12.0
 74
     0
 49
-1.5
 74
     0
 49
3.0
 74
     0
 49
-1.5
 74
     0
 49
3.0
 74
     0
 49
-1.5
 74
     0
  0
LTYPE
  5
4A9
330
5
100
AcDbSymbolTableRecord
100
AcDbLinetypeTableRecord
  2
Amconstr
 70
     0
  3
_______________________
 72
    65
 73
     2
 40
9999.0
 49
9999.0
 74
     0
 49
0.0
 74
     0
  0
LTYPE
  5
4AA
330
5
100
AcDbSymbolTableRecord
100
AcDbLinetypeTableRecord
  2
AM_ISO08W050x2
 70
     0
  3
__ . __ . __ . __ . __ . __
 72
    65
 73
     4
 40
9.0
 49
6.0
 74
     0
 49
-0.75
 74
     0
 49
1.5
 74
     0
 49
-0.75
 74
     0
  0
LTYPE
  5
4AB
330
5
100
AcDbSymbolTableRecord
100
AcDbLinetypeTableRecord
  2
AM_ISO02W050x2
 70
     0
  3
 _ _ _ _ _ _ _ _ _ _ _ _
 72
    65
 73
     2
 40
3.75
 49
3.0
 74
     0
 49
-0.75
 74
     0
  0
LTYPE
  5
4AE
330
5
100
AcDbSymbolTableRecord
100
AcDbLinetypeTableRecord
  2
Amzigzag
 70
     0
  3
/\/-/\/-/\/-/\/-/\/-/\/
 72
    65
 73
     2
 40
11.0001
 49
0.0001
 74
     4
 75
   136
340
4AD
 46
0.04
 50
0.0
 44
0.0
 45
0.0
 49
-11.0
 74
     0
  0
LTYPE
  5
4AF
330
5
100
AcDbSymbolTableRecord
100
AcDbLinetypeTableRecord
  2
CENTER2
 70
     0
  3
Center (.5x) ___ _ ___ _ ___ _ ___ _ ___ _ ___
 72
    65
 73
     4
 40
1.125
 49
0.75
 74
     0
 49
-0.125
 74
     0
 49
0.125
 74
     0
 49
-0.125
 74
     0
  0
LTYPE
  5
4B0
330
5
100
AcDbSymbolTableRecord
100
AcDbLinetypeTableRecord
  2
HIDDEN2
 70
     0
  3
Hidden (.5x) _ _ _ _ _ _ _ _ _ _ _ _ _ _ _ _ _
 72
    65
 73
     2
 40
0.1875
 49
0.125
 74
     0
 49
-0.0625
 74
     0
  0
LTYPE
  5
4B1
330
5
100
AcDbSymbolTableRecord
100
AcDbLinetypeTableRecord
  2
Amzigzag2
 70
     0
  3
/\/-/\/-/\/-/\/-/\/-/\/
 72
    65
 73
     2
 40
0.4401
 49
0.0001
 74
     4
 75
   136
340
4AD
 46
0.0016
 50
0.0
 44
0.0
 45
0.0
 49
-0.4400000000000001
 74
     0
  0
LTYPE
  5
4BF
330
5
100
AcDbSymbolTableRecord
100
AcDbLinetypeTableRecord
  2
ACANSTGB
 70
     0
  3
__ . . __ . .
 72
    65
 73
     6
 40
0.35433070866
 49
0.15748031496
 74
     0
 49
-0.03937007874
 74
     0
 49
0.03937007874
 74
     0
 49
-0.03937007874
 74
     0
 49
0.03937007874
 74
     0
 49
-0.03937007874
 74
     0
  0
LTYPE
  5
4C0
330
5
100
AcDbSymbolTableRecord
100
AcDbLinetypeTableRecord
  2
ACANSTGL
 70
     0
  3
_ _ _ _ _
 72
    65
 73
     2
 40
0.11811023622
 49
0.07874015748
 74
     0
 49
-0.03937007874
 74
     0
  0
ENDTAB
  0
TABLE
  2
LAYER
  5
2
330
0
100
AcDbSymbolTable
 70
    11
  0
LAYER
  5
10
102
{ACAD_XDICTIONARY
360
4D5
102
}
330
2
100
AcDbSymbolTableRecord
100
AcDbLayerTableRecord
  2
0
 70
     0
 62
     7
  6
CONTINUOUS
370
    -3
390
F
  0
LAYER
  5
1FA
102
{ACAD_XDICTIONARY
360
4D7
102
}
330
2
100
AcDbSymbolTableRecord
100
AcDbLayerTableRecord
  2
DEFAULT_1
 70
     0
 62
     7
  6
CENTER
370
    -3
390
F
  0
LAYER
  5
1FB
102
{ACAD_XDICTIONARY
360
4D9
102
}
330
2
100
AcDbSymbolTableRecord
100
AcDbLayerTableRecord
  2
DEFAULT_2
 70
     0
 62
     8
  6
HIDDEN
370
    -3
390
F
  0
LAYER
  5
1FC
102
{ACAD_XDICTIONARY
360
4DB
102
}
330
2
100
AcDbSymbolTableRecord
100
AcDbLayerTableRecord
  2
DEFAULT_3
 70
     0
 62
     7
  6
PHANTOM
370
    -3
390
F
  0
LAYER
  5
1FD
102
{ACAD_XDICTIONARY
360
4DD
102
}
330
2
100
AcDbSymbolTableRecord
100
AcDbLayerTableRecord
  2
DATUM_AXIS
 70
     0
 62
     7
  6
CONTINUOUS
370
    -3
390
F
  0
LAYER
  5
1FE
102
{ACAD_XDICTIONARY
360
4DF
102
}
330
2
100
AcDbSymbolTableRecord
100
AcDbLayerTableRecord
  2
DATUM_CSYS
 70
     0
 62
     7
  6
CONTINUOUS
370
    -3
390
F
  0
LAYER
  5
1FF
102
{ACAD_XDICTIONARY
360
4E1
102
}
330
2
100
AcDbSymbolTableRecord
100
AcDbLayerTableRecord
  2
DATUM_PLANE
 70
     0
 62
     7
  6
CONTINUOUS
370
    -3
390
F
  0
LAYER
  5
200
102
{ACAD_XDICTIONARY
360
4E3
102
}
330
2
100
AcDbSymbolTableRecord
100
AcDbLayerTableRecord
  2
INTF_1
 70
     0
 62
     7
  6
CONTINUOUS
370
    -3
390
F
  0
LAYER
  5
201
102
{ACAD_XDICTIONARY
360
4E5
102
}
330
2
100
AcDbSymbolTableRecord
100
AcDbLayerTableRecord
  2
RGB____0____0____0__
 70
     0
 62
     7
  6
CONTINUOUS
370
    -3
390
F
  0
LAYER
  5
202
102
{ACAD_XDICTIONARY
360
4E7
102
}
330
2
100
AcDbSymbolTableRecord
100
AcDbLayerTableRecord
  2
_CURVE
 70
     0
 62
     7
  6
CONTINUOUS
370
    -3
390
F
  0
LAYER
  5
203
102
{ACAD_XDICTIONARY
360
4E9
102
}
330
2
100
AcDbSymbolTableRecord
100
AcDbLayerTableRecord
  2
_SURFACE
 70
     0
 62
     7
  6
CONTINUOUS
370
    -3
390
F
  0
ENDTAB
  0
TABLE
  2
STYLE
  5
3
330
0
100
AcDbSymbolTable
 70
     5
  0
STYLE
  5
11
330
3
100
AcDbSymbolTableRecord
100
AcDbTextStyleTableRecord
  2
STANDARD
 70
     0
 40
0.0
 41
0.8
 50
0.0
 71
     0
 42
0.2
  3
txt
  4

  0
STYLE
  5
204
330
3
100
AcDbSymbolTableRecord
100
AcDbTextStyleTableRecord
  2
TEXTSTYLE_1
 70
     0
 40
0.0
 41
0.8
 50
0.0
 71
     0
 42
0.2
  3
gdt
  4

  0
STYLE
  5
4AD
330
3
100
AcDbSymbolTableRecord
100
AcDbTextStyleTableRecord
  2

 70
     1
 40
0.0
 41
1.0
 50
0.0
 71
     0
 42
0.2
  3
genltshp.shx
  4

  0
STYLE
  5
4BD
330
3
100
AcDbSymbolTableRecord
100
AcDbTextStyleTableRecord
  2
ACANSTS
 70
     0
 40
1.0
 41
1.0
 50
0.0
 71
     0
 42
0.2
  3
romans.shx
  4

  0
STYLE
  5
4BE
330
3
100
AcDbSymbolTableRecord
100
AcDbTextStyleTableRecord
  2
ACANSGDT
 70
     0
 40
0.0
 41
1.0
 50
0.0
 71
     0
 42
0.2
  3
amgdt.shx
  4

  0
ENDTAB
  0
TABLE
  2
VIEW
  5
6
330
0
100
AcDbSymbolTable
 70
     0
  0
ENDTAB
  0
TABLE
  2
UCS
  5
7
330
0
100
AcDbSymbolTable
 70
     0
  0
ENDTAB
  0
TABLE
  2
APPID
  5
9
330
0
100
AcDbSymbolTable
 70
    13
  0
APPID
  5
205
330
9
100
AcDbSymbolTableRecord
100
AcDbRegAppTableRecord
  2
ACAD
 70
     0
  0
APPID
  5
422
330
9
100
AcDbSymbolTableRecord
100
AcDbRegAppTableRecord
  2
ACAD_MLEADERVER
 70
     0
  0
APPID
  5
430
330
9
100
AcDbSymbolTableRecord
100
AcDbRegAppTableRecord
  2
MCAD_NO_VIS
 70
     0
  0
APPID
  5
431
330
9
100
AcDbSymbolTableRecord
100
AcDbRegAppTableRecord
  2
ACAD_TEMP_GRAPHIC
 70
     0
  0
APPID
  5
45F
330
9
100
AcDbSymbolTableRecord
100
AcDbRegAppTableRecord
  2
AD_DRAW
 70
     0
  0
APPID
  5
462
330
9
100
AcDbSymbolTableRecord
100
AcDbRegAppTableRecord
  2
ACATTRIBSERVICES
 70
     0
  0
APPID
  5
487
330
9
100
AcDbSymbolTableRecord
100
AcDbRegAppTableRecord
  2
DESIGNERASSEMBLIES
 70
     0
  0
APPID
  5
48D
330
9
100
AcDbSymbolTableRecord
100
AcDbRegAppTableRecord
  2
ACADM_DIM_EDIT
 70
     0
  0
APPID
  5
48E
330
9
100
AcDbSymbolTableRecord
100
AcDbRegAppTableRecord
  2
AMDT_DM_ADJ
 70
     0
  0
APPID
  5
50D
330
9
100
AcDbSymbolTableRecord
100
AcDbRegAppTableRecord
  2
ACAD_DSTYLE_DIMARC_LENGTH_SYMBOL
 70
     0
  0
APPID
  5
50E
330
9
100
AcDbSymbolTableRecord
100
AcDbRegAppTableRecord
  2
ACAD_DSTYLE_DIM_LINETYPE
 70
     0
  0
APPID
  5
50F
330
9
100
AcDbSymbolTableRecord
100
AcDbRegAppTableRecord
  2
ACAD_DSTYLE_DIM_EXT1_LINETYPE
 70
     0
  0
APPID
  5
510
330
9
100
AcDbSymbolTableRecord
100
AcDbRegAppTableRecord
  2
ACAD_DSTYLE_DIM_EXT2_LINETYPE
 70
     0
  0
ENDTAB
  0
TABLE
  2
DIMSTYLE
  5
A
330
0
100
AcDbSymbolTable
 70
     7
100
AcDbDimStyleTable
 71
     1
340
4A4
  0
DIMSTYLE
105
208
330
A
100
AcDbSymbolTableRecord
100
AcDbDimStyleTableRecord
  2
STANDARD
 70
     0
 41
0.1875
 47
0.01
 48
0.01
 71
     1
 78
     4
140
0.15625
271
     3
272
     3
284
     4
340
11
  0
DIMSTYLE
105
4A4
330
A
100
AcDbSymbolTableRecord
100
AcDbDimStyleTableRecord
  2
AM_ANSI
 70
     0
  4
mm
 41
0.12
 42
0.05
 43
0.5
 44
0.1
 47
0.1
 48
0.1
 78
     7
 79
     2
140
0.12
141
0.0
146
0.71
147
0.06
176
   256
177
   256
178
     2
274
     4
284
     7
340
11
371
    -1
372
    -1
1001
ACAD_DSTYLE_DIMARC_LENGTH_SYMBOL
1070
   379
1070
     1
1001
ACAD_DSTYLE_DIM_LINETYPE
1070
   380
1005
14
1001
ACAD_DSTYLE_DIM_EXT1_LINETYPE
1070
   381
1005
14
1001
ACAD_DSTYLE_DIM_EXT2_LINETYPE
1070
   382
1005
14
  0
DIMSTYLE
105
4B2
330
A
100
AcDbSymbolTableRecord
100
AcDbDimStyleTableRecord
  2
AM_ANSI$3
 70
     0
  4
mm
 41
0.12
 42
0.05
 43
0.5
 44
0.1
 47
0.1
 48
0.1
 78
     7
 79
     2
140
0.12
141
0.0
146
0.71
147
0.06
176
   256
177
   256
178
     2
274
     4
284
     7
288
     1
289
     0
340
11
371
    -1
372
    -1
1001
ACAD_DSTYLE_DIMARC_LENGTH_SYMBOL
1070
   379
1070
     1
1001
ACAD_DSTYLE_DIM_LINETYPE
1070
   380
1005
14
1001
ACAD_DSTYLE_DIM_EXT1_LINETYPE
1070
   381
1005
14
1001
ACAD_DSTYLE_DIM_EXT2_LINETYPE
1070
   382
1005
14
  0
DIMSTYLE
105
4B3
330
A
100
AcDbSymbolTableRecord
100
AcDbDimStyleTableRecord
  2
AM_ANSI$4
 70
     0
  4
mm
 41
0.12
 42
0.05
 43
0.5
 44
0.1
 47
0.1
 48
0.1
 78
     7
 79
     2
140
0.12
141
0.0
146
0.71
147
0.06
176
   256
177
   256
178
     2
274
     4
284
     7
340
11
371
    -1
372
    -1
1001
ACAD_DSTYLE_DIMARC_LENGTH_SYMBOL
1070
   379
1070
     1
1001
ACAD_DSTYLE_DIM_LINETYPE
1070
   380
1005
14
1001
ACAD_DSTYLE_DIM_EXT1_LINETYPE
1070
   381
1005
14
1001
ACAD_DSTYLE_DIM_EXT2_LINETYPE
1070
   382
1005
14
  0
DIMSTYLE
105
4B4
330
A
100
AcDbSymbolTableRecord
100
AcDbDimStyleTableRecord
  2
AM_ANSI$7
 70
     0
  4
mm
 41
0.12
 42
0.05
 43
0.5
 44
0.1
 47
0.1
 48
0.1
 78
     7
 79
     2
140
0.12
141
0.0
146
0.71
147
0.06
176
   256
177
   256
178
     2
274
     4
284
     7
340
11
371
    -1
372
    -1
1001
ACAD_DSTYLE_DIMARC_LENGTH_SYMBOL
1070
   379
1070
     1
1001
ACAD_DSTYLE_DIM_LINETYPE
1070
   380
1005
14
1001
ACAD_DSTYLE_DIM_EXT1_LINETYPE
1070
   381
1005
14
1001
ACAD_DSTYLE_DIM_EXT2_LINETYPE
1070
   382
1005
14
  0
DIMSTYLE
105
4B5
330
A
100
AcDbSymbolTableRecord
100
AcDbDimStyleTableRecord
  2
AM_ANSI$SF
 70
     0
  4
mm
 41
0.12
 42
0.05
 43
0.5
 44
0.1
 47
0.1
 48
0.1
 75
     1
 76
     1
 78
     7
 79
     2
140
0.12
141
0.0
146
0.71
147
0.06
176
   256
177
   256
178
     2
274
     4
284
     7
340
11
371
    -1
372
    -1
1001
ACAD_DSTYLE_DIMARC_LENGTH_SYMBOL
1070
   379
1070
     1
1001
ACAD_DSTYLE_DIM_LINETYPE
1070
   380
1005
14
1001
ACAD_DSTYLE_DIM_EXT1_LINETYPE
1070
   381
1005
14
1001
ACAD_DSTYLE_DIM_EXT2_LINETYPE
1070
   382
1005
14
  0
DIMSTYLE
105
4BA
330
A
100
AcDbSymbolTableRecord
100
AcDbDimStyleTableRecord
  2
AM_ANSI$SH
 70
     0
  4
mm
 41
0.12
 42
0.05
 43
0.5
 44
0.1
 47
0.1
 48
0.1
 75
     1
 76
     1
 78
     7
 79
     2
140
0.12
141
0.0
146
0.71
147
0.06
173
     1
176
   256
177
   256
178
     2
274
     4
284
     7
340
11
343
4B6
371
    -1
372
    -1
1001
ACAD_DSTYLE_DIMARC_LENGTH_SYMBOL
1070
   379
1070
     1
1001
ACAD_DSTYLE_DIM_LINETYPE
1070
   380
1005
14
1001
ACAD_DSTYLE_DIM_EXT1_LINETYPE
1070
   381
1005
14
1001
ACAD_DSTYLE_DIM_EXT2_LINETYPE
1070
   382
1005
14
  0
ENDTAB
  0
TABLE
  2
BLOCK_RECORD
  5
1
330
0
100
AcDbSymbolTable
 70
     3
  0
BLOCK_RECORD
  5
206
330
1
100
AcDbSymbolTableRecord
100
AcDbBlockTableRecord
  2
*Model_Space
340
3CD
  0
BLOCK_RECORD
  5
207
330
1
100
AcDbSymbolTableRecord
100
AcDbBlockTableRecord
  2
*Paper_Space
340
3CE
  0
BLOCK_RECORD
  5
4B6
330
1
100
AcDbSymbolTableRecord
100
AcDbBlockTableRecord
  2
GENAXEH
340
0
  0
BLOCK_RECORD
  5
58F
330
1
100
AcDbSymbolTableRecord
100
AcDbBlockTableRecord
  2
A$C42DF3C9D
340
0
1001
ACAD
1000
DesignCenter Data
1002
{
1070
     1
1070
     1
1002
}
  0
ENDTAB
  0
ENDSEC
  0
SECTION
  2
BLOCKS
  0
BLOCK
  5
20
330
206
100
AcDbEntity
  8
0
100
AcDbBlockBegin
  2
*Model_Space
 70
     0
 10
0.0
 20
0.0
 30
0.0
  3
*Model_Space
  1

  0
ENDBLK
  5
21
330
206
100
AcDbEntity
  8
0
100
AcDbBlockEnd
  0
BLOCK
  5
1C
330
207
100
AcDbEntity
 67
     1
  8
0
100
AcDbBlockBegin
  2
*Paper_Space
 70
     0
 10
0.0
 20
0.0
 30
0.0
  3
*Paper_Space
  1

  0
ENDBLK
  5
1D
330
207
100
AcDbEntity
 67
     1
  8
0
100
AcDbBlockEnd
  0
BLOCK
  5
4B8
330
4B6
100
AcDbEntity
  8
0
100
AcDbBlockBegin
  2
GENAXEH
 70
     0
 10
0.0
 20
0.0
 30
0.0
  3
GENAXEH
  1

  0
LINE
  5
4B7
330
4B6
100
AcDbEntity
  8
0
100
AcDbLine
 10
-1.0
 20
0.0
 30
0.0
 11
1.0
 21
0.0
 31
0.0
  0
ENDBLK
  5
4B9
330
4B6
100
AcDbEntity
  8
0
100
AcDbBlockEnd
  0
BLOCK
  5
615
330
58F
100
AcDbEntity
  8
0
100
AcDbBlockBegin
  2
A$C42DF3C9D
 70
     0
 10
0.0
 20
0.0
 30
0.0
  3
A$C42DF3C9D
  1

  0
LINE
  5
590
330
58F
100
AcDbEntity
  8
0
  6
Continuous
 62
     7
100
AcDbLine
 10
18.95626691192543
 20
27.40897330670368
 30
0.0
 11
18.88043106312543
 21
27.36899742000368
 31
0.0
  0
LWPOLYLINE
  5
591
330
58F
100
AcDbEntity
  8
0
  6
Continuous
 62
     7
100
AcDbPolyline
 90
        5
 70
     0
 43
0.0
 10
18.88043106312543
 20
27.36899742000368
 10
18.80189811232543
 20
27.33415582530368
 10
18.72102582142543
 20
27.30463795650368
 10
18.63818563772543
 20
27.28061391400368
 10
18.55372519972543
 20
27.26222622130368
  0
LINE
  5
592
330
58F
100
AcDbEntity
  8
0
  6
Continuous
 62
     7
100
AcDbLine
 10
21.02646576722543
 20
11.63066713850367
 30
0.0
 11
21.02649144212543
 21
11.63066712520367
 31
0.0
  0
LWPOLYLINE
  5
593
330
58F
100
AcDbEntity
  8
0
  6
Continuous
 62
     7
100
AcDbPolyline
 90
        5
 70
     0
 43
0.0
 10
19.22956807502543
 20
27.61941374890368
 10
19.16436895212543
 20
27.55765176040368
 10
19.09856690962543
 20
27.50353361540368
 10
19.02909150252543
 20
27.45389316360368
 10
18.95626691192543
 20
27.40897330670368
  0
LWPOLYLINE
  5
594
330
58F
100
AcDbEntity
  8
0
  6
Continuous
 62
     7
100
AcDbPolyline
 90
        6
 70
     0
 43
0.0
 10
23.11503907242543
 20
27.39868075210368
 10
23.04145800832543
 20
27.44239522010368
 10
22.97113361682543
 20
27.49089217230368
 10
22.90439433462543
 20
27.54393522460368
 10
22.84152756972543
 20
27.60129545650368
 10
22.82336351702543
 20
27.61941332200368
  0
LWPOLYLINE
  5
595
330
58F
100
AcDbEntity
  8
0
  6
Continuous
 62
     7
100
AcDbPolyline
 90
       10
 70
     0
 43
0.0
 10
22.82335933842543
 20
27.61940921060368
 10
22.80673331772543
 20
27.63499892280368
 10
22.78530517082543
 20
27.65169849960368
 10
22.76235285242543
 20
27.66618324600368
 10
22.73811058032543
 20
27.67834112230368
 10
22.71283470642543
 20
27.68804621340368
 10
22.68677305242543
 20
27.69519396170368
 10
22.66014692342543
 20
27.69975006900368
 10
22.63321819762543
 20
27.70168210980368
 10
22.62706582062543
 20
27.70175201010367
  0
LINE
  5
596
330
58F
100
AcDbEntity
  8
0
  6
Continuous
 62
     7
100
AcDbLine
 10
18.55372519972543
 20
27.26222622130368
 30
0.0
 11
18.52348334882543
 21
27.25708874790368
 31
0.0
  0
LWPOLYLINE
  5
597
330
58F
100
AcDbEntity
  8
0
  6
Continuous
 62
     7
100
AcDbPolyline
 90
       10
 70
     0
 43
0.0
 10
19.42586506372543
 20
27.70174785420368
 10
19.40406756262543
 20
27.70088456730368
 10
19.37707106472543
 20
27.69738871760368
 10
19.35054587982543
 20
27.69124521780368
 10
19.32473657102543
 20
27.68249607910368
 10
19.29990813372543
 20
27.67123437790368
 10
19.27631778912543
 20
27.65756986620368
 10
19.25418130232543
 20
27.64161838530368
 10
19.23372030482543
 20
27.62355012760368
 10
19.22956862022543
 20
27.61941321340368
  0
LINE
  5
598
330
58F
100
AcDbEntity
  8
0
  6
Continuous
 62
     7
100
AcDbLine
 10
22.62706581432543
 20
27.70171246140368
 30
0.0
 11
19.42586508492543
 21
27.70171246140368
 31
0.0
  0
LINE
  5
599
330
58F
100
AcDbEntity
  8
0
  6
Continuous
 62
     7
100
AcDbLine
 10
23.52943630932543
 20
27.25709071310368
 30
0.0
 11
23.51984277672543
 21
27.25863919740368
 31
0.0
  0
LWPOLYLINE
  5
59A
330
58F
100
AcDbEntity
  8
0
  6
Continuous
 62
     7
100
AcDbPolyline
 90
        5
 70
     0
 43
0.0
 10
23.51984277672543
 20
27.25863919740368
 10
23.43514267032543
 20
27.27562020850368
 10
23.35195387492543
 20
27.29826264230368
 10
23.27062638112543
 20
27.32643153230368
 10
23.19153446642543
 20
27.35996499010368
  0
LINE
  5
59B
330
58F
100
AcDbEntity
  8
0
  6
Continuous
 62
     7
100
AcDbLine
 10
23.19153446642543
 20
27.35996499010368
 30
0.0
 11
23.11503907242543
 21
27.39868075210368
 31
0.0
  0
LINE
  5
59C
330
58F
100
AcDbEntity
  8
0
  6
Continuous
 62
     7
100
AcDbLine
 10
7.90382482572543
 20
8.923531187481851
 30
0.0
 11
7.95106892022543
 21
8.923531174181849
 31
0.0
  0
LINE
  5
59D
330
58F
100
AcDbEntity
  8
0
  6
Continuous
 62
     7
100
AcDbLine
 10
-0.0000000806745692
 20
15.71348352668185
 30
0.0
 11
-0.0000000806745692
 21
17.95791642288185
 31
0.0
  0
LINE
  5
59E
330
58F
100
AcDbEntity
  8
0
  6
Continuous
 62
     7
100
AcDbLine
 10
1.631115471525429
 20
14.76204687218185
 30
0.0
 11
1.637487345825428
 21
14.73970490468185
 31
0.0
  0
LINE
  5
59F
330
58F
100
AcDbEntity
  8
_SURFACE
  6
Continuous
 62
     7
100
AcDbLine
 10
1.63098455752543
 20
14.76251162428185
 30
0.0
 11
1.63740795052543
 21
14.73997999828185
 31
0.0
  0
LINE
  5
5A0
330
58F
100
AcDbEntity
  8
0
  6
Continuous
 62
     7
100
AcDbLine
 10
1.626678999625429
 20
14.77792917558185
 30
0.0
 11
1.631115471525429
 21
14.76204687218185
 31
0.0
  0
LINE
  5
5A1
330
58F
100
AcDbEntity
  8
_SURFACE
  6
Continuous
 62
     7
100
AcDbLine
 10
1.626509713725431
 20
14.77854069498185
 30
0.0
 11
1.63098455752543
 21
14.76251162428185
 31
0.0
  0
LINE
  5
5A2
330
58F
100
AcDbEntity
  8
0
  6
Continuous
 62
     7
100
AcDbLine
 10
1.62206213472543
 20
14.79475544428185
 30
0.0
 11
1.626678999625429
 21
14.77792917558185
 31
0.0
  0
LINE
  5
5A3
330
58F
100
AcDbEntity
  8
_SURFACE
  6
Continuous
 62
     7
100
AcDbLine
 10
1.62185197762543
 20
14.79552881238185
 30
0.0
 11
1.626509713725431
 21
14.77854069498185
 31
0.0
  0
LINE
  5
5A4
330
58F
100
AcDbEntity
  8
0
  6
Continuous
 62
     7
100
AcDbLine
 10
1.617247602425431
 20
14.81264032738185
 30
0.0
 11
1.62206213472543
 21
14.79475544428185
 31
0.0
  0
LINE
  5
5A5
330
58F
100
AcDbEntity
  8
_SURFACE
  6
Continuous
 62
     7
100
AcDbLine
 10
1.61699340272543
 20
14.81359451688185
 30
0.0
 11
1.62185197762543
 21
14.79552881238185
 31
0.0
  0
LINE
  5
5A6
330
58F
100
AcDbEntity
  8
0
  6
Continuous
 62
     7
100
AcDbLine
 10
1.61220503502543
 20
14.83176008118185
 30
0.0
 11
1.617247602425431
 21
14.81264032738185
 31
0.0
  0
LINE
  5
5A7
330
58F
100
AcDbEntity
  8
_SURFACE
  6
Continuous
 62
     7
100
AcDbLine
 10
1.61190291802543
 20
14.83291863018185
 30
0.0
 11
1.61699340272543
 21
14.81359451688185
 31
0.0
  0
LINE
  5
5A8
330
58F
100
AcDbEntity
  8
0
  6
Continuous
 62
     7
100
AcDbLine
 10
1.60691911032543
 20
14.85225028728185
 30
0.0
 11
1.61220503502543
 21
14.83176008118185
 31
0.0
  0
LINE
  5
5A9
330
58F
100
AcDbEntity
  8
_SURFACE
  6
Continuous
 62
     7
100
AcDbLine
 10
1.60656483742543
 20
14.85364056598185
 30
0.0
 11
1.61190291802543
 21
14.83291863018185
 31
0.0
  0
LINE
  5
5AA
330
58F
100
AcDbEntity
  8
0
  6
Continuous
 62
     7
100
AcDbLine
 10
1.601357635925431
 20
14.87433083438185
 30
0.0
 11
1.60691911032543
 21
14.85225028728185
 31
0.0
  0
LINE
  5
5AB
330
58F
100
AcDbEntity
  8
_SURFACE
  6
Continuous
 62
     7
100
AcDbLine
 10
1.600946203425431
 20
14.87598645228185
 30
0.0
 11
1.60656483742543
 21
14.85364056598185
 31
0.0
  0
LINE
  5
5AC
330
58F
100
AcDbEntity
  8
0
  6
Continuous
 62
     7
100
AcDbLine
 10
1.595468248725429
 20
14.89833248528185
 30
0.0
 11
1.601357635925431
 21
14.87433083438185
 31
0.0
  0
LINE
  5
5AD
330
58F
100
AcDbEntity
  8
_SURFACE
  6
Continuous
 62
     7
100
AcDbLine
 10
1.59499302222543
 20
14.90029821688185
 30
0.0
 11
1.600946203425431
 21
14.87598645228185
 31
0.0
  0
LINE
  5
5AE
330
58F
100
AcDbEntity
  8
0
  6
Continuous
 62
     7
100
AcDbLine
 10
1.589223259325429
 20
14.92452565568185
 30
0.0
 11
1.595468248725429
 21
14.89833248528185
 31
0.0
  0
LINE
  5
5AF
330
58F
100
AcDbEntity
  8
_SURFACE
  6
Continuous
 62
     7
100
AcDbLine
 10
1.588676723025429
 20
14.92685610618185
 30
0.0
 11
1.59499302222543
 21
14.90029821688185
 31
0.0
  0
LINE
  5
5B0
330
58F
100
AcDbEntity
  8
0
  6
Continuous
 62
     7
100
AcDbLine
 10
1.582566339525429
 20
14.95335036148185
 30
0.0
 11
1.589223259325429
 21
14.92452565568185
 31
0.0
  0
LINE
  5
5B1
330
58F
100
AcDbEntity
  8
_SURFACE
  6
Continuous
 62
     7
100
AcDbLine
 10
1.581939308425431
 20
14.95611610698185
 30
0.0
 11
1.588676723025429
 21
14.92685610618185
 31
0.0
  0
LWPOLYLINE
  5
5B2
330
58F
100
AcDbEntity
  8
_SURFACE
  6
Continuous
 62
     7
100
AcDbPolyline
 90
        9
 70
     0
 43
0.0
 10
1.54345935812543
 20
15.14642391128185
 10
1.54861156822543
 20
15.11818249328185
 10
1.55351724742543
 20
15.09220248848185
 10
1.558213291425429
 20
15.06810099768185
 10
1.56259135512543
 20
15.04626149428185
 10
1.56679613482543
 20
15.02582245208185
 10
1.57083720162543
 20
15.00664536058185
 10
1.574667311025431
 20
14.98886839408185
 10
1.581939308425431
 20
14.95611610698185
  0
LWPOLYLINE
  5
5B3
330
58F
100
AcDbEntity
  8
0
  6
Continuous
 62
     7
100
AcDbPolyline
 90
       11
 70
     0
 43
0.0
 10
1.536592261425429
 20
15.18574127708185
 10
1.539096452825429
 20
15.17116916218185
 10
1.544677009925431
 20
15.13965668598185
 10
1.54973624472543
 20
15.11215056228185
 10
1.554557493125429
 20
15.08680084418185
 10
1.559173428325429
 20
15.06326088228185
 10
1.56348437992543
 20
15.04187776668185
 10
1.56762693722543
 20
15.02184339618185
 10
1.57160963552543
 20
15.00302962158185
 10
1.575388207225429
 20
14.98556422758185
 10
1.582566339525429
 20
14.95335036148185
  0
LINE
  5
5B4
330
58F
100
AcDbEntity
  8
_SURFACE
  6
Continuous
 62
     7
100
AcDbLine
 10
1.536592457125429
 20
15.18574012698185
 30
0.0
 11
1.54345935812543
 21
15.14642391128185
 31
0.0
  0
LINE
  5
5B5
330
58F
100
AcDbEntity
  8
DATUM_AXIS
  6
Continuous
 62
     7
100
AcDbLine
 10
1.324355435925431
 20
15.38116124968185
 30
0.0
 11
0.2156324210254308
 21
15.47816194438185
 31
0.0
  0
LINE
  5
5B6
330
58F
100
AcDbEntity
  8
0
  6
Continuous
 62
     7
100
AcDbLine
 10
8.18728939262543
 20
24.75837425248185
 30
0.0
 11
8.18728939262543
 21
9.159751645881851
 31
0.0
  0
LINE
  5
5B7
330
58F
100
AcDbEntity
  8
0
  6
Continuous
 62
     7
100
AcDbLine
 10
9.17618682692543
 20
7.95106901198185
 30
0.0
 11
9.17618682692543
 21
7.90382491748185
 31
0.0
  0
LINE
  5
5B8
330
58F
100
AcDbEntity
  8
0
  6
Continuous
 62
     7
100
AcDbLine
 10
22.14820077082543
 20
0.0000000110818501
 30
0.0
 11
19.90437606032543
 21
0.0000000110818501
 31
0.0
  0
LINE
  5
5B9
330
58F
100
AcDbEntity
  8
DATUM_AXIS
  6
Continuous
 62
     7
100
AcDbLine
 10
19.57718676392543
 20
1.265266373081851
 30
0.0
 11
19.66901782752543
 21
0.215632512781851
 31
0.0
  0
LINE
  5
5BA
330
58F
100
AcDbEntity
  8
DATUM_AXIS
  6
Continuous
 62
     7
100
AcDbLine
 10
22.47574504422543
 20
1.265266373081851
 30
0.0
 11
22.38391398062543
 21
0.215632512781851
 31
0.0
  0
LINE
  5
5BB
330
58F
100
AcDbEntity
  8
0
  6
Continuous
 62
     7
100
AcDbLine
 10
32.71926468872543
 20
7.74634460248185
 30
0.0
 11
9.333667119425429
 21
7.74634460248185
 31
0.0
  0
LINE
  5
5BC
330
58F
100
AcDbEntity
  8
0
  6
Continuous
 62
     7
100
AcDbLine
 10
9.41240727682543
 20
8.18728948438185
 30
0.0
 11
32.64052453132542
 21
8.18728948438185
 31
0.0
  0
LINE
  5
5BD
330
58F
100
AcDbEntity
  8
0
  6
Continuous
 62
     7
100
AcDbLine
 10
32.87674498122543
 20
7.95106901198185
 30
0.0
 11
32.87674498122543
 21
7.90382491748185
 31
0.0
  0
ARC
  5
5BE
330
58F
100
AcDbEntity
  8
0
  6
Continuous
 62
     7
100
AcDbCircle
 10
20.87622926402543
 20
10.40707548560368
 30
0.0
 40
17.0576238111
100
AcDbArc
 50
80.76804929770004
 51
81.05166513350004
  0
ARC
  5
5BF
330
58F
100
AcDbEntity
  8
0
  6
Continuous
 62
     7
100
AcDbCircle
 10
21.17613681212543
 20
10.41070725500367
 30
0.0
 40
17.0539482478
100
AcDbArc
 50
98.94835738890002
 51
99.24262947449998
  0
ARC
  5
5C0
330
58F
100
AcDbEntity
  8
0
  6
Continuous
 62
     7
100
AcDbCircle
 10
21.01818380212543
 20
27.47695639980368
 30
0.0
 40
15.8462914257
100
AcDbArc
 50
269.1057720778999
 51
270.0299452782001
  0
ARC
  5
5C1
330
58F
100
AcDbEntity
  8
0
  6
Continuous
 62
     7
100
AcDbCircle
 10
21.01836630722543
 20
27.47094850690368
 30
0.0
 40
15.8402834391
100
AcDbArc
 50
269.1047728608
 51
270.0293893582
  0
ARC
  5
5C2
330
58F
100
AcDbEntity
  8
0
  6
Continuous
 62
     7
100
AcDbCircle
 10
14.67775915922543
 20
19.54355318200368
 30
0.0
 40
5.5015724133
100
AcDbArc
 50
178.696551797
 51
180.0065859741
  0
ARC
  5
5C3
330
58F
100
AcDbEntity
  8
0
  6
Continuous
 62
     7
100
AcDbCircle
 10
27.37614002862543
 20
19.54356593550368
 30
0.0
 40
5.500605035199999
100
AcDbArc
 50
359.9932800231
 51
1.315897833699991
  0
ARC
  5
5C4
330
58F
100
AcDbEntity
  8
0
  6
Continuous
 62
     7
100
AcDbCircle
 10
14.66536794892543
 20
19.54186087360367
 30
0.0
 40
5.489181224299999
100
AcDbArc
 50
179.9889366174999
 51
181.8466534918
  0
ARC
  5
5C5
330
58F
100
AcDbEntity
  8
0
  6
Continuous
 62
     7
100
AcDbCircle
 10
27.39263047302543
 20
19.54200818730367
 30
0.0
 40
5.484114584099999
100
AcDbArc
 50
358.1614216176
 51
0.009534530700001
  0
ARC
  5
5C6
330
58F
100
AcDbEntity
  8
0
  6
Continuous
 62
     7
100
AcDbCircle
 10
14.65928237882543
 20
19.54200296090368
 30
0.0
 40
5.4830956287
100
AcDbArc
 50
179.9904090838
 51
181.8501868329999
  0
CIRCLE
  5
5C7
330
58F
100
AcDbEntity
  8
0
  6
Continuous
 62
     7
100
AcDbCircle
 10
21.02646590402543
 20
19.54274597200367
 30
0.0
 40
0.8858267717
  0
ARC
  5
5C8
330
58F
100
AcDbEntity
  8
0
  6
Continuous
 62
     7
100
AcDbCircle
 10
10.07299710872543
 20
10.61310602008185
 30
0.0
 40
14.5397359672
100
AcDbArc
 50
98.59966053610003
 51
100.0139268618
  0
ARC
  5
5C9
330
58F
100
AcDbEntity
  8
0
  6
Continuous
 62
     7
100
AcDbCircle
 10
15.83460357842543
 20
16.79131100668185
 30
0.0
 40
14.3397202242
100
AcDbArc
 50
183.6336787625
 51
186.2795546529999
  0
ARC
  5
5CA
330
58F
100
AcDbEntity
  8
0
  6
Continuous
 62
     7
100
AcDbCircle
 10
15.72636415822543
 20
16.77401838768185
 30
0.0
 40
14.2305790046
100
AcDbArc
 50
183.3174831237
 51
183.4849726281
  0
ARC
  5
5CB
330
58F
100
AcDbEntity
  8
0
  6
Continuous
 62
     7
100
AcDbCircle
 10
9.814719502525429
 20
20.24992388578185
 30
0.0
 40
10.874847529
100
AcDbArc
 50
247.5933081224999
 51
258.3601562326999
  0
ARC
  5
5CC
330
58F
100
AcDbEntity
  8
0
  6
Continuous
 62
     7
100
AcDbCircle
 10
9.78437436952543
 20
13.29344030978185
 30
0.0
 40
10.8536754197
100
AcDbArc
 50
101.4930545139999
 51
112.6656168148999
  0
ARC
  5
5CD
330
58F
100
AcDbEntity
  8
0
  6
Continuous
 62
     7
100
AcDbCircle
 10
9.50204726942543
 20
16.19865008598185
 30
0.0
 40
9.321651186799998
100
AcDbArc
 50
166.2418499270999
 51
166.5022678079999
  0
ARC
  5
5CE
330
58F
100
AcDbEntity
  8
0
  6
Continuous
 62
     7
100
AcDbCircle
 10
9.430511643325431
 20
16.09559782908185
 30
0.0
 40
7.8979538522
100
AcDbArc
 50
186.3443970103999
 51
187.003889439
  0
ARC
  5
5CF
330
58F
100
AcDbEntity
  8
0
  6
Continuous
 62
     7
100
AcDbCircle
 10
5.14719842902543
 20
15.75273884098185
 30
0.0
 40
3.6529864098
100
AcDbArc
 50
195.5482681643999
 51
196.1017743961999
  0
ARC
  5
5D0
330
58F
100
AcDbEntity
  8
0
  6
Continuous
 62
     7
100
AcDbCircle
 10
5.081712469625429
 20
15.73379891898185
 30
0.0
 40
3.584816425799999
100
AcDbArc
 50
196.1560572416
 51
196.7468256311
  0
ARC
  5
5D1
330
58F
100
AcDbEntity
  8
0
  6
Continuous
 62
     7
100
AcDbCircle
 10
1.303762413325429
 20
15.14583935848185
 30
0.0
 40
0.2362205771
100
AcDbArc
 50
9.662799235900019
 51
84.99878585390005
  0
ARC
  5
5D2
330
58F
100
AcDbEntity
  8
0
  6
Continuous
 62
     7
100
AcDbCircle
 10
7.95106892022543
 20
24.75839231588185
 30
0.0
 40
0.2362204724
100
AcDbArc
 50
359.9956186826
 51
98.54310199299996
  0
ARC
  5
5D3
330
58F
100
AcDbEntity
  8
0
  6
Continuous
 62
     7
100
AcDbCircle
 10
7.95106892022543
 20
9.159753492881851
 30
0.0
 40
0.2362204724
100
AcDbArc
 50
270.0
 51
359.9995525271
  0
ARC
  5
5D4
330
58F
100
AcDbEntity
  8
0
  6
Continuous
 62
     7
100
AcDbCircle
 10
0.2362203917254302
 20
17.95790982168185
 30
0.0
 40
0.2362204724
100
AcDbArc
 50
93.40453480559999
 51
179.9999999934999
  0
ARC
  5
5D5
330
58F
100
AcDbEntity
  8
0
  6
Continuous
 62
     7
100
AcDbCircle
 10
0.2362203917254302
 20
15.71348352668185
 30
0.0
 40
0.2362204724
100
AcDbArc
 50
180.0
 51
265.0
  0
ARC
  5
5D6
330
58F
100
AcDbEntity
  8
0
  6
Continuous
 62
     7
100
AcDbCircle
 10
0.2081649049254288
 20
18.42951540608185
 30
0.0
 40
0.2362188701
100
AcDbArc
 50
273.4044123464999
 51
346.5016713368
  0
ARC
  5
5D7
330
58F
100
AcDbEntity
  8
0
  6
Continuous
 62
     7
100
AcDbCircle
 10
7.588864195825429
 20
9.444463879281851
 30
0.0
 40
0.1574803251
100
AcDbArc
 50
359.9999421391
 51
78.36692574800006
  0
ARC
  5
5D8
330
58F
100
AcDbEntity
  8
0
  6
Continuous
 62
     7
100
AcDbCircle
 10
7.90382482572543
 20
9.08101250038185
 30
0.0
 40
0.157480315
100
AcDbArc
 50
180.0003631674
 51
262.5000283514
  0
ARC
  5
5D9
330
58F
100
AcDbEntity
  8
0
  6
Continuous
 62
     7
100
AcDbCircle
 10
0.1522465783254301
 20
17.72766573988185
 30
0.0
 40
0.1522086302
100
AcDbArc
 50
171.8436903159
 51
179.9472434281
  0
ARC
  5
5DA
330
58F
100
AcDbEntity
  8
_SURFACE
  6
Continuous
 62
     7
100
AcDbCircle
 10
19.52727066852543
 20
15.13130906158185
 30
0.0
 40
13.6415849433
100
AcDbArc
 50
260.181646883
 51
260.3600717826
  0
ARC
  5
5DB
330
58F
100
AcDbEntity
  8
_SURFACE
  6
Continuous
 62
     7
100
AcDbCircle
 10
19.43920104122543
 20
14.63196131728185
 30
0.0
 40
13.134532427
100
AcDbArc
 50
255.5056105324
 51
260.1676509143999
  0
ARC
  5
5DC
330
58F
100
AcDbEntity
  8
_SURFACE
  6
Continuous
 62
     7
100
AcDbCircle
 10
19.22021160652543
 20
13.71951326198185
 30
0.0
 40
12.1963267768
100
AcDbArc
 50
254.8656145041999
 51
255.428788628
  0
ARC
  5
5DD
330
58F
100
AcDbEntity
  8
_SURFACE
  6
Continuous
 62
     7
100
AcDbCircle
 10
19.20106395792543
 20
13.64856458858185
 30
0.0
 40
12.1228397365
100
AcDbArc
 50
254.7254760241
 51
254.8654253535
  0
ARC
  5
5DE
330
58F
100
AcDbEntity
  8
_SURFACE
  6
Continuous
 62
     7
100
AcDbCircle
 10
19.04190163792543
 20
13.09532564228185
 30
0.0
 40
11.547216397
100
AcDbArc
 50
249.6910904348001
 51
254.7641403807
  0
ARC
  5
5DF
330
58F
100
AcDbEntity
  8
_SURFACE
  6
Continuous
 62
     7
100
AcDbCircle
 10
18.86896632572543
 20
12.60712144988185
 30
0.0
 40
11.0293411755
100
AcDbArc
 50
249.3908522736
 51
249.6533661825
  0
ARC
  5
5E0
330
58F
100
AcDbEntity
  8
0
  6
Continuous
 62
    40
100
AcDbCircle
 10
18.15434113522543
 20
9.779006472381851
 30
0.0
 40
8.1142104579
100
AcDbArc
 50
254.8663298774
 51
255.9405137053999
  0
ARC
  5
5E1
330
58F
100
AcDbEntity
  8
0
  6
Continuous
 62
    40
100
AcDbCircle
 10
18.18560416972543
 20
9.73959450798185
 30
0.0
 40
8.084129569899999
100
AcDbArc
 50
254.6460675902
 51
255.4291327854999
  0
ARC
  5
5E2
330
58F
100
AcDbEntity
  8
0
  6
Continuous
 62
     7
100
AcDbCircle
 10
9.412423308025431
 20
7.95106901198185
 30
0.0
 40
0.2362204724
100
AcDbArc
 50
90.00388839140001
 51
180.0
  0
ARC
  5
5E3
330
58F
100
AcDbEntity
  8
0
  6
Continuous
 62
     7
100
AcDbCircle
 10
19.90433940972543
 20
0.2362204834818504
 30
0.0
 40
0.2362204724
100
AcDbArc
 50
185.0
 51
270.0
  0
ARC
  5
5E4
330
58F
100
AcDbEntity
  8
0
  6
Continuous
 62
     7
100
AcDbCircle
 10
19.34186519192543
 20
1.24467840248185
 30
0.0
 40
0.2362204711
100
AcDbArc
 50
5.000000181100022
 51
87.81742628720003
  0
ARC
  5
5E5
330
58F
100
AcDbEntity
  8
0
  6
Continuous
 62
     7
100
AcDbCircle
 10
9.33366799092543
 20
7.90382491748185
 30
0.0
 40
0.157480315
100
AcDbArc
 50
187.4999779597
 51
269.9996829247
  0
ARC
  5
5E6
330
58F
100
AcDbEntity
  8
_SURFACE
  6
Continuous
 62
     7
100
AcDbCircle
 10
9.71420163872543
 20
7.58886428748185
 30
0.0
 40
0.1574802915
100
AcDbArc
 50
13.84474643930002
 51
90.00013312110004
  0
ARC
  5
5E7
330
58F
100
AcDbEntity
  8
0
  6
Continuous
 62
     7
100
AcDbCircle
 10
21.02344355102543
 20
45.36793825698185
 30
0.0
 40
43.91907100229999
100
AcDbArc
 50
267.3572066214001
 51
267.817461349
  0
ARC
  5
5E8
330
58F
100
AcDbEntity
  8
0
  6
Continuous
 62
     7
100
AcDbCircle
 10
22.14859239842543
 20
0.2362204834818504
 30
0.0
 40
0.2362204724
100
AcDbArc
 50
270.0
 51
355.0
  0
ARC
  5
5E9
330
58F
100
AcDbEntity
  8
0
  6
Continuous
 62
     7
100
AcDbCircle
 10
22.71106661892543
 20
1.24467840968185
 30
0.0
 40
0.2362204714
100
AcDbArc
 50
92.18257361559997
 51
175.0000016105
  0
ARC
  5
5EA
330
58F
100
AcDbEntity
  8
0
  6
Continuous
 62
     7
100
AcDbCircle
 10
32.64051901762543
 20
7.95106901198185
 30
0.0
 40
0.2362204724
100
AcDbArc
 50
0.0
 51
89.99866265910002
  0
ARC
  5
5EB
330
58F
100
AcDbEntity
  8
0
  6
Continuous
 62
     7
100
AcDbCircle
 10
32.71925849842543
 20
7.90382491748185
 30
0.0
 40
0.157480315
100
AcDbArc
 50
270.0022522011999
 51
352.5001661692
  0
ARC
  5
5EC
330
58F
100
AcDbEntity
  8
0
  6
Continuous
 62
     7
100
AcDbCircle
 10
32.33873016942543
 20
7.58886428748185
 30
0.0
 40
0.1574802915
100
AcDbArc
 50
89.99986687889995
 51
166.1552535607
  0
ARC
  5
5ED
330
58F
100
AcDbEntity
  8
0
  6
Continuous
 62
     7
100
AcDbCircle
 10
21.02948825742543
 20
45.36793825148185
 30
0.0
 40
43.9190709968
100
AcDbArc
 50
272.1825387827999
 51
272.6427933787
  0
SPLINE
  5
5EE
330
58F
100
AcDbEntity
  8
0
  6
Continuous
 62
     7
100
AcDbSpline
210
0.0
220
0.0
230
1.0
 70
     8
 71
     3
 72
    34
 73
    30
 74
    28
 42
0.0000000001
 43
0.0000000001
 44
0.0000000001
 12
0.9999998715834014
 22
-0.0005067871159895
 32
0.0
 13
0.0321183447694173
 23
0.9994840728742369
 33
0.0
 40
0.0
 40
0.0
 40
0.0
 40
0.0
 40
0.831753709485932
 40
1.581129719993975
 40
2.252262903807223
 40
2.846394485378739
 40
3.374575643624909
 40
3.841972870693261
 40
4.247984870326553
 40
4.616320201209671
 40
4.971614092630444
 40
5.338413660600054
 40
5.741783299606878
 40
6.207260891922268
 40
6.736340648724276
 40
7.303832939716897
 40
7.903930466099383
 40
8.536408596185321
 40
9.213899426848296
 40
9.967907695090804
 40
10.7874680013857
 40
11.56414431052805
 40
12.2579957115778
 40
12.87504323567968
 40
13.4374816240119
 40
13.99963549071515
 40
14.53180423756901
 40
15.05117935088255
 40
15.44263627200244
 40
15.44263627200244
 40
15.44263627200244
 40
15.44263627200244
 10
21.02649144212543
 20
11.63066712520367
 30
0.0
 10
21.30374264301708
 20
11.63052661784913
 30
0.0
 10
21.83090880463653
 20
11.64406842560196
 30
0.0
 10
22.57974391737985
 20
11.70134310067462
 30
0.0
 10
23.24658507756245
 20
11.78230331053718
 30
0.0
 10
23.83703541738537
 20
11.8766075410898
 30
0.0
 10
24.35734997227407
 20
11.97743157016777
 30
0.0
 10
24.81313487579591
 20
12.08035993586823
 30
0.0
 10
25.21435149775559
 20
12.18225921285371
 30
0.0
 10
25.57717946065693
 20
12.28307574862152
 30
0.0
 10
25.92536367492316
 20
12.38747743927657
 30
0.0
 10
26.28254636260229
 20
12.50227837145341
 30
0.0
 10
26.67195289282937
 20
12.63659456732754
 30
0.0
 10
27.10814596528754
 20
12.80073100121646
 30
0.0
 10
27.58856768532957
 20
13.00189864434647
 30
0.0
 10
28.09969588646588
 20
13.24451835617446
 30
0.0
 10
28.62779959012467
 20
13.53002808819213
 30
0.0
 10
29.16918758397979
 20
13.86584029877392
 30
0.0
 10
29.73067052009147
 20
14.26424211846347
 30
0.0
 10
30.3123339848708
 20
14.73919250206663
 30
0.0
 10
30.88504275908468
 20
15.27459763222899
 30
0.0
 10
31.4093448685278
 20
15.83003277085213
 30
0.0
 10
31.85039858589514
 20
16.36956634469232
 30
0.0
 10
32.19058535161043
 20
16.89484594913667
 30
0.0
 10
32.45078345828468
 20
17.4150715528629
 30
0.0
 10
32.64231203200142
 20
17.93426328529168
 30
0.0
 10
32.7749354653212
 20
18.45642233963632
 30
0.0
 10
32.84907764282944
 20
18.93242303446621
 30
0.0
 10
32.86973076614046
 20
19.23563896451177
 30
0.0
 10
32.87392174892543
 20
19.36605728380367
 30
0.0
 11
21.02649144212543
 21
11.63066712520367
 31
0.0
 11
21.85796758762543
 21
11.65215323020367
 31
0.0
 11
22.60517165492543
 21
11.70916627200367
 31
0.0
 11
23.27144202832543
 21
11.78981080030367
 31
0.0
 11
23.85814255092543
 21
11.88348487890367
 31
0.0
 11
24.37665330312543
 21
11.98409271050367
 31
0.0
 11
24.83257555122543
 21
12.08702507450367
 31
0.0
 11
25.22611667552543
 21
12.18688060680367
 31
0.0
 11
25.58101589362543
 21
12.28545778960367
 31
0.0
 11
25.92134989672543
 21
12.38747012030368
 31
0.0
 11
26.27055227482543
 21
12.49971815900368
 31
0.0
 11
26.65179654202543
 21
12.63147503510367
 31
0.0
 11
27.08732647332543
 21
12.79574027150367
 31
0.0
 11
27.57514415582543
 21
13.00057995930367
 31
0.0
 11
28.08770162102543
 21
13.24416227640368
 31
0.0
 11
28.61539548602543
 21
13.52991781180368
 31
0.0
 11
29.15294795492543
 21
13.86318336390367
 31
0.0
 11
29.70548001622543
 21
14.25523201760367
 31
0.0
 11
30.29007913922543
 21
14.73143820610367
 31
0.0
 11
30.88929184162543
 21
15.29056541250368
 31
0.0
 11
31.42105934192543
 21
15.85664792840367
 31
0.0
 11
31.85572474422543
 21
16.39747669500367
 31
0.0
 11
32.19010903202543
 21
16.91606593040367
 31
0.0
 11
32.44132000512543
 21
17.41928555210368
 31
0.0
 11
32.63612798232543
 21
17.94660596880367
 31
0.0
 11
32.76769033612543
 21
18.46225596850367
 31
0.0
 11
32.84714876352543
 21
18.97551698070367
 31
0.0
 11
32.87392174892543
 21
19.36605728380367
 31
0.0
  0
SPLINE
  5
5EF
330
58F
100
AcDbEntity
  8
DATUM_AXIS
  6
Continuous
 62
     7
100
AcDbSpline
210
0.0
220
0.0
230
1.0
 70
     8
 71
     3
 72
    12
 73
     8
 74
     6
 42
0.0000000001
 43
0.0000000001
 44
0.0000000001
 12
0.9999999988725722
 22
0.0000474853173348
 32
0.0
 13
0.0
 23
-1.0
 33
0.0
 40
0.0
 40
0.0
 40
0.0
 40
0.0
 40
0.0942321167180749
 40
0.1812277148404399
 40
0.2529798278176444
 40
0.3046390132413911
 40
0.3385404352229427
 40
0.3385404352229427
 40
0.3385404352229427
 40
0.3385404352229427
 10
21.02646590412543
 20
26.21891075910367
 30
0.0
 10
21.05787660966271
 20
26.218912250651
 30
0.0
 10
21.11832233781267
 20
26.21626898959202
 30
0.0
 10
21.20202457315457
 20
26.20517125485442
 30
0.0
 10
21.2700919888454
 20
26.1864893194672
 30
0.0
 10
21.31782498163342
 20
26.16537869450659
 30
0.0
 10
21.33748952612543
 20
26.13945735029753
 30
0.0
 10
21.33748952612543
 20
26.12815687630368
 30
0.0
 11
21.02646590412543
 21
26.21891075910367
 31
0.0
 11
21.12060517272543
 21
26.21472866290368
 31
0.0
 11
21.20671715492543
 21
26.20236093820368
 31
0.0
 11
21.27575459972543
 21
26.18281108060368
 31
0.0
 11
21.32091769412543
 21
26.15773187920368
 31
0.0
 11
21.33748952612543
 21
26.12815687630368
 31
0.0
  0
SPLINE
  5
5F0
330
58F
100
AcDbEntity
  8
DATUM_AXIS
  6
Continuous
 62
     7
100
AcDbSpline
210
0.0
220
0.0
230
1.0
 70
     8
 71
     3
 72
    17
 73
    13
 74
    11
 42
0.0000000001
 43
0.0000000001
 44
0.0000000001
 12
0.0
 22
1.0
 32
0.0
 13
0.0
 23
-1.0
 33
0.0
 40
0.0
 40
0.0
 40
0.0
 40
0.0
 40
0.0310212718240598
 40
0.0790999025193582
 40
0.1494905000851488
 40
0.2376255193728227
 40
0.3316790230536349
 40
0.4267627458169344
 40
0.5150210871750767
 40
0.5893334524190895
 40
0.6438094491362652
 40
0.6793834326440155
 40
0.6793834326440155
 40
0.6793834326440155
 40
0.6793834326440155
 10
21.69969425052543
 20
26.11454052560368
 30
0.0
 10
21.69969425052543
 20
26.12488094954503
 30
0.0
 10
21.71744051121919
 20
26.14922524624481
 30
0.0
 10
21.76422620975396
 20
26.16721719605911
 30
0.0
 10
21.83185267384784
 20
26.18153792205776
 30
0.0
 10
21.9160922305949
 20
26.18689508394958
 30
0.0
 10
22.00857337692087
 20
26.18444989521331
 30
0.0
 10
22.10057654439444
 20
26.17390776658079
 30
0.0
 10
22.18478770048542
 20
26.15665238037336
 30
0.0
 10
22.25365944291082
 20
26.13284502717873
 30
0.0
 10
22.30181448378925
 20
26.10759121809925
 30
0.0
 10
22.32174149462543
 20
26.08020197300626
 30
0.0
 10
22.32174149462543
 20
26.06834397850368
 30
0.0
 11
21.69969425052543
 21
26.11454052560368
 31
0.0
 11
21.71469173142543
 21
26.14169554120368
 31
0.0
 11
21.75752339662543
 21
26.16353594380368
 31
0.0
 11
21.82623809652543
 21
26.17880441600368
 31
0.0
 11
21.91411923512543
 21
26.18548925730368
 31
0.0
 11
22.00814223312543
 21
26.18309396990368
 31
0.0
 11
22.10260211982543
 21
26.17221995780368
 31
0.0
 11
22.18888940132544
 21
26.15367164600368
 31
0.0
 11
22.25891044542543
 21
26.12878427950368
 31
0.0
 11
22.30498975372543
 21
26.09972689550368
 31
0.0
 11
22.32174149462543
 21
26.06834397850368
 31
0.0
  0
SPLINE
  5
5F1
330
58F
100
AcDbEntity
  8
0
  6
Continuous
 62
     7
100
AcDbSpline
210
0.0
220
0.0
230
1.0
 70
     8
 71
     3
 72
    35
 73
    31
 74
    29
 42
0.0000000001
 43
0.0000000001
 44
0.0000000001
 12
-0.0229868866248521
 22
0.9997357666120066
 32
0.0
 13
-0.9870466452433458
 23
0.1604335379958226
 33
0.0
 40
0.0
 40
0.0
 40
0.0
 40
0.0
 40
0.2814601551540415
 40
0.6428202371968315
 40
0.9670790061536155
 40
1.258131534277905
 40
1.517721232796105
 40
1.760192513876956
 40
2.006171698994791
 40
2.268365703817611
 40
2.557115142250653
 40
2.879427520282685
 40
3.23641189659544
 40
3.63191644673174
 40
4.064616599357667
 40
4.530568697262617
 40
5.038039332158867
 40
5.560211589703822
 40
6.074436057021369
 40
6.581458312001169
 40
7.0988612370859
 40
7.669510882482704
 40
8.287231574147032
 40
8.950432198412471
 40
9.651810200536854
 40
10.30785541139844
 40
10.97496190916956
 40
11.65130151088265
 40
12.32258243455767
 40
12.89591700471835
 40
12.89591700471835
 40
12.89591700471835
 40
12.89591700471835
 10
32.87529442102543
 20
19.66988584950368
 30
0.0
 10
32.87313779013345
 20
19.76368111083156
 30
0.0
 10
32.86269993861146
 20
19.97780760804431
 30
0.0
 10
32.82755183202146
 20
20.2985035956315
 30
0.0
 10
32.7713897850509
 20
20.61937294256024
 30
0.0
 10
32.70519878313838
 20
20.90353286384352
 30
0.0
 10
32.63236428450057
 20
21.15777921654645
 30
0.0
 10
32.55228395857047
 20
21.39401449660262
 30
0.0
 10
32.46050447610285
 20
21.62689825919791
 30
0.0
 10
32.35072435669954
 20
21.86891775790943
 30
0.0
 10
32.21690596137833
 20
22.12757529824437
 30
0.0
 10
32.05246601616526
 20
22.40544390848079
 30
0.0
 10
31.85064121531413
 20
22.70176321009273
 30
0.0
 10
31.60788666278389
 20
23.01372319518256
 30
0.0
 10
31.32615731646624
 20
23.34058793670792
 30
0.0
 10
31.00552732065758
 20
23.68265872070168
 30
0.0
 10
30.64942089688972
 20
24.03173179955179
 30
0.0
 10
30.26856954035847
 20
24.37805144419422
 30
0.0
 10
29.87225793036058
 20
24.70641940636276
 30
0.0
 10
29.46197526815603
 20
25.01449432502614
 30
0.0
 10
29.02199307114509
 20
25.31338175857805
 30
0.0
 10
28.53528411469826
 20
25.60790283812778
 30
0.0
 10
27.98970115339604
 20
25.8971785243483
 30
0.0
 10
27.38881287695221
 20
26.17290638389375
 30
0.0
 10
26.76166966133841
 20
26.41941122614835
 30
0.0
 10
26.12311766744421
 20
26.63820714550202
 30
0.0
 10
25.48521718405662
 20
26.83182823368591
 30
0.0
 10
24.83550834808571
 20
27.00251767751939
 30
0.0
 10
24.20985684455552
 20
27.13962791520007
 30
0.0
 10
23.80144771835181
 20
27.21309042415495
 30
0.0
 10
23.61281173032543
 20
27.24375112200368
 30
0.0
 11
32.87529442102543
 21
19.66988584950368
 31
0.0
 11
32.86151937422543
 21
19.95100871770368
 31
0.0
 11
32.82217352922543
 21
20.31022037310368
 31
0.0
 11
32.76637853242543
 21
20.62964276990367
 31
0.0
 11
32.70032956972543
 21
20.91310195330368
 31
0.0
 11
32.62874942092543
 21
21.16262769120368
 31
0.0
 11
32.55082825122542
 21
21.39223738930368
 31
0.0
 11
32.46064300312543
 21
21.62108751610368
 31
0.0
 11
32.35245022292543
 21
21.85991803860368
 31
0.0
 11
32.21978049002543
 21
22.11638437200368
 31
0.0
 11
32.05561655922543
 21
22.39375681630368
 31
0.0
 11
31.85498786452543
 21
22.68902952380368
 31
0.0
 11
31.61307444802543
 21
23.00192207420368
 31
0.0
 11
31.33124367672543
 21
23.33025245420368
 31
0.0
 11
31.01274646082543
 21
23.67035667500367
 31
0.0
 11
30.65077467432543
 21
24.02602909600368
 31
0.0
 11
30.26395474702543
 21
24.37679142350368
 31
0.0
 11
29.86785143422543
 21
24.70470752310368
 31
0.0
 11
29.46243791912543
 21
25.00919307090368
 31
0.0
 11
29.03434500992543
 21
25.29978255450368
 31
0.0
 11
28.54615852532543
 21
25.59527362720368
 31
0.0
 11
28.00057985272543
 21
25.88496788830368
 31
0.0
 11
27.39805050462543
 21
26.16208420450368
 31
0.0
 11
26.74577444902543
 21
26.41989624680368
 31
0.0
 11
26.12542772442543
 21
26.63335645380368
 31
0.0
 11
25.48702049812543
 21
26.82692115300368
 31
0.0
 11
24.83278460682543
 21
26.99841650390368
 31
0.0
 11
24.17707152402543
 21
27.14214691660368
 31
0.0
 11
23.61281173032543
 21
27.24375112200368
 31
0.0
  0
SPLINE
  5
5F2
330
58F
100
AcDbEntity
  8
DATUM_AXIS
  6
Continuous
 62
     7
100
AcDbSpline
210
0.0
220
0.0
230
1.0
 70
     8
 71
     3
 72
    12
 73
     8
 74
     6
 42
0.0000000001
 43
0.0000000001
 44
0.0000000001
 12
0.0
 22
1.0
 32
0.0
 13
0.9999999988725726
 23
-0.0000474853146314
 33
0.0
 40
0.0
 40
0.0
 40
0.0
 40
0.0
 40
0.0322790474879052
 40
0.083127296550535
 40
0.1555478454412793
 40
0.2445617793449686
 40
0.3386183733867213
 40
0.3386183733867213
 40
0.3386183733867213
 40
0.3386183733867213
 10
20.71544228202543
 20
26.12815687630368
 30
0.0
 10
20.71544228202543
 20
26.13891655879965
 30
0.0
 10
20.73377982448096
 20
26.16439190429252
 30
0.0
 10
20.78096846792009
 20
26.18587401350042
 30
0.0
 10
20.8494980367106
 20
26.20496689318972
 30
0.0
 10
20.93406271588479
 20
26.21624876225247
 30
0.0
 10
20.99511370614686
 20
26.21891224787266
 30
0.0
 10
21.02646590412543
 20
26.21891075910367
 30
0.0
 11
20.71544228202543
 21
26.12815687630368
 31
0.0
 11
20.73072105152543
 21
26.15659094230368
 31
0.0
 11
20.77483205972543
 21
26.18188448670368
 31
0.0
 11
20.84440664432543
 21
26.20198705070368
 31
0.0
 11
20.93250162372543
 21
26.21474459880368
 31
0.0
 11
21.02646590412543
 21
26.21891075910367
 31
0.0
  0
SPLINE
  5
5F3
330
58F
100
AcDbEntity
  8
DATUM_AXIS
  6
Continuous
 62
     7
100
AcDbSpline
210
0.0
220
0.0
230
1.0
 70
     8
 71
     3
 72
    17
 73
    13
 74
    11
 42
0.0000000001
 43
0.0000000001
 44
0.0000000001
 12
0.0
 22
1.0
 32
0.0
 13
0.0
 23
-1.0
 33
0.0
 40
0.0
 40
0.0
 40
0.0
 40
0.0
 40
0.0339524318029941
 40
0.088025067968312
 40
0.1643984045371057
 40
0.2560764215492002
 40
0.3520716899780055
 40
0.4457035414454921
 40
0.5303666564785769
 40
0.5994592674756464
 40
0.6482498685097596
 40
0.6794357025738097
 40
0.6794357025738097
 40
0.6794357025738097
 40
0.6794357025738097
 10
19.73119031352543
 20
26.06834397850368
 30
0.0
 10
19.73119031352543
 20
26.07966145577134
 30
0.0
 10
19.74995287197358
 20
26.10669094819444
 30
0.0
 10
19.7981178838121
 20
26.13243219783266
 30
0.0
 10
19.86851157470163
 20
26.15686593276114
 30
0.0
 10
19.95488773996871
 20
26.17436214367824
 30
0.0
 10
20.04821610483431
 20
26.18472335957995
 30
0.0
 10
20.13971516015061
 20
26.18679379889087
 30
0.0
 10
20.22219830668603
 20
26.18129323826817
 30
0.0
 10
20.2884728389723
 20
26.16723155736965
 30
0.0
 10
20.33520661463119
 20
26.14950830307552
 30
0.0
 10
20.35323755762543
 20
26.12493580362503
 30
0.0
 10
20.35323755762543
 20
26.11454052560368
 30
0.0
 11
19.73119031352543
 21
26.06834397850368
 31
0.0
 11
19.74670965602543
 21
26.09854195250368
 31
0.0
 11
19.79212075362543
 21
26.12789637630368
 31
0.0
 11
19.86401582412543
 21
26.15366429000367
 31
0.0
 11
19.95368346092543
 21
26.17275810350368
 31
0.0
 11
20.04908844732543
 21
26.18338731470368
 31
0.0
 11
20.14269872772543
 21
26.18539704420367
 31
0.0
 11
20.22710027692543
 21
26.17874711640368
 31
0.0
 11
20.29456089662543
 21
26.16381883170368
 31
0.0
 11
20.33810491802543
 21
26.14180881240367
 31
0.0
 11
20.35323755762543
 21
26.11454052560368
 31
0.0
  0
SPLINE
  5
5F4
330
58F
100
AcDbEntity
  8
0
  6
Continuous
 62
     7
100
AcDbSpline
210
0.0
220
0.0
230
1.0
 70
     8
 71
     3
 72
    34
 73
    30
 74
    28
 42
0.0000000001
 43
0.0000000001
 44
0.0000000001
 12
0.0323206620678464
 22
-0.9994775509252301
 32
0.0
 13
0.9998778334328846
 23
-0.0156306816729317
 33
0.0
 40
0.0
 40
0.0
 40
0.0
 40
0.0
 40
0.3948453540188807
 40
0.9165633036579128
 40
1.450408021042738
 40
2.017163891543019
 40
2.584145101956675
 40
3.206853829448542
 40
3.904211472605193
 40
4.673272709780813
 40
5.478548758021366
 40
6.23713944006295
 40
6.922451336378445
 40
7.558772884086986
 40
8.16359377618984
 40
8.736506216924457
 40
9.268860744624868
 40
9.732642011015693
 40
10.13444825986832
 40
10.50120388701863
 40
10.85895451116424
 40
11.2324289353066
 40
11.64597438693986
 40
12.12092170599978
 40
12.64552383987971
 40
13.23003222293003
 40
13.88936309591329
 40
14.62514529266904
 40
15.18603200602352
 40
15.18603200602352
 40
15.18603200602352
 40
15.18603200602352
 10
9.179045288325429
 20
19.36497441850368
 30
0.0
 10
9.183299176077531
 20
19.23342806269401
 30
0.0
 10
9.204240257194424
 20
18.92830899370567
 30
0.0
 10
9.279271126774904
 20
18.44993956788744
 30
0.0
 10
9.413311165814921
 20
17.92516291421339
 30
0.0
 10
9.607256000126927
 20
17.40299316824042
 30
0.0
 10
9.871148387984858
 20
16.8790647719171
 30
0.0
 10
10.21597446935575
 20
16.35132778539128
 30
0.0
 10
10.65901104523591
 20
15.81278816499182
 30
0.0
 10
11.18013652394217
 20
15.2628141392829
 30
0.0
 10
11.74908663952525
 20
14.73187760304125
 30
0.0
 10
12.33060470975348
 20
14.25772567595008
 30
0.0
 10
12.89700765561973
 20
13.85687327351357
 30
0.0
 10
13.44368529145495
 20
13.51921265685363
 30
0.0
 10
13.97652181954218
 20
13.23264406806928
 30
0.0
 10
14.4923133353219
 20
12.98941099053554
 30
0.0
 10
14.97541650006829
 20
12.7886119162772
 30
0.0
 10
15.41198878073334
 20
12.62547971675477
 30
0.0
 10
15.8006047944116
 20
12.49225477874848
 30
0.0
 10
16.15824777368138
 20
12.37796255615815
 30
0.0
 10
16.50903319871283
 20
12.27347108334175
 30
0.0
 10
16.87693130617075
 20
12.17206286878252
 30
0.0
 10
17.28494257246074
 20
12.06952667070612
 30
0.0
 10
17.74479629758802
 20
11.96720373729353
 30
0.0
 10
18.26356738051046
 20
11.86834720055707
 30
0.0
 10
18.84603010463847
 20
11.77691596662653
 30
0.0
 10
19.50143726974777
 20
11.69876420836455
 30
0.0
 10
20.15185450806365
 20
11.6499471677098
 30
0.0
 10
20.58393791917538
 20
11.63552092022735
 30
0.0
 10
20.77087731642543
 20
11.63259857300367
 30
0.0
 11
9.179045288325429
 21
19.36497441850368
 31
0.0
 11
9.20625448512543
 21
18.97106768690368
 31
0.0
 11
9.28660958342543
 21
18.45557503210367
 31
0.0
 11
9.419313219125429
 21
17.93848710210367
 31
0.0
 11
9.616845506625431
 21
17.40726849160368
 31
0.0
 11
9.871555156625429
 21
16.90072067830367
 31
0.0
 11
10.21095061342543
 21
16.37863171730367
 31
0.0
 11
10.64955271752543
 21
15.83647318260367
 31
0.0
 11
11.17726830862543
 21
15.27703467710368
 31
0.0
 11
11.76655468132543
 21
14.72820766900367
 31
0.0
 11
12.35502388922543
 21
14.24949709440367
 31
0.0
 11
12.91443129462543
 21
13.85362369290368
 31
0.0
 11
13.45587131962543
 21
13.51933667340367
 31
0.0
 11
13.98834490322543
 21
13.23249142890367
 31
0.0
 11
14.50641086352543
 21
12.98787678190367
 31
0.0
 11
14.99778192282543
 21
12.78304557030368
 31
0.0
 11
15.43210146942543
 21
12.62038151620367
 31
0.0
 11
15.81211736002543
 21
12.48985878060367
 31
0.0
 11
16.16146881652543
 21
12.37821985420368
 31
0.0
 11
16.50434061022543
 21
12.27611969670368
 31
0.0
 11
16.86439754902543
 21
12.17691210470367
 31
0.0
 11
17.26549653482543
 21
12.07621729770367
 31
0.0
 11
17.72910506192543
 21
11.97305679420368
 31
0.0
 11
18.24441238452543
 21
11.87474218620367
 31
0.0
 11
18.82185643632543
 21
11.78414187220367
 31
0.0
 11
19.47657693182543
 21
11.70630696460367
 31
0.0
 11
20.21030437872543
 21
11.65135721730367
 31
0.0
 11
20.77087731642543
 21
11.63259857300367
 31
0.0
  0
SPLINE
  5
5F5
330
58F
100
AcDbEntity
  8
0
  6
Continuous
 62
     7
100
AcDbSpline
210
0.0
220
0.0
230
1.0
 70
     8
 71
     3
 72
    46
 73
    42
 74
    40
 42
0.0000000001
 43
0.0000000001
 44
0.0000000001
 12
-0.9998780723633529
 22
0.0156153900670414
 32
0.0
 13
-0.0322689715638112
 23
0.9994792211317921
 33
0.0
 40
0.0
 40
0.0
 40
0.0
 40
0.0
 40
0.3738444945411761
 40
0.9400430762609309
 40
1.444299215480594
 40
1.909430048759802
 40
2.353802603843178
 40
2.779797792003856
 40
3.173375132219175
 40
3.516300584757372
 40
3.817025382008226
 40
4.086442091230177
 40
4.335333190320027
 40
4.574436800254092
 40
4.814505891069063
 40
5.066397924973394
 40
5.3411231651551
 40
5.649911118155062
 40
6.003545596120775
 40
6.402888483328073
 40
6.822288173490973
 40
7.247865077066942
 40
7.677175378313255
 40
8.108189183388887
 40
8.540107279577371
 40
9.008650233130996
 40
9.498424378672041
 40
9.984768717126881
 40
10.4535320045426
 40
10.88086363050695
 40
11.26105042972372
 40
11.626745237922
 40
12.01212923223299
 40
12.44204517868176
 40
12.92294934606155
 40
13.40359017367466
 40
13.83601051233273
 40
14.21239543857699
 40
14.56809418079845
 40
14.94286809623994
 40
15.18739712502205
 40
15.18739712502205
 40
15.18739712502205
 40
15.18739712502205
 10
20.77087726212543
 20
11.63259489720368
 30
0.0
 10
20.6462776246036
 20
11.6345408064059
 30
0.0
 10
20.33301711206064
 20
11.64314173319496
 30
0.0
 10
19.85226901848726
 20
11.6708225106483
 30
0.0
 10
19.34246581409271
 20
11.71761287201639
 30
0.0
 10
18.8746325049003
 20
11.77480507480594
 30
0.0
 10
18.43433390119542
 20
11.84080049048713
 30
0.0
 10
18.01936820265796
 20
11.91392483733129
 30
0.0
 10
17.63946384350652
 20
11.99045733537078
 30
0.0
 10
17.30214972596443
 20
12.06645181969514
 30
0.0
 10
17.00659802722547
 20
12.13919498516913
 30
0.0
 10
16.74261799567002
 20
12.2088763107846
 30
0.0
 10
16.49948510911645
 20
12.27693476524734
 30
0.0
 10
16.26669086552416
 20
12.345547662497
 30
0.0
 10
16.03386934338454
 20
12.41753040626985
 30
0.0
 10
15.79073316120901
 20
12.49627539317887
 30
0.0
 10
15.52706726743151
 20
12.58589285029662
 30
0.0
 10
15.23311309710208
 20
12.6916586264877
 30
0.0
 10
14.90280979500475
 20
12.81888312718167
 30
0.0
 10
14.54217229296015
 20
12.96958351992937
 30
0.0
 10
14.16507830775463
 20
13.14253635771244
 30
0.0
 10
13.78577470857601
 20
13.33395119747813
 30
0.0
 10
13.4108619419914
 20
13.54195936335656
 30
0.0
 10
13.04308101431753
 20
13.7664366646832
 30
0.0
 10
12.67410023365225
 20
14.0133010881592
 30
0.0
 10
12.29993719857928
 20
14.28695729660988
 30
0.0
 10
11.92421487248028
 20
14.58844125175927
 30
0.0
 10
11.56236512371727
 20
14.90650449873868
 30
0.0
 10
11.22784745830818
 20
15.22357256502921
 30
0.0
 10
10.92926701841093
 20
15.52674976242653
 30
0.0
 10
10.66522142017521
 20
15.81533300404258
 30
0.0
 10
10.42069177061574
 20
16.10250405350202
 30
0.0
 10
10.17950844012801
 20
16.41389888127557
 30
0.0
 10
9.93901675588404
 20
16.77339200425778
 30
0.0
 10
9.714712309260507
 20
17.18008291750388
 30
0.0
 10
9.527418558574524
 20
17.60607286010527
 30
0.0
 10
9.391149315180417
 20
18.01426397374666
 30
0.0
 10
9.29617964197399
 20
18.39093495220211
 30
0.0
 10
9.229653564214434
 20
18.75409781404601
 30
0.0
 10
9.192962693246398
 20
19.07730751259269
 30
0.0
 10
9.181667750050863
 20
19.28350695555992
 30
0.0
 10
9.179037516625429
 20
19.36497418330367
 30
0.0
 11
20.77087726212543
 21
11.63259489720368
 31
0.0
 11
20.39717402472543
 21
11.64287091080367
 31
0.0
 11
19.83191037402543
 21
11.67539534990368
 31
0.0
 11
19.32975935642543
 21
11.72142370490367
 31
0.0
 11
18.86805487452543
 21
11.77777673020367
 31
0.0
 11
18.42858787822543
 21
11.84362296680367
 31
0.0
 11
18.00905942682543
 21
11.91756739730367
 31
0.0
 11
17.62324576282543
 21
11.99535518170367
 31
0.0
 11
17.28870278952543
 21
12.07071342620367
 31
0.0
 11
16.99668341232543
 21
12.14254717190367
 31
0.0
 11
16.73618479052542
 21
12.21129185350368
 31
0.0
 11
16.49650331772543
 21
12.27837069370367
 31
0.0
 11
16.26715171772543
 21
12.34596048480367
 31
0.0
 11
16.03779192802543
 21
12.41686362460368
 31
0.0
 11
15.79815629412543
 21
12.49448037350368
 31
0.0
 11
15.53806957132543
 21
12.58296118620367
 31
0.0
 11
15.24755145832543
 21
12.68759973520367
 31
0.0
 11
14.91760657442543
 21
12.81485427380367
 31
0.0
 11
14.54923017462543
 21
12.96904107490368
 31
0.0
 11
14.16807294672543
 21
13.14401326620368
 31
0.0
 11
13.78817897142543
 21
13.33583680070367
 31
0.0
 11
13.41284743782543
 21
13.54424403340368
 31
0.0
 11
13.04494975042543
 21
13.76879734950368
 31
0.0
 11
12.68590414972543
 21
14.00887962380367
 31
0.0
 11
12.30772678972543
 21
14.28549195850368
 31
0.0
 11
11.92569207452543
 21
14.59196902130367
 31
0.0
 11
11.56005709742543
 21
14.91265871410368
 31
0.0
 11
11.21979128312543
 21
15.23508420200367
 31
0.0
 11
10.92024664772543
 21
15.53985514870367
 31
0.0
 11
10.66368570462543
 21
15.82042329510368
 31
0.0
 11
10.42707283812543
 21
16.09925486460367
 31
0.0
 11
10.19200659552543
 21
16.40464753750368
 31
0.0
 11
9.953414974925429
 21
16.76228109240367
 31
0.0
 11
9.72112542502543
 21
17.18336348720368
 31
0.0
 11
9.52819601292543
 21
17.62358371290368
 31
0.0
 11
9.390805308325429
 21
18.03359730240368
 31
0.0
 11
9.298643436625429
 21
18.39852442130368
 31
0.0
 11
9.234692308125429
 21
18.74842704830367
 31
0.0
 11
9.192459727025429
 21
19.12081380530367
 31
0.0
 11
9.179037516625429
 21
19.36497418330367
 31
0.0
  0
SPLINE
  5
5F6
330
58F
100
AcDbEntity
  8
0
  6
Continuous
 62
     7
100
AcDbSpline
210
0.0
220
0.0
230
1.0
 70
     8
 71
     3
 72
    35
 73
    31
 74
    29
 42
0.0000000001
 43
0.0000000001
 44
0.0000000001
 12
-0.9870167068929479
 22
-0.1606176214311515
 32
0.0
 13
-0.0227694460770291
 23
-0.9997407425554614
 33
0.0
 40
0.0
 40
0.0
 40
0.0
 40
0.0
 40
0.5667152703976827
 40
1.234540452546058
 40
1.908128884835092
 40
2.572009186474002
 40
3.219841746968175
 40
3.906887435502641
 40
4.566619856351955
 40
5.187604189918853
 40
5.76488188137292
 40
6.284922883312728
 40
6.793994497463947
 40
7.316835976028055
 40
7.854264272362176
 40
8.371484284509355
 40
8.840021262693303
 40
9.277992487781281
 40
9.676407639655673
 40
10.03260516688761
 40
10.35281545582317
 40
10.63902471633531
 40
10.89877262234024
 40
11.14275406107463
 40
11.38411248395585
 40
11.64330963338529
 40
11.93373580765534
 40
12.25662052809624
 40
12.61550284829568
 40
12.89394940144368
 40
12.89394940144368
 40
12.89394940144368
 40
12.89394940144368
 10
18.43700673102543
 20
27.24324471190368
 30
0.0
 10
18.25055425104747
 20
27.21290322565035
 30
0.0
 10
17.84545318108118
 20
27.14003714157363
 30
0.0
 10
17.22393630852354
 20
27.00404567004474
 30
0.0
 10
16.57718769076806
 20
26.83447124975132
 30
0.0
 10
15.94369766965342
 20
26.64261230497219
 30
0.0
 10
15.31307413473415
 20
26.42719978133958
 30
0.0
 10
14.69353154816532
 20
26.18512803046045
 30
0.0
 10
14.09617472891311
 20
25.91335529018464
 30
0.0
 10
13.54771128800217
 20
25.62494478388805
 30
0.0
 10
13.05647895300584
 20
25.32981975000053
 30
0.0
 10
12.61259534880628
 20
25.02995787216452
 30
0.0
 10
12.19803214459354
 20
24.72019625785799
 30
0.0
 10
11.79443956120768
 20
24.38705604597588
 30
0.0
 10
11.40507028073786
 20
24.03342512630853
 30
0.0
 10
11.04250791562453
 20
23.67778907656052
 30
0.0
 10
10.71819103565033
 20
23.33112650097207
 30
0.0
 10
10.43459040589645
 20
23.00112798999469
 30
0.0
 10
10.19114094535943
 20
22.68657120002376
 30
0.0
 10
9.990403294295305
 20
22.38950298792219
 30
0.0
 10
9.827825339410008
 20
22.11264297536823
 30
0.0
 10
9.695849522152863
 20
21.85569728128903
 30
0.0
 10
9.58765726946156
 20
21.61551758922143
 30
0.0
 10
9.497076257765117
 20
21.38415559840503
 30
0.0
 10
9.417814229164839
 20
21.14887810421284
 30
0.0
 10
9.345591502439573
 20
20.89519695156484
 30
0.0
 10
9.280008712285965
 20
20.61171565922732
 30
0.0
 10
9.22453672984836
 20
20.29224344508445
 30
0.0
 10
9.189966717800198
 20
19.97379161196941
 30
0.0
 10
9.179723678951177
 20
19.76149165800574
 30
0.0
 10
9.177610321025429
 20
19.66870020340367
 30
0.0
 11
18.43700673102543
 21
27.24324471190368
 31
0.0
 11
17.87926049452543
 21
27.14281895140368
 31
0.0
 11
17.22687744162543
 21
27.00003650780367
 31
0.0
 11
16.57522037542543
 21
26.82955353450368
 31
0.0
 11
15.93978072012543
 21
26.63732060450368
 31
0.0
 11
15.32698652992543
 21
26.42715327380368
 31
0.0
 11
14.68751409942543
 21
26.17594262760368
 31
0.0
 11
14.08725999302543
 21
25.90218749090368
 31
0.0
 11
13.53780522852543
 21
25.61284166960368
 31
0.0
 11
13.04301889802543
 21
25.31545972630368
 31
0.0
 11
12.61198200432543
 21
25.02451327080368
 31
0.0
 11
12.20420926922543
 21
24.71975877150368
 31
0.0
 11
11.80085804592543
 21
24.38708625630368
 31
0.0
 11
11.40249211562543
 21
24.02634568570368
 31
0.0
 11
11.03369752292543
 21
23.66370662360368
 31
0.0
 11
10.71376209832543
 21
23.32140818070368
 31
0.0
 11
10.42901983582543
 21
22.98863102110368
 31
0.0
 11
10.18617718742543
 21
22.67277966150368
 31
0.0
 11
9.987034489625429
 21
22.37745126070368
 31
0.0
 11
9.824876772225429
 21
22.10133624150368
 31
0.0
 11
9.69412899952543
 21
21.84673702560368
 31
0.0
 11
9.58755942832543
 21
21.60985751790368
 31
0.0
 11
9.49861095852543
 21
21.38266792270368
 31
0.0
 11
9.42147649192543
 21
21.15396689000368
 31
0.0
 11
9.35041605372543
 21
20.90470081450368
 31
0.0
 11
9.284938735225431
 21
20.62175190840367
 31
0.0
 11
9.22981057412543
 21
20.30360818530368
 31
0.0
 11
9.191098569325429
 21
19.94681987210367
 31
0.0
 11
9.177610321025429
 21
19.66870020340367
 31
0.0
  0
SPLINE
  5
5F7
330
58F
100
AcDbEntity
  8
0
  6
Continuous
 62
     7
100
AcDbSpline
210
0.0
220
0.0
230
1.0
 70
     8
 71
     3
 72
    36
 73
    32
 74
    30
 42
0.0000000001
 43
0.0000000001
 44
0.0000000001
 12
0.0227502467390682
 22
0.9997411796426671
 32
0.0
 13
0.9870127481336556
 23
0.1606419466442337
 33
0.0
 40
0.0
 40
0.0
 40
0.0
 40
0.0
 40
0.1833483947604683
 40
0.4886848951714003
 40
0.7849172546986405
 40
1.070431821887632
 40
1.368608208200976
 40
1.703344472833873
 40
2.078381851059132
 40
2.494299545754867
 40
2.958653842923841
 40
3.478996018340448
 40
4.036873430027648
 40
4.596755954892387
 40
5.139180082692963
 40
5.611280263555569
 40
6.026976746633407
 40
6.406197665842963
 40
6.769720707389912
 40
7.15219075593092
 40
7.573287642823173
 40
8.02250396562926
 40
8.506177549474626
 40
9.030728511119333
 40
9.603456509846431
 40
10.21615136703655
 40
10.78542129340368
 40
11.31453402186207
 40
11.83262016595344
 40
12.37725618044037
 40
12.89389210312988
 40
12.89389210312988
 40
12.89389210312988
 40
12.89389210312988
 10
9.177608130725429
 20
19.66870025010367
 30
0.0
 10
9.178998537798767
 20
19.72980056359148
 30
0.0
 10
9.185434650135183
 20
19.89259959673659
 30
0.0
 10
9.207688839794698
 20
20.15344380442083
 30
0.0
 10
9.249502157087569
 20
20.44631743210172
 30
0.0
 10
9.30645311667655
 20
20.73417638288692
 30
0.0
 10
9.381620062030876
 20
21.03109751459449
 30
0.0
 10
9.483008359394279
 20
21.35166059553579
 30
0.0
 10
9.621230581976163
 20
21.70088777985091
 30
0.0
 10
9.805000567816112
 20
22.0772775037931
 30
0.0
 10
10.04347978596296
 20
22.47935963606602
 30
0.0
 10
10.3461510249033
 20
22.89586847743543
 30
0.0
 10
10.69945068905814
 20
23.3126398103521
 30
0.0
 10
11.07881610609569
 20
23.7158298153972
 30
0.0
 10
11.4559716291683
 20
24.08098373042609
 30
0.0
 10
11.81078180206307
 20
24.3995722871164
 30
0.0
 10
12.13614003329676
 20
24.66902352095043
 30
0.0
 10
12.44253176141602
 20
24.90417198950593
 30
0.0
 10
12.74783066664644
 20
25.12217168115105
 30
0.0
 10
13.07218089528172
 20
25.33713081643456
 30
0.0
 10
13.42907124978424
 20
25.55418584010546
 30
0.0
 10
13.82428166390911
 20
25.77242197085788
 30
0.0
 10
14.25931298141732
 20
25.98901190071361
 30
0.0
 10
14.7411640648493
 20
26.20282241069833
 30
0.0
 10
15.27192262755221
 20
26.41110003874838
 30
0.0
 10
15.82455997165325
 20
26.60306076693345
 30
0.0
 10
16.36913346536237
 20
26.77290739666011
 30
0.0
 10
16.88824898344182
 20
26.91760075126836
 30
0.0
 10
17.40355339898446
 20
27.04449593225413
 30
0.0
 10
17.91871134436637
 20
27.15343058657929
 30
0.0
 10
18.26703151287931
 20
27.21557899042795
 30
0.0
 10
18.43700692682543
 20
27.24324345720368
 30
0.0
 11
9.177608130725429
 21
19.66870025010367
 31
0.0
 11
9.18487240382543
 21
19.85190468290367
 31
0.0
 11
9.21085799762543
 21
20.15613342480368
 31
0.0
 11
9.252660246525429
 21
20.44940153220368
 31
0.0
 11
9.308024664525429
 21
20.72949678260368
 31
0.0
 11
9.381261183925429
 21
21.01853928740368
 31
0.0
 11
9.48245914762543
 21
21.33761191080368
 31
0.0
 11
9.620408619725429
 21
21.68635677200368
 31
0.0
 11
9.802601240825429
 21
22.06024629790368
 31
0.0
 11
10.03962802662543
 21
22.45954971150368
 31
0.0
 11
10.34367394732543
 21
22.88181983550368
 31
0.0
 11
10.70259110732543
 21
23.30890961380368
 31
0.0
 11
11.08594669562543
 21
23.71696222630368
 31
0.0
 11
11.47529084482543
 21
24.09463280750367
 31
0.0
 11
11.82696106952543
 21
24.40960365350368
 31
0.0
 11
12.14717956462543
 21
24.67467662730367
 31
0.0
 11
12.44800775082543
 21
24.90556817750368
 31
0.0
 11
12.74385697852543
 21
25.11680793750368
 31
0.0
 11
13.06271377362543
 21
25.32802744950368
 31
0.0
 11
13.42248859152543
 21
25.54685310740368
 31
0.0
 11
13.81565244992543
 21
25.76414895440368
 31
0.0
 11
14.24857223962543
 21
25.97983528080368
 31
0.0
 11
14.72788581832543
 21
26.19293667600368
 31
0.0
 11
15.26077865072543
 21
26.40279994030368
 31
0.0
 11
15.83928951692543
 21
26.60459232300368
 31
0.0
 11
16.38276322352543
 21
26.77401658130368
 31
0.0
 11
16.89247863602543
 21
26.91596895950368
 31
0.0
 11
17.39558123562543
 21
27.03966627950368
 31
0.0
 11
17.92841136672543
 21
27.15245120610368
 31
0.0
 11
18.43700692682543
 21
27.24324345720368
 31
0.0
  0
SPLINE
  5
5F8
330
58F
100
AcDbEntity
  8
0
  6
Continuous
 62
     7
100
AcDbSpline
210
0.0
220
0.0
230
1.0
 70
     8
 71
     3
 72
    54
 73
    50
 74
    48
 42
0.0000000001
 43
0.0000000001
 44
0.0000000001
 12
-0.0000450758363997
 22
-0.9999999989840844
 32
0.0
 13
0.9999999924633062
 23
0.0001227737255171
 33
0.0
 40
0.0
 40
0.0
 40
0.0
 40
0.0
 40
0.3134888468489817
 40
0.5973472896030599
 40
0.8535300569551958
 40
1.084237719453213
 40
1.293182493707013
 40
1.492017625254467
 40
1.693410449485861
 40
1.897297338439651
 40
2.10028486153455
 40
2.302716052406603
 40
2.505167305478064
 40
2.706416109100661
 40
2.905382768452136
 40
3.101736803635817
 40
3.296016561335385
 40
3.48974134185092
 40
3.683464701650821
 40
3.876745168126255
 40
4.06995664264895
 40
4.263603176580625
 40
4.456933001034678
 40
4.649369801739013
 40
4.846219773104901
 40
5.055436141275229
 40
5.284950193810288
 40
5.542754686094888
 40
5.836918436381684
 40
6.173612365102985
 40
6.539688484913389
 40
6.911007669569224
 40
7.281953905952956
 40
7.658351294319864
 40
8.038341044743772
 40
8.416501464683557
 40
8.791869123923289
 40
9.165342953598738
 40
9.538517448181615
 40
9.912282745502867
 40
10.28469789748048
 40
10.65808995366386
 40
11.04605087637841
 40
11.46389403590041
 40
11.92639565302436
 40
12.44077047587329
 40
13.0093914018906
 40
13.63449179154473
 40
14.31842760000524
 40
14.31842760000524
 40
14.31842760000524
 40
14.31842760000524
 10
10.00395780582543
 20
19.54274597200367
 30
0.0
 10
10.0039530955681
 20
19.43824968982684
 30
0.0
 10
10.01084989954582
 20
19.23906320262805
 30
0.0
 10
10.03926598084236
 20
18.95580482587489
 30
0.0
 10
10.07994495862515
 20
18.70199081600462
 30
0.0
 10
10.12883418298544
 20
18.47515549580858
 30
0.0
 10
10.18374381840336
 20
18.26945272742512
 30
0.0
 10
10.24501520396264
 20
18.07578933467591
 30
0.0
 10
10.31441867813894
 20
17.88668040544242
 30
0.0
 10
10.39310866625958
 20
17.69973380004848
 30
0.0
 10
10.48079875267942
 20
17.51645396002498
 30
0.0
 10
10.57659974736621
 20
17.33783156555289
 30
0.0
 10
10.67985612552456
 20
17.1640933160821
 30
0.0
 10
10.78967735119093
 20
16.99581308351783
 30
0.0
 10
10.90494920004788
 20
16.83371333227771
 30
0.0
 10
11.02477063033217
 20
16.67788033513296
 30
0.0
 10
11.14841740605539
 20
16.52733429376435
 30
0.0
 10
11.27555422430285
 20
16.38089350207851
 30
0.0
 10
11.40574318260022
 20
16.23761943673085
 30
0.0
 10
11.53827711599335
 20
16.09675334137229
 30
0.0
 10
11.67290123805462
 20
15.95791909611309
 30
0.0
 10
11.80976031300742
 20
15.82126282654355
 30
0.0
 10
11.94865529198575
 20
15.68704739333855
 30
0.0
 10
12.09057165752365
 20
15.55446091314026
 30
0.0
 10
12.23871080348214
 20
15.42082082192346
 30
0.0
 10
12.39865268071772
 20
15.28186401113684
 30
0.0
 10
12.5770598540261
 20
15.13324942527391
 30
0.0
 10
12.78113349098287
 20
14.9713051404423
 30
0.0
 10
13.01824458285168
 20
14.79367914461659
 30
0.0
 10
13.290476548256
 20
14.60298778931915
 30
0.0
 10
13.59089044259391
 20
14.40806259378911
 30
0.0
 10
13.90817327465458
 20
14.21862459618075
 30
0.0
 10
14.23537609497762
 20
14.03959734862648
 30
0.0
 10
14.57180782652691
 20
13.87199575509586
 30
0.0
 10
14.91626979219775
 20
13.71571153744896
 30
0.0
 10
15.26529975225996
 20
13.57084919099846
 30
0.0
 10
15.61630823118719
 20
13.43686092211469
 30
0.0
 10
15.96896383072475
 20
13.31220952779271
 30
0.0
 10
16.32370030640048
 20
13.19531688063593
 30
0.0
 10
16.68058683459
 20
13.08635620986827
 30
0.0
 10
17.03989048670966
 20
12.98538210079613
 30
0.0
 10
17.40598700771624
 20
12.89144496454304
 30
0.0
 10
17.78897217888924
 20
12.80282517257824
 30
0.0
 10
18.20320590510777
 20
12.71805764990497
 30
0.0
 10
18.66117433204187
 20
12.63764587835769
 30
0.0
 10
19.1712182643203
 20
12.56451534610441
 30
0.0
 10
19.73745067648256
 20
12.50359766264103
 30
0.0
 10
20.36207131709991
 20
12.46124254422894
 30
0.0
 10
20.79848730292347
 20
12.45097217312127
 30
0.0
 10
21.02646590402543
 20
12.45100016290368
 30
0.0
 11
10.00395780582543
 21
19.54274597200367
 31
0.0
 11
10.01476975952543
 21
19.22944362800368
 31
0.0
 11
10.04309474872543
 21
18.94700193400367
 31
0.0
 11
10.08364585542543
 21
18.69404893830368
 31
0.0
 11
10.13226875522543
 21
18.46852324320368
 31
0.0
 11
10.18617440242543
 21
18.26665174970367
 31
0.0
 11
10.24617085672543
 21
18.07708425510368
 31
0.0
 11
10.31558154902543
 21
17.88803075620367
 31
0.0
 11
10.39471163292543
 21
17.70012574480368
 31
0.0
 11
10.48226947002543
 21
17.51699311610368
 31
0.0
 11
10.57788722652543
 21
17.33856769280368
 31
0.0
 11
10.68126632742543
 21
17.16450083390367
 31
0.0
 11
10.79120629892543
 21
16.99593546490367
 31
0.0
 11
10.90645545952543
 21
16.83374618500367
 31
0.0
 11
11.02601820302543
 21
16.67799106470367
 31
0.0
 11
11.14921153722543
 21
16.52776448030367
 31
0.0
 11
11.27610004442543
 21
16.38137938090368
 31
0.0
 11
11.40625362422543
 21
16.23789145180367
 31
0.0
 11
11.53864404762543
 21
16.09707201240368
 31
0.0
 11
11.67317009362543
 21
15.95838741760368
 31
0.0
 11
11.81020607172543
 21
15.82156592510368
 31
0.0
 11
11.94924411482543
 21
15.68723482820367
 31
0.0
 11
12.08987067972543
 21
15.55587238490367
 31
0.0
 11
12.23604412262543
 21
15.42402688510368
 31
0.0
 11
12.39399262372543
 21
15.28682717770367
 31
0.0
 11
12.57035429142543
 21
15.13994878420368
 31
0.0
 11
12.77232286452543
 21
14.97972440490368
 31
0.0
 11
13.00775421982543
 21
14.80336004080367
 31
0.0
 11
13.28352144052543
 21
14.61018850660368
 31
0.0
 11
13.59061916552543
 21
14.41093311070368
 31
0.0
 11
13.90943662552543
 21
14.22058247610367
 31
0.0
 11
14.23487475832543
 21
14.04256244350367
 31
0.0
 11
14.57170604782543
 21
13.87457531190367
 31
0.0
 11
14.91764524072543
 21
13.71735481310367
 31
0.0
 11
15.26683072502543
 21
13.57218318790367
 31
0.0
 11
15.61743470102543
 21
13.43810212430367
 31
0.0
 11
15.96948884022543
 21
13.31344024350368
 31
0.0
 11
16.32392719292543
 21
13.19668127150367
 31
0.0
 11
16.68140990902543
 21
13.08756387980367
 31
0.0
 11
17.03994390072543
 21
12.98683442920367
 31
0.0
 11
17.40162741452543
 21
12.89406232420368
 31
0.0
 11
17.77960665232543
 21
12.80662449860368
 31
0.0
 11
18.18896828592543
 21
12.72286317760367
 31
0.0
 11
18.64450491152543
 21
12.64289988240367
 31
0.0
 11
19.15367754262543
 21
12.56992940810367
 31
0.0
 11
19.71904209742543
 21
12.50916200170367
 31
0.0
 11
20.34271636242543
 21
12.46696119220368
 31
0.0
 11
21.02646590402543
 21
12.45100016290368
 31
0.0
  0
SPLINE
  5
5F9
330
58F
100
AcDbEntity
  8
0
  6
Continuous
 62
     7
100
AcDbSpline
210
0.0
220
0.0
230
1.0
 70
     8
 71
     3
 72
    54
 73
    50
 74
    48
 42
0.0000000001
 43
0.0000000001
 44
0.0000000001
 12
-0.0000299534705891
 22
0.9999999995513949
 32
0.0
 13
-0.9999999924633062
 23
-0.0001227737255171
 33
0.0
 40
0.0
 40
0.0
 40
0.0
 40
0.0
 40
0.3134888468489835
 40
0.5973472896030618
 40
0.853530056955198
 40
1.084237719453214
 40
1.293182493707015
 40
1.492017625254468
 40
1.693410449485861
 40
1.897297338439653
 40
2.100284861534551
 40
2.302716052406605
 40
2.505167305478066
 40
2.706416109100662
 40
2.905382768452137
 40
3.101736803635818
 40
3.296016561335387
 40
3.489741341850924
 40
3.683464701650822
 40
3.876745168126257
 40
4.069956642648953
 40
4.263603176580627
 40
4.456933001106596
 40
4.649369801737856
 40
4.846219773103744
 40
5.055436141208494
 40
5.284950193807548
 40
5.542754686092149
 40
5.836918436378946
 40
6.173612365100245
 40
6.53968848491065
 40
6.911007669566486
 40
7.281953905950218
 40
7.658351294317122
 40
8.038341044741034
 40
8.416501464642431
 40
8.791869123882163
 40
9.16534295359099
 40
9.538517448173868
 40
9.912282745495122
 40
10.28469789747274
 40
10.65808995365611
 40
11.04605087637066
 40
11.46389403599063
 40
11.92639565301609
 40
12.44077047586502
 40
13.00939140188233
 40
13.63449179153646
 40
14.31842760009694
 40
14.31842760009694
 40
14.31842760009694
 40
14.31842760009694
 10
32.04897400232543
 20
19.54274597200367
 30
0.0
 10
32.04897087229911
 20
19.64724225423979
 30
0.0
 10
32.0420852045845
 20
19.84642874135438
 30
0.0
 10
32.01366507008984
 20
20.12968711813818
 30
0.0
 10
31.97298702275506
 20
20.38350112800142
 30
0.0
 10
31.92409758539929
 20
20.61033644819907
 30
0.0
 10
31.86918799939878
 20
20.81603921658215
 30
0.0
 10
31.80791660162123
 20
21.00970260933146
 30
0.0
 10
31.7385131307131
 20
21.19881153856492
 30
0.0
 10
31.65982314170333
 20
21.38575814395888
 30
0.0
 10
31.57213305552155
 20
21.56903798398237
 30
0.0
 10
31.47633206077124
 20
21.74766037845446
 30
0.0
 10
31.37307568262987
 20
21.92139862792524
 30
0.0
 10
31.26325445695899
 20
22.08967886048954
 30
0.0
 10
31.14798260810323
 20
22.25177861172964
 30
0.0
 10
31.02816117781863
 20
22.40761160887441
 30
0.0
 10
30.90451440209545
 20
22.55815765024297
 30
0.0
 10
30.77737758384812
 20
22.70459844192896
 30
0.0
 10
30.64718862555022
 20
22.84787250727607
 30
0.0
 10
30.51465469215906
 20
22.98873860263668
 30
0.0
 10
30.38003057009041
 20
23.1275728478882
 30
0.0
 10
30.24317149514828
 20
23.26422911750343
 30
0.0
 10
30.10427651606691
 20
23.39844455060068
 30
0.0
 10
29.9623601506262
 20
23.53103103090105
 30
0.0
 10
29.81422100469922
 20
23.66467112208644
 30
0.0
 10
29.65427912736605
 20
23.80362793275817
 30
0.0
 10
29.47587195416761
 20
23.95224251875134
 30
0.0
 10
29.27179831715953
 20
24.11418680355496
 30
0.0
 10
29.03468722530196
 20
24.29181279939407
 30
0.0
 10
28.76245525989398
 20
24.48250415468713
 30
0.0
 10
28.46204136555726
 20
24.67742935021868
 30
0.0
 10
28.14475853349597
 20
24.86686734782597
 30
0.0
 10
27.81755571317412
 20
25.04589459538293
 30
0.0
 10
27.48112398162068
 20
25.21349618890374
 30
0.0
 10
27.13666201597703
 20
25.36978040658224
 30
0.0
 10
26.78763205586926
 20
25.51464275289149
 30
0.0
 10
26.43662357694508
 20
25.64863102177204
 30
0.0
 10
26.08396797744724
 20
25.77328241624137
 30
0.0
 10
25.72923150174755
 20
25.89017506336335
 30
0.0
 10
25.37234497356159
 20
25.99913573414112
 30
0.0
 10
25.0130413214411
 20
26.10010984321114
 30
0.0
 10
24.6469448004343
 20
26.19404697946259
 30
0.0
 10
24.26395962923129
 20
26.28266677144396
 30
0.0
 10
23.84972590300481
 20
26.36743429407656
 30
0.0
 10
23.39175747607832
 20
26.44784606566433
 30
0.0
 10
22.88171354382998
 20
26.52097659789986
 30
0.0
 10
22.31548113166848
 20
26.58189428136714
 30
0.0
 10
21.69086049101764
 20
26.62424939978101
 30
0.0
 10
21.25444450516072
 20
26.63451977088609
 30
0.0
 10
21.02646590402543
 20
26.63449178110368
 30
0.0
 11
32.04897400232543
 21
19.54274597200367
 31
0.0
 11
32.03816204862543
 21
19.85604831600367
 31
0.0
 11
32.00983705942543
 21
20.13849001000368
 31
0.0
 11
31.96928595272543
 21
20.39144300570368
 31
0.0
 11
31.92066305292543
 21
20.61696870080368
 31
0.0
 11
31.86675740572543
 21
20.81884019430368
 31
0.0
 11
31.80676095142543
 21
21.00840768890368
 31
0.0
 11
31.73735025912543
 21
21.19746118780367
 31
0.0
 11
31.65822017522543
 21
21.38536619920368
 31
0.0
 11
31.57066233812543
 21
21.56849882790368
 31
0.0
 11
31.47504458162543
 21
21.74692425120368
 31
0.0
 11
31.37166548072543
 21
21.92099111010368
 31
0.0
 11
31.26172550922543
 21
22.08955647910368
 31
0.0
 11
31.14647634862543
 21
22.25174575900368
 31
0.0
 11
31.02691360512543
 21
22.40750087930368
 31
0.0
 11
30.90372027092543
 21
22.55772746370368
 31
0.0
 11
30.77683176372543
 21
22.70411256310368
 31
0.0
 11
30.64667818392543
 21
22.84760049220368
 31
0.0
 11
30.51428776052543
 21
22.98841993160368
 31
0.0
 11
30.37976171452543
 21
23.12710452640368
 31
0.0
 11
30.24272573642543
 21
23.26392601890368
 31
0.0
 11
30.10368769322543
 21
23.39825711580368
 31
0.0
 11
29.96306112842543
 21
23.52961955910368
 31
0.0
 11
29.81688768552543
 21
23.66146505890368
 31
0.0
 11
29.65893918442543
 21
23.79866476620368
 31
0.0
 11
29.48257751672543
 21
23.94554315980368
 31
0.0
 11
29.28060894362543
 21
24.10576753910368
 31
0.0
 11
29.04517758832543
 21
24.28213190320368
 31
0.0
 11
28.76941036762543
 21
24.47530343740368
 31
0.0
 11
28.46231264262543
 21
24.67455883330368
 31
0.0
 11
28.14349518262543
 21
24.86490946790368
 31
0.0
 11
27.81805704982543
 21
25.04292950050368
 31
0.0
 11
27.48122576032543
 21
25.21091663210368
 31
0.0
 11
27.13528656742543
 21
25.36813713090368
 31
0.0
 11
26.78610108312543
 21
25.51330875600368
 31
0.0
 11
26.43549710712543
 21
25.64738981960367
 31
0.0
 11
26.08344296792543
 21
25.77205170050368
 31
0.0
 11
25.72900461522543
 21
25.88881067250368
 31
0.0
 11
25.37152189912543
 21
25.99792806420368
 31
0.0
 11
25.01298790742543
 21
26.09865751480368
 31
0.0
 11
24.65130439362543
 21
26.19142961980367
 31
0.0
 11
24.27332515582544
 21
26.27886744540368
 31
0.0
 11
23.86396352212543
 21
26.36262876640368
 31
0.0
 11
23.40842689662543
 21
26.44259206160368
 31
0.0
 11
22.89925426552543
 21
26.51556253590368
 31
0.0
 11
22.33388971072543
 21
26.57632994230368
 31
0.0
 11
21.71021544572543
 21
26.61853075180367
 31
0.0
 11
21.02646590402543
 21
26.63449178110368
 31
0.0
  0
SPLINE
  5
5FA
330
58F
100
AcDbEntity
  8
0
  6
Continuous
 62
     7
100
AcDbSpline
210
0.0
220
0.0
230
1.0
 70
     8
 71
     3
 72
    54
 73
    50
 74
    48
 42
0.0000000001
 43
0.0000000001
 44
0.0000000001
 12
0.0000299534705891
 22
0.9999999995513949
 32
0.0
 13
0.9999999924633062
 23
-0.0001227737255171
 33
0.0
 40
0.0
 40
0.0
 40
0.0
 40
0.0
 40
0.3134888468489835
 40
0.5973472896030616
 40
0.8535300569551976
 40
1.084237719453214
 40
1.293182493707015
 40
1.492017625254468
 40
1.693410449485862
 40
1.897297338439653
 40
2.100284861534552
 40
2.302716052406605
 40
2.505167305478066
 40
2.706416109100663
 40
2.905382768452138
 40
3.101736803635818
 40
3.296016561335387
 40
3.489741341850923
 40
3.683464701650823
 40
3.876745168126257
 40
4.069956642648953
 40
4.263603176580628
 40
4.456933001034681
 40
4.649369801739016
 40
4.846219773104904
 40
5.055436141209655
 40
5.284950193808709
 40
5.542754686093309
 40
5.836918436380105
 40
6.173612365101404
 40
6.539688484911811
 40
6.911007669567645
 40
7.281953905951378
 40
7.658351294318284
 40
8.038341044742193
 40
8.416501464643589
 40
8.791869123883319
 40
9.16534295359215
 40
9.538517448175026
 40
9.91228274549628
 40
10.2846978974739
 40
10.65808995365727
 40
11.04605087637182
 40
11.46389403589382
 40
11.92639565301778
 40
12.4407704758667
 40
13.00939140188402
 40
13.63449179153815
 40
14.31842759999865
 40
14.31842759999865
 40
14.31842759999865
 40
14.31842759999865
 10
10.00395780582543
 20
19.54274597200367
 30
0.0
 10
10.00396093585175
 20
19.64724225423979
 30
0.0
 10
10.01084660356637
 20
19.84642874135438
 30
0.0
 10
10.03926673806101
 20
20.12968711813818
 30
0.0
 10
10.07994478539581
 20
20.38350112800142
 30
0.0
 10
10.12883422275157
 20
20.61033644819907
 30
0.0
 10
10.18374380875208
 20
20.81603921658215
 30
0.0
 10
10.24501520652963
 20
21.00970260933146
 30
0.0
 10
10.31441867743776
 20
21.19881153856493
 30
0.0
 10
10.39310866644753
 20
21.38575814395888
 30
0.0
 10
10.48079875262931
 20
21.56903798398237
 30
0.0
 10
10.57659974737962
 20
21.74766037845446
 30
0.0
 10
10.67985612552099
 20
21.92139862792525
 30
0.0
 10
10.78967735119187
 20
22.08967886048953
 30
0.0
 10
10.90494920004763
 20
22.25177861172964
 30
0.0
 10
11.02477063033224
 20
22.40761160887439
 30
0.0
 10
11.14841740605538
 20
22.55815765024301
 30
0.0
 10
11.27555422430285
 20
22.70459844192884
 30
0.0
 10
11.40574318260021
 20
22.84787250727651
 30
0.0
 10
11.53827711599338
 20
22.98873860263503
 30
0.0
 10
11.67290123805452
 20
23.12757284789438
 30
0.0
 10
11.8097603130078
 20
23.26422911746336
 30
0.0
 10
11.94865529198435
 20
23.39844455067044
 30
0.0
 10
12.09057165752892
 20
23.53103103086097
 30
0.0
 10
12.23871080344519
 20
23.66467112209329
 30
0.0
 10
12.39865268078676
 20
23.80362793275609
 30
0.0
 10
12.57705985398263
 20
23.952242518752
 30
0.0
 10
12.78113349099153
 20
24.11418680355474
 30
0.0
 10
13.01824458284883
 20
24.29181279939414
 30
0.0
 10
13.2904765482569
 20
24.48250415468712
 30
0.0
 10
13.5908904425936
 20
24.67742935021868
 30
0.0
 10
13.90817327465488
 20
24.86686734782598
 30
0.0
 10
14.23537609497675
 20
25.04589459538293
 30
0.0
 10
14.57180782653018
 20
25.21349618890374
 30
0.0
 10
14.91626979217383
 20
25.36978040658225
 30
0.0
 10
15.26529975228159
 20
25.51464275289149
 30
0.0
 10
15.61630823120579
 20
25.64863102177205
 30
0.0
 10
15.96896383070362
 20
25.77328241624137
 30
0.0
 10
16.32370030640332
 20
25.89017506336331
 30
0.0
 10
16.68058683458924
 20
25.99913573414126
 30
0.0
 10
17.03989048670986
 20
26.10010984321065
 30
0.0
 10
17.40598700771618
 20
26.19404697946448
 30
0.0
 10
17.78897217888926
 20
26.28266677142907
 30
0.0
 10
18.20320590510776
 20
26.3674342941024
 30
0.0
 10
18.66117433204188
 20
26.44784606564966
 30
0.0
 10
19.1712182643203
 20
26.52097659790295
 30
0.0
 10
19.73745067648256
 20
26.58189428136632
 30
0.0
 10
20.36207131709991
 20
26.62424939977841
 30
0.0
 10
20.79848730292347
 20
26.63451977088608
 30
0.0
 10
21.02646590402543
 20
26.63449178110368
 30
0.0
 11
10.00395780582543
 21
19.54274597200367
 31
0.0
 11
10.01476975952543
 21
19.85604831600367
 31
0.0
 11
10.04309474872543
 21
20.13849001000368
 31
0.0
 11
10.08364585542543
 21
20.39144300570368
 31
0.0
 11
10.13226875522543
 21
20.61696870080368
 31
0.0
 11
10.18617440242543
 21
20.81884019430368
 31
0.0
 11
10.24617085672543
 21
21.00840768890368
 31
0.0
 11
10.31558154902543
 21
21.19746118780367
 31
0.0
 11
10.39471163292543
 21
21.38536619920368
 31
0.0
 11
10.48226947002543
 21
21.56849882790368
 31
0.0
 11
10.57788722652543
 21
21.74692425120368
 31
0.0
 11
10.68126632742543
 21
21.92099111010368
 31
0.0
 11
10.79120629892543
 21
22.08955647910368
 31
0.0
 11
10.90645545952543
 21
22.25174575900368
 31
0.0
 11
11.02601820302543
 21
22.40750087930368
 31
0.0
 11
11.14921153722543
 21
22.55772746370368
 31
0.0
 11
11.27610004442543
 21
22.70411256310368
 31
0.0
 11
11.40625362422543
 21
22.84760049220368
 31
0.0
 11
11.53864404762543
 21
22.98841993160368
 31
0.0
 11
11.67317009362543
 21
23.12710452640368
 31
0.0
 11
11.81020607172543
 21
23.26392601890368
 31
0.0
 11
11.94924411482543
 21
23.39825711580368
 31
0.0
 11
12.08987067972543
 21
23.52961955910368
 31
0.0
 11
12.23604412262543
 21
23.66146505890368
 31
0.0
 11
12.39399262372543
 21
23.79866476620368
 31
0.0
 11
12.57035429142543
 21
23.94554315980368
 31
0.0
 11
12.77232286452543
 21
24.10576753910368
 31
0.0
 11
13.00775421982543
 21
24.28213190320368
 31
0.0
 11
13.28352144052543
 21
24.47530343740368
 31
0.0
 11
13.59061916552543
 21
24.67455883330368
 31
0.0
 11
13.90943662552543
 21
24.86490946790368
 31
0.0
 11
14.23487475832543
 21
25.04292950050368
 31
0.0
 11
14.57170604782543
 21
25.21091663210368
 31
0.0
 11
14.91764524072543
 21
25.36813713090368
 31
0.0
 11
15.26683072502543
 21
25.51330875600368
 31
0.0
 11
15.61743470102543
 21
25.64738981960367
 31
0.0
 11
15.96948884022543
 21
25.77205170050368
 31
0.0
 11
16.32392719292543
 21
25.88881067250368
 31
0.0
 11
16.68140990902543
 21
25.99792806420368
 31
0.0
 11
17.03994390072543
 21
26.09865751480368
 31
0.0
 11
17.40162741452543
 21
26.19142961980367
 31
0.0
 11
17.77960665232543
 21
26.27886744540368
 31
0.0
 11
18.18896828592543
 21
26.36262876640368
 31
0.0
 11
18.64450491152543
 21
26.44259206160368
 31
0.0
 11
19.15367754262543
 21
26.51556253590368
 31
0.0
 11
19.71904209742543
 21
26.57632994230368
 31
0.0
 11
20.34271636242543
 21
26.61853075180367
 31
0.0
 11
21.02646590402543
 21
26.63449178110368
 31
0.0
  0
SPLINE
  5
5FB
330
58F
100
AcDbEntity
  8
DATUM_AXIS
  6
Continuous
 62
     7
100
AcDbSpline
210
0.0
220
0.0
230
1.0
 70
     8
 71
     3
 72
    13
 73
     9
 74
     7
 42
0.0000000001
 43
0.0000000001
 44
0.0000000001
 12
0.0
 22
-1.0
 32
0.0
 13
-0.999999994905078
 23
-0.0001009447572973
 33
0.0
 40
0.0
 40
0.0
 40
0.0
 40
0.0
 40
0.027529922777314
 40
0.0668818996473041
 40
0.1209619163722033
 40
0.1867951827361888
 40
0.2608346579259637
 40
0.3400315273194334
 40
0.3400315273194334
 40
0.3400315273194334
 40
0.3400315273194334
 10
21.33748952612543
 20
26.12815687630368
 30
0.0
 10
21.33748952612543
 20
26.1189802353779
 30
0.0
 10
21.3248829912986
 20
26.09771962311108
 30
0.0
 10
21.28991812746571
 20
26.07714227385046
 30
0.0
 10
21.23987498406851
 20
26.05871364009931
 30
0.0
 10
21.17654625279422
 20
26.04503225366513
 30
0.0
 10
21.1039717465593
 20
26.03627343362742
 30
0.0
 10
21.05286486035542
 20
26.03431486933993
 30
0.0
 10
21.02646590402543
 20
26.03431220450368
 30
0.0
 11
21.33748952612543
 21
26.12815687630368
 31
0.0
 11
21.32597170902543
 21
26.10315214600368
 31
0.0
 11
21.29375842622543
 21
26.08054943610368
 31
0.0
 11
21.24326791862543
 21
26.06117530770367
 31
0.0
 11
21.17907794802543
 21
26.04655796750368
 31
0.0
 11
21.10560048172543
 21
26.03745270350368
 31
0.0
 11
21.02646590402543
 21
26.03431220450368
 31
0.0
  0
SPLINE
  5
5FC
330
58F
100
AcDbEntity
  8
DATUM_AXIS
  6
Continuous
 62
     7
100
AcDbSpline
210
0.0
220
0.0
230
1.0
 70
     8
 71
     3
 72
    18
 73
    14
 74
    12
 42
0.0000000001
 43
0.0000000001
 44
0.0000000001
 12
0.0
 22
-1.0
 32
0.0
 13
0.0
 23
1.0
 33
0.0
 40
0.0
 40
0.0
 40
0.0
 40
0.0
 40
0.0297128649334421
 40
0.072954008479987
 40
0.1327156138934132
 40
0.2050440761501358
 40
0.286655322161784
 40
0.3731148042704153
 40
0.4587029602200708
 40
0.5376039893552519
 40
0.6030260103913192
 40
0.6509793511755438
 40
0.6821495382418359
 40
0.6821495382418359
 40
0.6821495382418359
 40
0.6821495382418359
 10
22.32174149462543
 20
26.06834397850368
 30
0.0
 10
22.32174149462543
 20
26.05843969019253
 30
0.0
 10
22.30659032171072
 20
26.03553362398333
 30
0.0
 10
22.26604359459079
 20
26.01696935967455
 30
0.0
 10
22.20929603318992
 20
26.0020886869569
 30
0.0
 10
22.13831548505821
 20
25.99419584515177
 30
0.0
 10
22.05810338454834
 20
25.99292593657402
 30
0.0
 10
21.97365385601806
 20
25.99889067292441
 30
0.0
 10
21.89090570272833
 20
26.01185736439467
 30
0.0
 10
21.81648624526965
 20
26.03063827847059
 30
0.0
 10
21.75664237200914
 20
26.05460945101768
 30
0.0
 10
21.71544856496502
 20
26.07948170097167
 30
0.0
 10
21.69969425052543
 20
26.10415046324825
 30
0.0
 10
21.69969425052543
 20
26.11454052560368
 30
0.0
 11
22.32174149462543
 21
26.06834397850368
 31
0.0
 11
22.30821594152543
 21
26.04188809530368
 31
0.0
 11
22.27076150422543
 21
26.02027880050368
 31
0.0
 11
22.21313388172543
 21
26.00445140000367
 31
0.0
 11
22.14134730552543
 21
25.99561432300368
 31
0.0
 11
22.05975024512543
 21
25.99409274170368
 31
0.0
 11
21.97350211922543
 21
26.00013449850368
 31
0.0
 11
21.88897026742543
 21
26.01353966430368
 31
0.0
 11
21.81266024282543
 21
26.03359340570368
 31
0.0
 11
21.75219642092543
 21
26.05857674170368
 31
0.0
 11
21.71316138642543
 21
26.08642973030367
 31
0.0
 11
21.69969425052543
 21
26.11454052560368
 31
0.0
  0
SPLINE
  5
5FD
330
58F
100
AcDbEntity
  8
DATUM_AXIS
  6
Continuous
 62
     7
100
AcDbSpline
210
0.0
220
0.0
230
1.0
 70
     8
 71
     3
 72
    12
 73
     8
 74
     6
 42
0.0000000001
 43
0.0000000001
 44
0.0000000001
 12
-0.9999999949050746
 22
0.0001009447901551
 32
0.0
 13
0.0
 23
1.0
 33
0.0
 40
0.0
 40
0.0
 40
0.0
 40
0.0
 40
0.0946701186529853
 40
0.1814370754286924
 40
0.253402692328197
 40
0.3060753225391618
 40
0.3396153476173282
 40
0.3396153476173282
 40
0.3396153476173282
 40
0.3396153476173282
 10
21.02646590402543
 20
26.03431220450368
 30
0.0
 10
20.99490919796854
 20
26.03431538998877
 30
0.0
 10
20.9343911124554
 20
26.03715919019119
 30
0.0
 10
20.85063065710177
 20
26.04905087822287
 30
0.0
 10
20.78250325415174
 20
26.06869162626047
 30
0.0
 10
20.73479427050147
 20
26.09073866281984
 30
0.0
 10
20.71544228202543
 20
26.11697686794429
 30
0.0
 10
20.71544228202543
 20
26.12815687630368
 30
0.0
 11
21.02646590402543
 21
26.03431220450368
 31
0.0
 11
20.93190349792543
 21
26.03882692690368
 31
0.0
 11
20.84613103562543
 21
26.05192614440368
 31
0.0
 11
20.77714373522543
 21
26.07241522440368
 31
0.0
 11
20.73150625562543
 21
26.09871401580368
 31
0.0
 11
20.71544228202543
 21
26.12815687630368
 31
0.0
  0
SPLINE
  5
5FE
330
58F
100
AcDbEntity
  8
DATUM_AXIS
  6
Continuous
 62
     7
100
AcDbSpline
210
0.0
220
0.0
230
1.0
 70
     8
 71
     3
 72
    18
 73
    14
 74
    12
 42
0.0000000001
 43
0.0000000001
 44
0.0000000001
 12
0.0
 22
-1.0
 32
0.0
 13
0.0
 23
1.0
 33
0.0
 40
0.0
 40
0.0
 40
0.0
 40
0.0
 40
0.0316904450997945
 40
0.0796082310467458
 40
0.1456883790814339
 40
0.2245313439993593
 40
0.3101639144602576
 40
0.3968190524582711
 40
0.4782079236107287
 40
0.5506697852075922
 40
0.6097238165026365
 40
0.6529579017052627
 40
0.6821555574585129
 40
0.6821555574585129
 40
0.6821555574585129
 40
0.6821555574585129
 10
20.35323755762543
 20
26.11454052560368
 30
0.0
 10
20.35323755762543
 20
26.10397704390374
 30
0.0
 10
20.33716814083931
 20
26.07922517407161
 30
0.0
 10
20.29565071959398
 20
26.0542820585245
 30
0.0
 10
20.23555338601015
 20
26.03035586624831
 30
0.0
 10
20.16091043491067
 20
26.0116344039391
 30
0.0
 10
20.07808439951358
 20
25.99875406221334
 30
0.0
 10
19.99362078570237
 20
25.99289054530637
 30
0.0
 10
19.91337911115639
 20
25.99427079408112
 30
0.0
 10
19.84266151945707
 20
26.00226166002713
 30
0.0
 10
19.78617184181066
 20
26.01723227819427
 30
0.0
 10
19.74599046153988
 20
26.03579422573641
 30
0.0
 10
19.73119031352543
 20
26.05861142658593
 30
0.0
 10
19.73119031352543
 20
26.06834397850368
 30
0.0
 11
20.35323755762543
 21
26.11454052560368
 31
0.0
 11
20.33939517032543
 21
26.08603311210368
 31
0.0
 11
20.30028938572543
 21
26.05834102260367
 31
0.0
 11
20.23916592792543
 21
26.03323108690368
 31
0.0
 11
20.16287954872543
 21
26.01331623150368
 31
0.0
 11
20.07828778132543
 21
26.00000570890367
 31
0.0
 11
19.99183699032543
 21
25.99405813150368
 31
0.0
 11
19.91046449902543
 21
25.99569092270368
 31
0.0
 11
19.83856319722543
 21
26.00468670980367
 31
0.0
 11
19.78166015462543
 21
26.02047982080368
 31
0.0
 11
19.74431419912543
 21
26.04226205510368
 31
0.0
 11
19.73119031352543
 21
26.06834397850368
 31
0.0
  0
SPLINE
  5
5FF
330
58F
100
AcDbEntity
  8
0
  6
Continuous
 62
     7
100
AcDbSpline
210
0.0
220
0.0
230
1.0
 70
     8
 71
     3
 72
    54
 73
    50
 74
    48
 42
0.0000000001
 43
0.0000000001
 44
0.0000000001
 12
0.0000450758363997
 22
-0.9999999989840844
 32
0.0
 13
-0.9999999924633062
 23
0.0001227737255171
 33
0.0
 40
0.0
 40
0.0
 40
0.0
 40
0.0
 40
0.3134888468489816
 40
0.59734728960306
 40
0.8535300569551962
 40
1.084237719453212
 40
1.293182493707013
 40
1.492017625254466
 40
1.693410449485861
 40
1.897297338439651
 40
2.10028486153455
 40
2.302716052406604
 40
2.505167305478065
 40
2.706416109100661
 40
2.905382768452136
 40
3.101736803635818
 40
3.296016561335386
 40
3.489741341850921
 40
3.683464701650821
 40
3.876745168126255
 40
4.069956642648951
 40
4.263603176580625
 40
4.456933001106595
 40
4.649369801737853
 40
4.846219773103742
 40
5.05543614127407
 40
5.284950193809129
 40
5.542754686093729
 40
5.836918436380526
 40
6.173612365101827
 40
6.53968848491223
 40
6.911007669568067
 40
7.281953905951797
 40
7.658351294318703
 40
8.038341044742614
 40
8.416501464682399
 40
8.791869123922131
 40
9.165342953597578
 40
9.538517448180458
 40
9.912282745501711
 40
10.28469789747933
 40
10.6580899536627
 40
11.04605087637725
 40
11.46389403599722
 40
11.92639565302268
 40
12.44077047587161
 40
13.00939140188892
 40
13.63449179154305
 40
14.31842760010353
 40
14.31842760010353
 40
14.31842760010353
 40
14.31842760010353
 10
32.04897400232543
 20
19.54274597200367
 30
0.0
 10
32.04897871258275
 20
19.43824968982684
 30
0.0
 10
32.04208190860504
 20
19.23906320262805
 30
0.0
 10
32.0136658273085
 20
18.95580482587489
 30
0.0
 10
31.97298684952571
 20
18.70199081600462
 30
0.0
 10
31.92409762516542
 20
18.47515549580858
 30
0.0
 10
31.8691879897475
 20
18.26945272742512
 30
0.0
 10
31.80791660418821
 20
18.0757893346759
 30
0.0
 10
31.73851313001192
 20
17.88668040544242
 30
0.0
 10
31.65982314189128
 20
17.69973380004847
 30
0.0
 10
31.57213305547144
 20
17.51645396002498
 30
0.0
 10
31.47633206078465
 20
17.33783156555289
 30
0.0
 10
31.3730756826263
 20
17.16409331608211
 30
0.0
 10
31.26325445695993
 20
16.99581308351782
 30
0.0
 10
31.14798260810298
 20
16.83371333227771
 30
0.0
 10
31.0281611778187
 20
16.67788033513295
 30
0.0
 10
30.90451440209543
 20
16.52733429376437
 30
0.0
 10
30.77737758384813
 20
16.38089350207839
 30
0.0
 10
30.64718862555021
 20
16.2376194367313
 30
0.0
 10
30.5146546921591
 20
16.09675334137063
 30
0.0
 10
30.3800305700903
 20
15.95791909611928
 30
0.0
 10
30.24317149514867
 20
15.82126282650348
 30
0.0
 10
30.1042765160655
 20
15.68704739340829
 30
0.0
 10
29.96236015063147
 20
15.55446091310019
 30
0.0
 10
29.81422100466227
 20
15.42082082193031
 30
0.0
 10
29.6542791274351
 20
15.28186401113476
 30
0.0
 10
29.47587195412414
 20
15.13324942527457
 30
0.0
 10
29.27179831716819
 20
14.97130514044209
 30
0.0
 10
29.03468722529912
 20
14.79367914461666
 30
0.0
 10
28.76245525989489
 20
14.60298778931913
 30
0.0
 10
28.46204136555694
 20
14.40806259378912
 30
0.0
 10
28.14475853349627
 20
14.21862459618075
 30
0.0
 10
27.81755571317324
 20
14.03959734862648
 30
0.0
 10
27.48112398162395
 20
13.87199575509586
 30
0.0
 10
27.13666201595311
 20
13.71571153744896
 30
0.0
 10
26.78763205589091
 20
13.57084919099846
 30
0.0
 10
26.43662357696368
 20
13.43686092211468
 30
0.0
 10
26.08396797742611
 20
13.31220952779272
 30
0.0
 10
25.72923150175038
 20
13.19531688063589
 30
0.0
 10
25.37234497356083
 20
13.0863562098684
 30
0.0
 10
25.0130413214413
 20
12.98538210079564
 30
0.0
 10
24.64694480043425
 20
12.89144496454492
 30
0.0
 10
24.26395962923129
 20
12.80282517256334
 30
0.0
 10
23.84972590300481
 20
12.71805764993081
 30
0.0
 10
23.39175747607831
 20
12.63764587834302
 30
0.0
 10
22.88171354382999
 20
12.56451534610749
 30
0.0
 10
22.31548113166847
 20
12.50359766264022
 30
0.0
 10
21.69086049101764
 20
12.46124254422634
 30
0.0
 10
21.25444450516072
 20
12.45097217312126
 30
0.0
 10
21.02646590402543
 20
12.45100016290368
 30
0.0
 11
32.04897400232543
 21
19.54274597200367
 31
0.0
 11
32.03816204862543
 21
19.22944362800368
 31
0.0
 11
32.00983705942543
 21
18.94700193400367
 31
0.0
 11
31.96928595272543
 21
18.69404893830368
 31
0.0
 11
31.92066305292543
 21
18.46852324320368
 31
0.0
 11
31.86675740572543
 21
18.26665174970367
 31
0.0
 11
31.80676095142543
 21
18.07708425510368
 31
0.0
 11
31.73735025912543
 21
17.88803075620367
 31
0.0
 11
31.65822017522543
 21
17.70012574480368
 31
0.0
 11
31.57066233812543
 21
17.51699311610368
 31
0.0
 11
31.47504458162543
 21
17.33856769280368
 31
0.0
 11
31.37166548072543
 21
17.16450083390367
 31
0.0
 11
31.26172550922543
 21
16.99593546490367
 31
0.0
 11
31.14647634862543
 21
16.83374618500367
 31
0.0
 11
31.02691360512543
 21
16.67799106470367
 31
0.0
 11
30.90372027092543
 21
16.52776448030367
 31
0.0
 11
30.77683176372543
 21
16.38137938090368
 31
0.0
 11
30.64667818392543
 21
16.23789145180367
 31
0.0
 11
30.51428776052543
 21
16.09707201240368
 31
0.0
 11
30.37976171452543
 21
15.95838741760368
 31
0.0
 11
30.24272573642543
 21
15.82156592510368
 31
0.0
 11
30.10368769322543
 21
15.68723482820367
 31
0.0
 11
29.96306112842543
 21
15.55587238490367
 31
0.0
 11
29.81688768552543
 21
15.42402688510368
 31
0.0
 11
29.65893918442543
 21
15.28682717770367
 31
0.0
 11
29.48257751672543
 21
15.13994878420368
 31
0.0
 11
29.28060894362543
 21
14.97972440490368
 31
0.0
 11
29.04517758832543
 21
14.80336004080367
 31
0.0
 11
28.76941036762543
 21
14.61018850660368
 31
0.0
 11
28.46231264262543
 21
14.41093311070368
 31
0.0
 11
28.14349518262543
 21
14.22058247610367
 31
0.0
 11
27.81805704982543
 21
14.04256244350367
 31
0.0
 11
27.48122576032543
 21
13.87457531190367
 31
0.0
 11
27.13528656742543
 21
13.71735481310367
 31
0.0
 11
26.78610108312543
 21
13.57218318790367
 31
0.0
 11
26.43549710712543
 21
13.43810212430367
 31
0.0
 11
26.08344296792543
 21
13.31344024350368
 31
0.0
 11
25.72900461522543
 21
13.19668127150367
 31
0.0
 11
25.37152189912543
 21
13.08756387980367
 31
0.0
 11
25.01298790742543
 21
12.98683442920367
 31
0.0
 11
24.65130439362543
 21
12.89406232420368
 31
0.0
 11
24.27332515582544
 21
12.80662449860368
 31
0.0
 11
23.86396352212543
 21
12.72286317760367
 31
0.0
 11
23.40842689662543
 21
12.64289988240367
 31
0.0
 11
22.89925426552543
 21
12.56992940810367
 31
0.0
 11
22.33388971072543
 21
12.50916200170367
 31
0.0
 11
21.71021544572543
 21
12.46696119220368
 31
0.0
 11
21.02646590402543
 21
12.45100016290368
 31
0.0
  0
SPLINE
  5
600
330
58F
100
AcDbEntity
  8
0
  6
Continuous
 62
     7
100
AcDbSpline
210
0.0
220
0.0
230
1.0
 70
     8
 71
     3
 72
    29
 73
    25
 74
    23
 42
0.0000000001
 43
0.0000000001
 44
0.0000000001
 12
0.1678516250679311
 22
-0.9858122701417622
 32
0.0
 13
0.2680622552373994
 23
-0.9634015919215825
 33
0.0
 40
0.0
 40
0.0
 40
0.0
 40
0.0
 40
0.0338030288900181
 40
0.0650811634427911
 40
0.0941510061991078
 40
0.1213318412750517
 40
0.1469398139129841
 40
0.1712364943579047
 40
0.1943438185287787
 40
0.2162791427111776
 40
0.237072026949017
 40
0.2567535954044966
 40
0.2753548542991426
 40
0.2929069714033337
 40
0.3094417647945828
 40
0.3249872816779039
 40
0.3395351965611701
 40
0.3530109868882834
 40
0.3653731551007186
 40
0.3766858384436931
 40
0.3870191291802467
 40
0.3964395427164993
 40
0.4128089295768309
 40
0.4221064818971018
 40
0.4221064818971018
 40
0.4221064818971018
 40
0.4221064818971018
 10
1.536636510825429
 20
15.18548962578185
 30
0.0
 10
1.538527808602564
 20
15.1743818122326
 30
0.0
 10
1.542246702645538
 20
15.15300899166982
 30
0.0
 10
1.547847218603452
 20
15.1221288401607
 30
0.0
 10
1.553247446329745
 20
15.09345647140295
 30
0.0
 10
1.558469446496143
 20
15.06667442598012
 30
0.0
 10
1.563540889634682
 20
15.04148455293947
 30
0.0
 10
1.568484069204886
 20
15.0176543847187
 30
0.0
 10
1.573306245059669
 20
14.9950497851905
 30
0.0
 10
1.578001255876792
 20
14.97361261564729
 30
0.0
 10
1.582557859584028
 20
14.95331442100403
 30
0.0
 10
1.586966994093851
 20
14.93412239928078
 30
0.0
 10
1.591220868462407
 20
14.91600333432273
 30
0.0
 10
1.595312884782728
 20
14.89892391163294
 30
0.0
 10
1.599237327176266
 20
14.88285191636399
 30
0.0
 10
1.6029863727444
 20
14.86776805840244
 30
0.0
 10
1.606544324373533
 20
14.85368751633698
 30
0.0
 10
1.609889980202726
 20
14.84064789800472
 30
0.0
 10
1.613008287358301
 20
14.82866336851285
 30
0.0
 10
1.615897115413408
 20
14.81770157010025
 30
0.0
 10
1.618564835450293
 20
14.80769561402045
 30
0.0
 10
1.621697454267199
 20
14.79606920613472
 30
0.0
 10
1.62477930652215
 20
14.78478671621464
 30
0.0
 10
1.627062346644377
 20
14.77654129578396
 30
0.0
 10
1.627893120925431
 20
14.77355553688185
 30
0.0
 11
1.536636510825429
 21
15.18548962578185
 31
0.0
 11
1.542432100125429
 21
15.15218713478185
 31
0.0
 11
1.548014439825431
 21
15.12141118338185
 31
0.0
 11
1.553395484725431
 21
15.09284371738185
 31
0.0
 11
1.558597732125429
 21
15.06616536628185
 31
0.0
 11
1.56365230782543
 21
15.04106119278185
 31
0.0
 11
1.568587518225429
 21
15.01727101878185
 31
0.0
 11
1.57340872912543
 21
14.99467224988185
 31
0.0
 11
1.57810183582543
 21
14.97324485628185
 31
0.0
 11
1.58265634812543
 21
14.95295691768185
 31
0.0
 11
1.58706331992543
 21
14.93377508418185
 31
0.0
 11
1.591314946225431
 21
14.91566623258185
 31
0.0
 11
1.59540459632543
 21
14.89859720868185
 31
0.0
 11
1.59932690792543
 21
14.88253436758185
 31
0.0
 11
1.60307669412543
 21
14.86744787698185
 31
0.0
 11
1.60664078932543
 21
14.85334330138185
 31
0.0
 11
1.609989928325429
 21
14.84029032498185
 31
0.0
 11
1.61310288682543
 21
14.82832651738185
 31
0.0
 11
1.615985787225429
 21
14.81738733598185
 31
0.0
 11
1.618647815325429
 21
14.80740282278185
 31
0.0
 11
1.62109866462543
 21
14.79830680558185
 31
0.0
 11
1.625412091925429
 21
14.78251594838185
 31
0.0
 11
1.627893120925431
 21
14.77355553688185
 31
0.0
  0
SPLINE
  5
601
330
58F
100
AcDbEntity
  8
0
  6
Continuous
 62
     7
100
AcDbSpline
210
0.0
220
0.0
230
1.0
 70
     8
 71
     3
 72
    13
 73
     9
 74
     7
 42
0.0000000001
 43
0.0000000001
 44
0.0000000001
 12
0.2881558741857195
 22
-0.9575835170742362
 32
0.0
 13
0.924613214452348
 23
-0.3809073426177243
 33
0.0
 40
0.0
 40
0.0
 40
0.0
 40
0.0
 40
0.1779005354993765
 40
1.084250132678908
 40
1.951815186669354
 40
2.816009939976819
 40
4.530154517996713
 40
6.230335743597471
 40
6.230335743597471
 40
6.230335743597471
 40
6.230335743597471
 10
1.648925823425431
 20
14.70089635268185
 30
0.0
 10
1.666013518200408
 20
14.64411147919089
 30
0.0
 10
1.774326771538497
 20
14.29929957562858
 30
0.0
 10
2.015081176218782
 20
13.69282018120952
 30
0.0
 10
2.438069768655367
 20
12.91945878012398
 30
0.0
 10
3.107479684556995
 20
11.98311456839424
 30
0.0
 10
4.144376943322755
 20
10.98219052313178
 30
0.0
 10
5.145448018407346
 20
10.41195575968589
 30
0.0
 10
5.66945136112543
 20
10.19608525548185
 30
0.0
 11
1.648925823425431
 21
14.70089635268185
 31
0.0
 11
1.70224150192543
 21
14.53117293368185
 31
0.0
 11
2.03699409132543
 21
13.68890795388185
 31
0.0
 11
2.45335473712543
 21
12.92778185688185
 31
0.0
 11
2.956295039625429
 21
12.22501331478185
 31
0.0
 11
4.19151942612543
 21
11.03652168698185
 31
0.0
 11
5.66945136112543
 21
10.19608525548185
 31
0.0
  0
SPLINE
  5
602
330
58F
100
AcDbEntity
  8
0
  6
Continuous
 62
     7
100
AcDbSpline
210
0.0
220
0.0
230
1.0
 70
     8
 71
     3
 72
     9
 73
     5
 74
     3
 42
0.0000000001
 43
0.0000000001
 44
0.0000000001
 12
0.2378246988470985
 22
0.9713080935616087
 32
0.0
 13
0.984728075827155
 23
0.1740994447944888
 33
0.0
 40
0.0
 40
0.0
 40
0.0
 40
0.0
 40
5.987169038218596
 40
10.072226904335
 40
10.072226904335
 40
10.072226904335
 40
10.072226904335
 10
0.44785056612543
 20
18.41556300848185
 30
0.0
 10
0.9224827906124328
 20
20.35402492326292
 30
0.0
 10
2.926612500811643
 20
23.50417145573354
 30
0.0
 10
6.203827662510967
 20
24.69426783376711
 30
0.0
 10
7.54471805322543
 20
24.93133660258185
 30
0.0
 11
0.44785056612543
 21
18.41556300848185
 31
0.0
 11
3.754917869825431
 21
23.40650469728185
 31
0.0
 11
7.54471805322543
 21
24.93133660258185
 31
0.0
  0
LINE
  5
603
330
58F
100
AcDbEntity
  8
0
  6
Continuous
 62
     7
100
AcDbLine
 10
7.89887787332543
 20
24.98937561778185
 30
0.0
 11
7.91597271632543
 21
24.99195477138185
 31
0.0
  0
SPLINE
  5
604
330
58F
100
AcDbEntity
  8
0
  6
Continuous
 62
     7
100
AcDbSpline
210
0.0
220
0.0
230
1.0
 70
     8
 71
     3
 72
     9
 73
     5
 74
     3
 42
0.0000000001
 43
0.0000000001
 44
0.0000000001
 12
-0.9888930133512204
 22
-0.1486290958902158
 32
0.0
 13
-0.2378246988460133
 23
-0.9713080935618744
 33
0.0
 40
0.0
 40
0.0
 40
0.0
 40
0.0
 40
4.452867463964064
 40
10.44003650218266
 40
10.44003650218266
 40
10.44003650218266
 40
10.44003650218266
 10
7.915972634325429
 20
24.99195475908185
 30
0.0
 10
6.448169459494419
 20
24.77134620398587
 30
0.0
 10
2.997582793357315
 20
23.62406384352842
 30
0.0
 10
0.9224827906102675
 20
20.35402492326344
 30
0.0
 10
0.44785056612543
 20
18.41556300848185
 30
0.0
 11
7.915972634325429
 21
24.99195475908185
 31
0.0
 11
3.754917869825431
 21
23.40650469728185
 31
0.0
 11
0.44785056612543
 21
18.41556300848185
 31
0.0
  0
SPLINE
  5
605
330
58F
100
AcDbEntity
  8
0
  6
Continuous
 62
     7
100
AcDbSpline
210
0.0
220
0.0
230
1.0
 70
     8
 71
     3
 72
    12
 73
     8
 74
     6
 42
0.0000000001
 43
0.0000000001
 44
0.0000000001
 12
0.0002517077284188
 22
0.9999999683216092
 32
0.0
 13
0.0968242405887036
 23
0.9953014952437381
 33
0.0
 40
0.0
 40
0.0
 40
0.0
 40
0.0
 40
0.2893603021916084
 40
0.5862747284405823
 40
0.8839115329903888
 40
1.167597146338061
 40
1.424239939939727
 40
1.424239939939727
 40
1.424239939939727
 40
1.424239939939727
 10
1.49557902782543
 20
16.83549618488185
 30
0.0
 10
1.495603305900216
 20
16.93194961589023
 30
0.0
 10
1.496660659584073
 20
17.12738058062251
 30
0.0
 10
1.504233407894137
 20
17.42194566742783
 30
0.0
 10
1.518382146120909
 20
17.71437160853313
 30
0.0
 10
1.537255312016053
 20
17.99307032466166
 30
0.0
 10
1.552831962927747
 20
18.17251837351009
 30
0.0
 10
1.561115044125429
 20
18.25766402558185
 30
0.0
 11
1.49557902782543
 21
16.83549618488185
 31
0.0
 11
1.497613014525429
 21
17.12484933828185
 31
0.0
 11
1.50534568242543
 21
17.42166305488185
 31
0.0
 11
1.51958406322543
 21
17.71895909578185
 31
0.0
 11
1.53880354072543
 21
18.00199290808185
 31
0.0
 11
1.561115044125429
 21
18.25766402558185
 31
0.0
  0
SPLINE
  5
606
330
58F
100
AcDbEntity
  8
0
  6
Continuous
 62
     7
100
AcDbSpline
210
0.0
220
0.0
230
1.0
 70
     8
 71
     3
 72
    19
 73
    15
 74
    13
 42
0.0000000001
 43
0.0000000001
 44
0.0000000001
 12
0.1621788650432265
 22
0.9867613773011644
 32
0.0
 13
0.9223454338561465
 23
0.3863662778306578
 33
0.0
 40
0.0
 40
0.0
 40
0.0
 40
0.0
 40
0.4095862783675107
 40
0.8753583779173542
 40
1.38181645207731
 40
1.881186709606318
 40
2.353039260697581
 40
2.816997513952872
 40
3.306852748272269
 40
3.852620079520539
 40
4.456562238937621
 40
5.129315367549178
 40
5.886013974659634
 40
6.741932187130032
 40
6.741932187130032
 40
6.741932187130032
 40
6.741932187130032
 10
1.561022852625431
 20
18.25764620368185
 30
0.0
 10
1.583164931879737
 20
18.39236751040371
 30
0.0
 10
1.641012709480579
 20
18.67865268214746
 30
0.0
 10
1.764995964350566
 20
19.12267896994811
 30
0.0
 10
1.9318049543492
 20
19.58448723740303
 30
0.0
 10
2.133317938443184
 20
20.03442569923211
 30
0.0
 10
2.359561925530458
 20
20.45636728811561
 30
0.0
 10
2.612302495778214
 20
20.85922977021053
 30
0.0
 10
2.906803132714458
 20
21.2636370313311
 30
0.0
 10
3.261154213566385
 20
21.68047812405803
 30
0.0
 10
3.692897745467771
 20
22.10897884028542
 30
0.0
 10
4.217751874294905
 20
22.53965891392337
 30
0.0
 10
4.855681101899693
 20
22.95878229896691
 30
0.0
 10
5.338802711949968
 20
23.1984843069553
 30
0.0
 10
5.60195346362543
 20
23.30871695158185
 30
0.0
 11
1.561022852625431
 21
18.25764620368185
 31
0.0
 11
1.641830282725429
 21
18.65918210328185
 31
0.0
 11
1.766617613225429
 21
19.10792676438185
 31
0.0
 11
1.938478532925429
 21
19.58433373868185
 31
0.0
 11
2.142531913025429
 21
20.04011095638185
 31
0.0
 11
2.36547848382543
 21
20.45597109698185
 31
0.0
 11
2.61202419502543
 21
20.84900095978186
 31
0.0
 11
2.90039565252543
 21
21.24498082428185
 31
0.0
 11
3.253963753825431
 21
21.66073505168185
 31
0.0
 11
3.68265769692543
 21
22.08613796078185
 31
0.0
 11
4.202739120725429
 21
22.51288388598185
 31
0.0
 11
4.835247413325429
 21
22.92824642858185
 31
0.0
 11
5.60195346362543
 21
23.30871695158185
 31
0.0
  0
SPLINE
  5
607
330
58F
100
AcDbEntity
  8
0
  6
Continuous
 62
     7
100
AcDbSpline
210
0.0
220
0.0
230
1.0
 70
     8
 71
     3
 72
     9
 73
     5
 74
     3
 42
0.0000000001
 43
0.0000000001
 44
0.0000000001
 12
0.0000009668825439
 22
0.9999999999995326
 32
0.0
 13
-0.5802461108935388
 23
0.8144411892782208
 33
0.0
 40
0.0
 40
0.0
 40
0.0
 40
0.0
 40
0.0580850154996736
 40
0.0787280533973835
 40
0.0787280533973835
 40
0.0787280533973835
 40
0.0787280533973835
 10
8.187289361625429
 20
24.74676455588185
 30
0.0
 10
8.187289380345893
 20
24.76612622771507
 30
0.0
 10
8.180172645519705
 20
24.79276818929785
 30
0.0
 10
8.166427807244488
 20
24.81513185536994
 30
0.0
 10
8.16243512642543
 20
24.82073603548185
 30
0.0
 11
8.187289361625429
 21
24.74676455588185
 31
0.0
 11
8.173180091425429
 21
24.80310989748185
 31
0.0
 11
8.16243512642543
 21
24.82073603548185
 31
0.0
  0
SPLINE
  5
608
330
58F
100
AcDbEntity
  8
0
  6
Continuous
 62
     7
100
AcDbSpline
210
0.0
220
0.0
230
1.0
 70
     8
 71
     3
 72
    10
 73
     6
 74
     4
 42
0.0000000001
 43
0.0000000001
 44
0.0000000001
 12
0.0002107527262203
 22
-0.9999999777916441
 32
0.0
 13
0.0578726391664784
 23
-0.9983239742868578
 33
0.0
 40
0.0
 40
0.0
 40
0.0
 40
0.0
 40
0.3928582906692471
 40
0.7942773331959763
 40
0.8854224778632218
 40
0.8854224778632218
 40
0.8854224778632218
 40
0.8854224778632218
 10
1.495579038525431
 20
16.83549618488185
 30
0.0
 10
1.495606637177356
 20
16.70454342423368
 30
0.0
 10
1.497590398016773
 20
16.43976292721989
 30
0.0
 10
1.508894191452117
 20
16.1447867625765
 30
0.0
 10
1.517874414402395
 20
15.98084469563557
 30
0.0
 10
1.519632684425429
 20
15.95051390128185
 30
0.0
 11
1.495579038525431
 21
16.83549618488185
 31
0.0
 11
1.499564404525429
 21
16.44265810958185
 31
0.0
 11
1.514643146025431
 21
16.04152237288185
 31
0.0
 11
1.519632684425429
 21
15.95051390128185
 31
0.0
  0
LINE
  5
609
330
58F
100
AcDbEntity
  8
0
  6
Continuous
 62
     7
100
AcDbLine
 10
1.52210068572543
 20
15.90898774618185
 30
0.0
 11
1.523738813825429
 21
15.88250209968185
 31
0.0
  0
SPLINE
  5
60A
330
58F
100
AcDbEntity
  8
0
  6
Continuous
 62
     7
100
AcDbSpline
210
0.0
220
0.0
230
1.0
 70
     8
 71
     3
 72
    10
 73
     6
 74
     4
 42
0.0000000001
 43
0.0000000001
 44
0.0000000001
 12
0.122089672623863
 22
-0.9925190737908254
 32
0.0
 13
0.1265630878635955
 23
-0.9919585600167135
 33
0.0
 40
0.0
 40
0.0
 40
0.0
 40
0.0
 40
0.0826562307570655
 40
0.2783520906046434
 40
0.3269810074153821
 40
0.3269810074153821
 40
0.3269810074153821
 40
0.3269810074153821
 10
1.591493298725429
 20
15.13254723658185
 30
0.0
 10
1.594857122776581
 20
15.10520127471717
 30
0.0
 10
1.606554453089579
 20
15.01315980374671
 30
0.0
 10
1.623569442855862
 20
14.90543516600085
 30
0.0
 10
1.630966662768422
 20
14.8243050148801
 30
0.0
 10
1.633018204725431
 20
14.80822572478185
 30
0.0
 11
1.591493298725429
 21
15.13254723658185
 31
0.0
 11
1.602049900325429
 21
15.05056790598185
 31
0.0
 11
1.627811452325429
 21
14.85657509168185
 31
0.0
 11
1.633018204725431
 21
14.80822572478185
 31
0.0
  0
SPLINE
  5
60B
330
58F
100
AcDbEntity
  8
0
  6
Continuous
 62
     7
100
AcDbSpline
210
0.0
220
0.0
230
1.0
 70
     8
 71
     3
 72
     9
 73
     5
 74
     3
 42
0.0000000001
 43
0.0000000001
 44
0.0000000001
 12
0.1265630878888954
 22
-0.9919585600134855
 32
0.0
 13
-0.2873240385736339
 23
0.9578334389953907
 33
0.0
 40
0.0
 40
0.0
 40
0.0
 40
0.0
 40
0.0704778650856623
 40
0.108544523743929
 40
0.108544523743929
 40
0.108544523743929
 40
0.108544523743929
 10
1.633018204725431
 20
14.80822572478185
 30
0.0
 10
1.635991503469783
 20
14.78492201759412
 30
0.0
 10
1.637690989263578
 20
14.77221634660636
 30
0.0
 10
1.652583512258996
 20
14.68870454785728
 30
0.0
 10
1.64893769022543
 20
14.70085838738185
 30
0.0
 11
1.633018204725431
 21
14.80822572478185
 31
0.0
 11
1.643760496925429
 21
14.73857134498185
 31
0.0
 11
1.64893769022543
 21
14.70085838738185
 31
0.0
  0
SPLINE
  5
60C
330
58F
100
AcDbEntity
  8
0
  6
Continuous
 62
     7
100
AcDbSpline
210
0.0
220
0.0
230
1.0
 70
     8
 71
     3
 72
    10
 73
     6
 74
     4
 42
0.0000000001
 43
0.0000000001
 44
0.0000000001
 12
-0.2392913351139833
 22
-0.9709478137054366
 32
0.0
 13
-0.6535758364854419
 23
-0.756861034776104
 33
0.0
 40
0.0
 40
0.0
 40
0.0
 40
0.0
 40
1.416364899541122
 40
2.384933368455976
 40
3.308744683625811
 40
3.308744683625811
 40
3.308744683625811
 40
3.308744683625811
 10
32.18582535012543
 20
7.62654774678185
 30
0.0
 10
32.07285073418551
 20
7.168142279242326
 30
0.0
 10
31.80445619240706
 20
6.412348557218503
 30
0.0
 10
31.25863809195508
 20
5.450623875862897
 30
0.0
 10
30.87605168084771
 20
4.946462981560955
 30
0.0
 10
30.67479142982543
 20
4.713397385581851
 30
0.0
 11
32.18582535012543
 21
7.62654774678185
 31
0.0
 11
31.70996514422543
 21
6.29251379178185
 31
0.0
 11
31.23280852232543
 21
5.449633944381851
 31
0.0
 11
30.67479142982543
 21
4.713397385581851
 31
0.0
  0
SPLINE
  5
60D
330
58F
100
AcDbEntity
  8
_SURFACE
  6
Continuous
 62
     7
100
AcDbSpline
210
0.0
220
0.0
230
1.0
 70
     8
 71
     3
 72
     9
 73
     5
 74
     3
 42
0.0000000001
 43
0.0000000001
 44
0.0000000001
 12
0.6535618430871465
 22
-0.7568731183365758
 32
0.0
 13
0.9356159734203217
 23
-0.3530194757810733
 33
0.0
 40
0.0
 40
0.0
 40
0.0
 40
0.0
 40
2.23727536658086
 40
4.372321394807158
 40
4.372321394807158
 40
4.372321394807158
 40
4.372321394807158
 10
11.37813999732543
 20
4.71339705678185
 30
0.0
 10
11.86553926801745
 20
4.148952529021297
 30
0.0
 10
12.99154711450496
 20
3.188254732876991
 30
0.0
 10
14.30959389902672
 20
2.539108363166154
 30
0.0
 10
14.97545495502543
 20
2.28787075328185
 30
0.0
 11
11.37813999732543
 21
4.71339705678185
 31
0.0
 11
13.06815534092543
 21
3.24736526848185
 31
0.0
 11
14.97545495502543
 21
2.28787075328185
 31
0.0
  0
LINE
  5
60E
330
58F
100
AcDbEntity
  8
_SURFACE
  6
Continuous
 62
     7
100
AcDbLine
 10
14.97545495502543
 20
2.28787075328185
 30
0.0
 11
14.98673646742543
 21
2.28362116688185
 31
0.0
  0
SPLINE
  5
60F
330
58F
100
AcDbEntity
  8
_SURFACE
  6
Continuous
 62
     7
100
AcDbSpline
210
0.0
220
0.0
230
1.0
 70
     8
 71
     3
 72
    10
 73
     6
 74
     4
 42
0.0000000001
 43
0.0000000001
 44
0.0000000001
 12
0.9858794655531431
 22
-0.1674565000250779
 32
0.0
 13
0.9989363386546159
 23
-0.0461106421047324
 33
0.0
 40
0.0
 40
0.0
 40
0.0
 40
0.0
 40
0.9829038310870531
 40
1.53990666257566
 40
1.766219529720354
 40
1.766219529720354
 40
1.766219529720354
 40
1.766219529720354
 10
17.24290779442543
 20
1.68234902658185
 30
0.0
 10
17.56591602898617
 20
1.627484481443491
 30
0.0
 10
18.07526922062015
 20
1.559724966065476
 30
0.0
 10
18.66225607230594
 20
1.513021820261301
 30
0.0
 10
18.92299897082678
 20
1.499058270688718
 30
0.0
 10
18.99835635312543
 20
1.49557979348185
 30
0.0
 11
17.24290779442543
 21
1.68234902658185
 31
0.0
 11
18.21713021722543
 21
1.55200098448185
 31
0.0
 11
18.77236774562543
 21
1.50769024828185
 31
0.0
 11
18.99835635312543
 21
1.49557979348185
 31
0.0
  0
SPLINE
  5
610
330
58F
100
AcDbEntity
  8
_SURFACE
  6
Continuous
 62
     7
100
AcDbSpline
210
0.0
220
0.0
230
1.0
 70
     8
 71
     3
 72
    10
 73
     6
 74
     4
 42
0.0000000001
 43
0.0000000001
 44
0.0000000001
 12
0.2392913351139833
 22
-0.9709478137054366
 32
0.0
 13
0.6535758364854419
 23
-0.756861034776104
 33
0.0
 40
0.0
 40
0.0
 40
0.0
 40
0.0
 40
1.416364899541121
 40
2.384933368455977
 40
3.308744683625811
 40
3.308744683625811
 40
3.308744683625811
 40
3.308744683625811
 10
9.86710645802543
 20
7.62654774678185
 30
0.0
 10
9.980081073965356
 20
7.168142279242326
 30
0.0
 10
10.2484756157438
 20
6.412348557218501
 30
0.0
 10
10.79429371619579
 20
5.4506238758629
 30
0.0
 10
11.17688012730315
 20
4.946462981560955
 30
0.0
 10
11.37814037832543
 20
4.713397385581851
 30
0.0
 11
9.86710645802543
 21
7.62654774678185
 31
0.0
 11
10.34296666392543
 21
6.29251379178185
 31
0.0
 11
10.82012328582543
 21
5.449633944381851
 31
0.0
 11
11.37814037832543
 21
4.713397385581851
 31
0.0
  0
SPLINE
  5
611
330
58F
100
AcDbEntity
  8
0
  6
Continuous
 62
     7
100
AcDbSpline
210
0.0
220
0.0
230
1.0
 70
     8
 71
     3
 72
    14
 73
    10
 74
     8
 42
0.0000000001
 43
0.0000000001
 44
0.0000000001
 12
-0.6535618430843132
 22
-0.7568731183390226
 32
0.0
 13
-0.9989363386553911
 23
-0.0461106420879375
 33
0.0
 40
0.0
 40
0.0
 40
0.0
 40
0.0
 40
2.237275366505321
 40
4.427838731757996
 40
5.511069875334977
 40
6.58812934279947
 40
7.704645466602484
 40
8.261648298091095
 40
8.487961165235789
 40
8.487961165235789
 40
8.487961165235789
 40
8.487961165235789
 10
30.67479181112543
 20
4.71339705668185
 30
0.0
 10
30.18739254045198
 20
4.148952528938529
 30
0.0
 10
29.04685756495097
 20
3.175971248077496
 30
0.0
 10
27.38330458339895
 20
2.363057499332377
 30
0.0
 10
25.99914394381461
 20
1.924831132073368
 30
0.0
 10
24.93137240145017
 20
1.688465480288443
 30
0.0
 10
24.02208396450229
 20
1.563260011925418
 30
0.0
 10
23.39067449730372
 20
1.513021669643867
 30
0.0
 10
23.12993283772414
 20
1.499058270587451
 30
0.0
 10
23.05457545542543
 20
1.49557979338185
 30
0.0
 11
30.67479181112543
 21
4.71339705668185
 31
0.0
 11
28.98477646762543
 21
3.24736526838185
 31
0.0
 11
27.02518839622543
 21
2.26829303018185
 31
0.0
 11
25.99298623742543
 21
1.939737990981851
 31
0.0
 11
24.94173167242543
 21
1.705385828581849
 31
0.0
 11
23.83580159132543
 21
1.55200098438185
 31
0.0
 11
23.28056406292543
 21
1.50769024818185
 31
0.0
 11
23.05457545542543
 21
1.49557979338185
 31
0.0
  0
SPLINE
  5
612
330
58F
100
AcDbEntity
  8
0
  6
Continuous
 62
     7
100
AcDbSpline
210
0.0
220
0.0
230
1.0
 70
     8
 71
     3
 72
    10
 73
     6
 74
     4
 42
0.0000000001
 43
0.0000000001
 44
0.0000000001
 12
-0.2392913351139833
 22
-0.9709478137054366
 32
0.0
 13
-0.6535758364854419
 23
-0.756861034776104
 33
0.0
 40
0.0
 40
0.0
 40
0.0
 40
0.0
 40
1.416364899541122
 40
2.384933368455976
 40
3.308744683625811
 40
3.308744683625811
 40
3.308744683625811
 40
3.308744683625811
 10
32.18582535052544
 20
7.62654774668185
 30
0.0
 10
32.0728507345855
 20
7.168142279142326
 30
0.0
 10
31.80445619280706
 20
6.412348557118503
 30
0.0
 10
31.25863809235507
 20
5.450623875762897
 30
0.0
 10
30.87605168124771
 20
4.946462981460956
 30
0.0
 10
30.67479143022543
 20
4.713397385481851
 30
0.0
 11
32.18582535052544
 21
7.62654774668185
 31
0.0
 11
31.70996514462543
 21
6.29251379168185
 31
0.0
 11
31.23280852272543
 21
5.449633944281851
 31
0.0
 11
30.67479143022543
 21
4.713397385481851
 31
0.0
  0
LINE
  5
613
330
58F
100
AcDbEntity
  8
0
100
AcDbLine
 10
7.746344520925349
 20
9.444463720248263
 30
0.0
 11
7.746344520925349
 21
9.081011502198091
 31
0.0
  0
LINE
  5
614
330
58F
100
AcDbEntity
  8
0
100
AcDbLine
 10
7.620620335994741
 20
9.598715615053746
 30
0.0
 11
7.620620335994741
 21
23.92924956900513
 31
0.0
  0
ENDBLK
  5
616
330
58F
100
AcDbEntity
  8
0
100
AcDbBlockEnd
  0
ENDSEC
  0
SECTION
  2
ENTITIES
  0
LINE
  5
624
330
206
100
AcDbEntity
  8
0
  6
Continuous
 62
     7
100
AcDbLine
 10
-3.198340577520602
 20
6.56331678014447
 30
0.0
 11
-3.151096483020602
 21
6.563316766844469
 31
0.0
  0
LINE
  5
625
330
206
100
AcDbEntity
  8
0
  6
Continuous
 62
     7
100
AcDbLine
 10
-11.1021654839206
 20
13.35326911934447
 30
0.0
 11
-11.1021654839206
 21
15.59770201554447
 31
0.0
  0
LINE
  5
626
330
206
100
AcDbEntity
  8
0
  6
Continuous
 62
     7
100
AcDbLine
 10
-9.471049931720603
 20
12.40183246484447
 30
0.0
 11
-9.464678057420604
 21
12.37949049734447
 31
0.0
  0
LINE
  5
627
330
206
100
AcDbEntity
  8
_SURFACE
  6
Continuous
 62
     7
100
AcDbLine
 10
-9.471180845720603
 20
12.40229721694447
 30
0.0
 11
-9.464757452720602
 21
12.37976559094447
 31
0.0
  0
LINE
  5
628
330
206
100
AcDbEntity
  8
0
  6
Continuous
 62
     7
100
AcDbLine
 10
-9.475486403620603
 20
12.41771476824447
 30
0.0
 11
-9.471049931720603
 21
12.40183246484447
 31
0.0
  0
LINE
  5
629
330
206
100
AcDbEntity
  8
_SURFACE
  6
Continuous
 62
     7
100
AcDbLine
 10
-9.475655689520602
 20
12.41832628764447
 30
0.0
 11
-9.471180845720603
 21
12.40229721694447
 31
0.0
  0
LINE
  5
62A
330
206
100
AcDbEntity
  8
0
  6
Continuous
 62
     7
100
AcDbLine
 10
-9.480103268520602
 20
12.43454103694447
 30
0.0
 11
-9.475486403620603
 21
12.41771476824447
 31
0.0
  0
LINE
  5
62B
330
206
100
AcDbEntity
  8
_SURFACE
  6
Continuous
 62
     7
100
AcDbLine
 10
-9.480313425620602
 20
12.43531440504447
 30
0.0
 11
-9.475655689520602
 21
12.41832628764447
 31
0.0
  0
LINE
  5
62C
330
206
100
AcDbEntity
  8
0
  6
Continuous
 62
     7
100
AcDbLine
 10
-9.484917800820602
 20
12.45242592004447
 30
0.0
 11
-9.480103268520602
 21
12.43454103694447
 31
0.0
  0
LINE
  5
62D
330
206
100
AcDbEntity
  8
_SURFACE
  6
Continuous
 62
     7
100
AcDbLine
 10
-9.485172000520602
 20
12.45338010954447
 30
0.0
 11
-9.480313425620602
 21
12.43531440504447
 31
0.0
  0
LINE
  5
62E
330
206
100
AcDbEntity
  8
0
  6
Continuous
 62
     7
100
AcDbLine
 10
-9.489960368220602
 20
12.47154567384447
 30
0.0
 11
-9.484917800820602
 21
12.45242592004447
 31
0.0
  0
LINE
  5
62F
330
206
100
AcDbEntity
  8
_SURFACE
  6
Continuous
 62
     7
100
AcDbLine
 10
-9.490262485220602
 20
12.47270422284447
 30
0.0
 11
-9.485172000520602
 21
12.45338010954447
 31
0.0
  0
LINE
  5
630
330
206
100
AcDbEntity
  8
0
  6
Continuous
 62
     7
100
AcDbLine
 10
-9.495246292920603
 20
12.49203587994447
 30
0.0
 11
-9.489960368220602
 21
12.47154567384447
 31
0.0
  0
LINE
  5
631
330
206
100
AcDbEntity
  8
_SURFACE
  6
Continuous
 62
     7
100
AcDbLine
 10
-9.495600565820602
 20
12.49342615864447
 30
0.0
 11
-9.490262485220602
 21
12.47270422284447
 31
0.0
  0
LINE
  5
632
330
206
100
AcDbEntity
  8
0
  6
Continuous
 62
     7
100
AcDbLine
 10
-9.500807767320601
 20
12.51411642704447
 30
0.0
 11
-9.495246292920603
 21
12.49203587994447
 31
0.0
  0
LINE
  5
633
330
206
100
AcDbEntity
  8
_SURFACE
  6
Continuous
 62
     7
100
AcDbLine
 10
-9.501219199820601
 20
12.51577204494447
 30
0.0
 11
-9.495600565820602
 21
12.49342615864447
 31
0.0
  0
LINE
  5
634
330
206
100
AcDbEntity
  8
0
  6
Continuous
 62
     7
100
AcDbLine
 10
-9.506697154520603
 20
12.53811807794447
 30
0.0
 11
-9.500807767320601
 21
12.51411642704447
 31
0.0
  0
LINE
  5
635
330
206
100
AcDbEntity
  8
_SURFACE
  6
Continuous
 62
     7
100
AcDbLine
 10
-9.507172381020602
 20
12.54008380954447
 30
0.0
 11
-9.501219199820601
 21
12.51577204494447
 31
0.0
  0
LINE
  5
636
330
206
100
AcDbEntity
  8
0
  6
Continuous
 62
     7
100
AcDbLine
 10
-9.512942143920604
 20
12.56431124834447
 30
0.0
 11
-9.506697154520603
 21
12.53811807794447
 31
0.0
  0
LINE
  5
637
330
206
100
AcDbEntity
  8
_SURFACE
  6
Continuous
 62
     7
100
AcDbLine
 10
-9.513488680220604
 20
12.56664169884447
 30
0.0
 11
-9.507172381020602
 21
12.54008380954447
 31
0.0
  0
LINE
  5
638
330
206
100
AcDbEntity
  8
0
  6
Continuous
 62
     7
100
AcDbLine
 10
-9.519599063720603
 20
12.59313595414447
 30
0.0
 11
-9.512942143920604
 21
12.56431124834447
 31
0.0
  0
LINE
  5
639
330
206
100
AcDbEntity
  8
_SURFACE
  6
Continuous
 62
     7
100
AcDbLine
 10
-9.520226094820602
 20
12.59590169964447
 30
0.0
 11
-9.513488680220604
 21
12.56664169884447
 31
0.0
  0
LWPOLYLINE
  5
63A
330
206
100
AcDbEntity
  8
_SURFACE
  6
Continuous
 62
     7
100
AcDbPolyline
 90
        9
 70
     0
 43
0.0
 10
-9.558706045120603
 20
12.78620950394447
 10
-9.553553835020602
 20
12.75796808594447
 10
-9.548648155820602
 20
12.73198808114447
 10
-9.543952111820603
 20
12.70788659034447
 10
-9.539574048120602
 20
12.68604708694447
 10
-9.535369268420602
 20
12.66560804474447
 10
-9.531328201620603
 20
12.64643095324447
 10
-9.527498092220602
 20
12.62865398674447
 10
-9.520226094820602
 20
12.59590169964447
  0
LWPOLYLINE
  5
63B
330
206
100
AcDbEntity
  8
0
  6
Continuous
 62
     7
100
AcDbPolyline
 90
       11
 70
     0
 43
0.0
 10
-9.565573141820603
 20
12.82552686974447
 10
-9.563068950420603
 20
12.81095475484447
 10
-9.557488393320602
 20
12.77944227864447
 10
-9.552429158520602
 20
12.75193615494447
 10
-9.547607910120603
 20
12.72658643684447
 10
-9.542991974920603
 20
12.70304647494447
 10
-9.538681023320602
 20
12.68166335934447
 10
-9.534538466020602
 20
12.66162898884447
 10
-9.530555767720603
 20
12.64281521424447
 10
-9.526777196020603
 20
12.62534982024447
 10
-9.519599063720603
 20
12.59313595414447
  0
LINE
  5
63C
330
206
100
AcDbEntity
  8
_SURFACE
  6
Continuous
 62
     7
100
AcDbLine
 10
-9.565572946120603
 20
12.82552571964447
 30
0.0
 11
-9.558706045120603
 21
12.78620950394447
 31
0.0
  0
LINE
  5
63D
330
206
100
AcDbEntity
  8
DATUM_AXIS
  6
Continuous
 62
     7
100
AcDbLine
 10
-9.777809967320601
 20
13.02094684234447
 30
0.0
 11
-10.8865329822206
 21
13.11794753704447
 31
0.0
  0
LINE
  5
63E
330
206
100
AcDbEntity
  8
0
  6
Continuous
 62
     7
100
AcDbLine
 10
-2.914876010620602
 20
22.39815984514447
 30
0.0
 11
-2.914876010620602
 21
6.79953723854447
 31
0.0
  0
ARC
  5
650
330
206
100
AcDbEntity
  8
0
  6
Continuous
 62
     7
100
AcDbCircle
 10
-1.029168294520603
 20
8.25289161274447
 30
0.0
 40
14.5397359672
100
AcDbArc
 50
98.59966053610003
 51
100.0139268618
  0
ARC
  5
651
330
206
100
AcDbEntity
  8
0
  6
Continuous
 62
     7
100
AcDbCircle
 10
4.732438175179396
 20
14.43109659934447
 30
0.0
 40
14.3397202242
100
AcDbArc
 50
183.6336787625
 51
186.2795546529999
  0
ARC
  5
652
330
206
100
AcDbEntity
  8
0
  6
Continuous
 62
     7
100
AcDbCircle
 10
4.624198754979396
 20
14.41380398034447
 30
0.0
 40
14.2305790046
100
AcDbArc
 50
183.3174831237
 51
183.4849726281
  0
ARC
  5
653
330
206
100
AcDbEntity
  8
0
  6
Continuous
 62
     7
100
AcDbCircle
 10
-1.287445900720603
 20
17.88970947844447
 30
0.0
 40
10.874847529
100
AcDbArc
 50
247.5933081224999
 51
258.3601562326999
  0
ARC
  5
654
330
206
100
AcDbEntity
  8
0
  6
Continuous
 62
     7
100
AcDbCircle
 10
-1.317791033720602
 20
10.93322590244447
 30
0.0
 40
10.8536754197
100
AcDbArc
 50
101.4930545139999
 51
112.6656168148999
  0
ARC
  5
655
330
206
100
AcDbEntity
  8
0
  6
Continuous
 62
     7
100
AcDbCircle
 10
-1.600118133820602
 20
13.83843567864447
 30
0.0
 40
9.321651186799998
100
AcDbArc
 50
166.2418499270999
 51
166.5022678079999
  0
ARC
  5
656
330
206
100
AcDbEntity
  8
0
  6
Continuous
 62
     7
100
AcDbCircle
 10
-1.671653759920602
 20
13.73538342174447
 30
0.0
 40
7.8979538522
100
AcDbArc
 50
186.3443970103999
 51
187.003889439
  0
ARC
  5
657
330
206
100
AcDbEntity
  8
0
  6
Continuous
 62
     7
100
AcDbCircle
 10
-5.954966974220602
 20
13.39252443364447
 30
0.0
 40
3.6529864098
100
AcDbArc
 50
195.5482681643999
 51
196.1017743961999
  0
ARC
  5
658
330
206
100
AcDbEntity
  8
0
  6
Continuous
 62
     7
100
AcDbCircle
 10
-6.020452933620603
 20
13.37358451164447
 30
0.0
 40
3.584816425799999
100
AcDbArc
 50
196.1560572415999
 51
196.7468256311
  0
ARC
  5
659
330
206
100
AcDbEntity
  8
0
  6
Continuous
 62
     7
100
AcDbCircle
 10
-9.798402989920603
 20
12.78562495114447
 30
0.0
 40
0.2362205771
100
AcDbArc
 50
9.662799235900019
 51
84.99878585390005
  0
ARC
  5
65A
330
206
100
AcDbEntity
  8
0
  6
Continuous
 62
     7
100
AcDbCircle
 10
-3.151096483020602
 20
22.39817790854447
 30
0.0
 40
0.2362204724
100
AcDbArc
 50
359.9956186826
 51
98.54310199299996
  0
ARC
  5
65B
330
206
100
AcDbEntity
  8
0
  6
Continuous
 62
     7
100
AcDbCircle
 10
-3.151096483020602
 20
6.79953908554447
 30
0.0
 40
0.2362204724
100
AcDbArc
 50
270.0
 51
359.9995525271
  0
ARC
  5
65C
330
206
100
AcDbEntity
  8
0
  6
Continuous
 62
     7
100
AcDbCircle
 10
-10.8659450115206
 20
15.59769541434447
 30
0.0
 40
0.2362204724
100
AcDbArc
 50
93.40453480559999
 51
179.9999999934999
  0
ARC
  5
65D
330
206
100
AcDbEntity
  8
0
  6
Continuous
 62
     7
100
AcDbCircle
 10
-10.8659450115206
 20
13.35326911934447
 30
0.0
 40
0.2362204724
100
AcDbArc
 50
180.0
 51
265.0
  0
ARC
  5
65E
330
206
100
AcDbEntity
  8
0
  6
Continuous
 62
     7
100
AcDbCircle
 10
-10.8940004983206
 20
16.06930099874447
 30
0.0
 40
0.2362188701
100
AcDbArc
 50
273.4044123464999
 51
346.5016713368
  0
ARC
  5
65F
330
206
100
AcDbEntity
  8
0
  6
Continuous
 62
     7
100
AcDbCircle
 10
-3.513301207420603
 20
7.08424947194447
 30
0.0
 40
0.1574803251
100
AcDbArc
 50
359.9999421391
 51
78.36692574800006
  0
ARC
  5
660
330
206
100
AcDbEntity
  8
0
  6
Continuous
 62
     7
100
AcDbCircle
 10
-3.198340577520602
 20
6.72079809304447
 30
0.0
 40
0.157480315
100
AcDbArc
 50
180.0003631674
 51
262.5000283514
  0
ARC
  5
661
330
206
100
AcDbEntity
  8
0
  6
Continuous
 62
     7
100
AcDbCircle
 10
-10.9499188249206
 20
15.36745133254447
 30
0.0
 40
0.1522086302
100
AcDbArc
 50
171.8436903159
 51
179.9472434281
  0
SPLINE
  5
688
330
206
100
AcDbEntity
  8
0
  6
Continuous
 62
     7
100
AcDbSpline
210
0.0
220
0.0
230
1.0
 70
     8
 71
     3
 72
    29
 73
    25
 74
    23
 42
0.0000000001
 43
0.0000000001
 44
0.0000000001
 12
0.1678516250679311
 22
-0.9858122701417622
 32
0.0
 13
0.2680622552373994
 23
-0.9634015919215825
 33
0.0
 40
0.0
 40
0.0
 40
0.0
 40
0.0
 40
0.0338030288900181
 40
0.0650811634427919
 40
0.0941510061991087
 40
0.1213318412750517
 40
0.1469398139129859
 40
0.1712364943579056
 40
0.1943438185287787
 40
0.2162791427111784
 40
0.2370720269490179
 40
0.2567535954044983
 40
0.2753548542991426
 40
0.2929069714033354
 40
0.3094417647945844
 40
0.3249872816779048
 40
0.339535196561171
 40
0.3530109868882834
 40
0.3653731551007194
 40
0.3766858384436939
 40
0.3870191291802476
 40
0.3964395427164993
 40
0.4128089295768326
 40
0.4221064818971026
 40
0.4221064818971026
 40
0.4221064818971026
 40
0.4221064818971026
 10
-9.565528892420603
 20
12.82527521844447
 30
0.0
 10
-9.563637594643466
 20
12.81416740489522
 30
0.0
 10
-9.559918700600494
 20
12.79279458433244
 30
0.0
 10
-9.554318184642582
 20
12.76191443282332
 30
0.0
 10
-9.548917956916287
 20
12.73324206406557
 30
0.0
 10
-9.543695956749887
 20
12.70646001864274
 30
0.0
 10
-9.538624513611352
 20
12.68127014560208
 30
0.0
 10
-9.533681334041148
 20
12.65743997738132
 30
0.0
 10
-9.528859158186364
 20
12.63483537785313
 30
0.0
 10
-9.524164147369241
 20
12.6133982083099
 30
0.0
 10
-9.519607543662006
 20
12.59310001366665
 30
0.0
 10
-9.515198409152182
 20
12.5739079919434
 30
0.0
 10
-9.510944534783625
 20
12.55578892698535
 30
0.0
 10
-9.506852518463306
 20
12.53870950429555
 30
0.0
 10
-9.502928076069768
 20
12.52263750902662
 30
0.0
 10
-9.499179030501633
 20
12.50755365106506
 30
0.0
 10
-9.495621078872499
 20
12.49347310899959
 30
0.0
 10
-9.492275423043306
 20
12.48043349066734
 30
0.0
 10
-9.48915711588773
 20
12.46844896117546
 30
0.0
 10
-9.486268287832624
 20
12.45748716276287
 30
0.0
 10
-9.48360056779574
 20
12.44748120668307
 30
0.0
 10
-9.480467948978832
 20
12.43585479879733
 30
0.0
 10
-9.477386096723884
 20
12.42457230887725
 30
0.0
 10
-9.475103056601653
 20
12.41632688844658
 30
0.0
 10
-9.474272282320601
 20
12.41334112954447
 30
0.0
 11
-9.565528892420603
 21
12.82527521844447
 31
0.0
 11
-9.559733303120603
 21
12.79197272744447
 31
0.0
 11
-9.554150963420601
 21
12.76119677604447
 31
0.0
 11
-9.548769918520601
 21
12.73262931004447
 31
0.0
 11
-9.543567671120603
 21
12.70595095894447
 31
0.0
 11
-9.538513095420602
 21
12.68084678544447
 31
0.0
 11
-9.533577885020603
 21
12.65705661144447
 31
0.0
 11
-9.528756674120602
 21
12.63445784254447
 31
0.0
 11
-9.524063567420602
 21
12.61303044894447
 31
0.0
 11
-9.519509055120602
 21
12.59274251034447
 31
0.0
 11
-9.515102083320602
 21
12.57356067684447
 31
0.0
 11
-9.510850457020602
 21
12.55545182524447
 31
0.0
 11
-9.506760806920603
 21
12.53838280134447
 31
0.0
 11
-9.502838495320602
 21
12.52231996024447
 31
0.0
 11
-9.499088709120602
 21
12.50723346964447
 31
0.0
 11
-9.495524613920602
 21
12.49312889404447
 31
0.0
 11
-9.492175474920603
 21
12.48007591764447
 31
0.0
 11
-9.489062516420602
 21
12.46811211004447
 31
0.0
 11
-9.486179616020603
 21
12.45717292864447
 31
0.0
 11
-9.483517587920603
 21
12.44718841544447
 31
0.0
 11
-9.481066738620603
 21
12.43809239824447
 31
0.0
 11
-9.476753311320603
 21
12.42230154104447
 31
0.0
 11
-9.474272282320601
 21
12.41334112954447
 31
0.0
  0
SPLINE
  5
689
330
206
100
AcDbEntity
  8
0
  6
Continuous
 62
     7
100
AcDbSpline
210
0.0
220
0.0
230
1.0
 70
     8
 71
     3
 72
    13
 73
     9
 74
     7
 42
0.0000000001
 43
0.0000000001
 44
0.0000000001
 12
0.2881558741857195
 22
-0.9575835170742362
 32
0.0
 13
0.9246132144523478
 23
-0.3809073426177242
 33
0.0
 40
0.0
 40
0.0
 40
0.0
 40
0.0
 40
0.1779005354993765
 40
1.084250132678908
 40
1.951815186669355
 40
2.81600993997682
 40
4.530154517996714
 40
6.230335743597472
 40
6.230335743597472
 40
6.230335743597472
 40
6.230335743597472
 10
-9.453239579820602
 20
12.34068194534447
 30
0.0
 10
-9.436151885045624
 20
12.28389707185351
 30
0.0
 10
-9.327838631707535
 20
11.93908516829121
 30
0.0
 10
-9.087084227027251
 20
11.33260577387213
 30
0.0
 10
-8.664095634590665
 20
10.5592443727866
 30
0.0
 10
-7.994685718689035
 20
9.622900161056865
 30
0.0
 10
-6.95778845992328
 20
8.621976115794405
 30
0.0
 10
-5.956717384838686
 20
8.051741352348512
 30
0.0
 10
-5.432714042120602
 20
7.83587084814447
 30
0.0
 11
-9.453239579820602
 21
12.34068194534447
 31
0.0
 11
-9.399923901320603
 21
12.17095852634447
 31
0.0
 11
-9.065171311920602
 21
11.32869354654447
 31
0.0
 11
-8.648810666120603
 21
10.56756744954447
 31
0.0
 11
-8.145870363620604
 21
9.86479890744447
 31
0.0
 11
-6.910645977120602
 21
8.676307279644468
 31
0.0
 11
-5.432714042120602
 21
7.83587084814447
 31
0.0
  0
SPLINE
  5
68A
330
206
100
AcDbEntity
  8
0
  6
Continuous
 62
     7
100
AcDbSpline
210
0.0
220
0.0
230
1.0
 70
     8
 71
     3
 72
     9
 73
     5
 74
     3
 42
0.0000000001
 43
0.0000000001
 44
0.0000000001
 12
0.2378246988470985
 22
0.9713080935616087
 32
0.0
 13
0.984728075827155
 23
0.1740994447944888
 33
0.0
 40
0.0
 40
0.0
 40
0.0
 40
0.0
 40
5.987169038218596
 40
10.072226904335
 40
10.072226904335
 40
10.072226904335
 40
10.072226904335
 10
-10.6543148371206
 20
16.05534860114447
 30
0.0
 10
-10.1796826126336
 20
17.99381051592553
 30
0.0
 10
-8.17555290243439
 20
21.14395704839616
 30
0.0
 10
-4.898337740735065
 20
22.33405342642973
 30
0.0
 10
-3.557447350020602
 20
22.57112219524447
 30
0.0
 11
-10.6543148371206
 21
16.05534860114447
 31
0.0
 11
-7.347247533420602
 21
21.04629028994447
 31
0.0
 11
-3.557447350020602
 21
22.57112219524447
 31
0.0
  0
LINE
  5
68B
330
206
100
AcDbEntity
  8
0
  6
Continuous
 62
     7
100
AcDbLine
 10
-3.203287529920602
 20
22.62916121044447
 30
0.0
 11
-3.186192686920602
 21
22.63174036404447
 31
0.0
  0
SPLINE
  5
68C
330
206
100
AcDbEntity
  8
0
  6
Continuous
 62
     7
100
AcDbSpline
210
0.0
220
0.0
230
1.0
 70
     8
 71
     3
 72
     9
 73
     5
 74
     3
 42
0.0000000001
 43
0.0000000001
 44
0.0000000001
 12
-0.9888930133512204
 22
-0.1486290958902158
 32
0.0
 13
-0.2378246988460133
 23
-0.9713080935618744
 33
0.0
 40
0.0
 40
0.0
 40
0.0
 40
0.0
 40
4.452867463964063
 40
10.44003650218266
 40
10.44003650218266
 40
10.44003650218266
 40
10.44003650218266
 10
-3.186192768920603
 20
22.63174035174447
 30
0.0
 10
-4.653995943751613
 20
22.41113179664849
 30
0.0
 10
-8.104582609888717
 20
21.26384943619104
 30
0.0
 10
-10.17968261263576
 20
17.99381051592606
 30
0.0
 10
-10.6543148371206
 20
16.05534860114447
 30
0.0
 11
-3.186192768920603
 21
22.63174035174447
 31
0.0
 11
-7.347247533420602
 21
21.04629028994447
 31
0.0
 11
-10.6543148371206
 21
16.05534860114447
 31
0.0
  0
SPLINE
  5
68D
330
206
100
AcDbEntity
  8
0
  6
Continuous
 62
     7
100
AcDbSpline
210
0.0
220
0.0
230
1.0
 70
     8
 71
     3
 72
    12
 73
     8
 74
     6
 42
0.0000000001
 43
0.0000000001
 44
0.0000000001
 12
0.0002517077284188
 22
0.9999999683216092
 32
0.0
 13
0.0968242405887036
 23
0.9953014952437381
 33
0.0
 40
0.0
 40
0.0
 40
0.0
 40
0.0
 40
0.2893603021916066
 40
0.5862747284405823
 40
0.883911532990387
 40
1.167597146338063
 40
1.424239939939728
 40
1.424239939939728
 40
1.424239939939728
 40
1.424239939939728
 10
-9.606586375420603
 20
14.47528177754447
 30
0.0
 10
-9.606562097345817
 20
14.57173520855285
 30
0.0
 10
-9.605504743661958
 20
14.76716617328512
 30
0.0
 10
-9.597931995351896
 20
15.06173126009046
 30
0.0
 10
-9.583783257125125
 20
15.35415720119575
 30
0.0
 10
-9.564910091229979
 20
15.63285591732428
 30
0.0
 10
-9.549333440318285
 20
15.81230396617272
 30
0.0
 10
-9.541050359120603
 20
15.89744961824447
 30
0.0
 11
-9.606586375420603
 21
14.47528177754447
 31
0.0
 11
-9.604552388720604
 21
14.76463493094447
 31
0.0
 11
-9.596819720820603
 21
15.06144864754447
 31
0.0
 11
-9.582581340020603
 21
15.35874468844447
 31
0.0
 11
-9.563361862520602
 21
15.64177850074447
 31
0.0
 11
-9.541050359120603
 21
15.89744961824447
 31
0.0
  0
SPLINE
  5
68E
330
206
100
AcDbEntity
  8
0
  6
Continuous
 62
     7
100
AcDbSpline
210
0.0
220
0.0
230
1.0
 70
     8
 71
     3
 72
    19
 73
    15
 74
    13
 42
0.0000000001
 43
0.0000000001
 44
0.0000000001
 12
0.1621788650432265
 22
0.9867613773011644
 32
0.0
 13
0.9223454338561465
 23
0.3863662778306578
 33
0.0
 40
0.0
 40
0.0
 40
0.0
 40
0.0
 40
0.409586278367509
 40
0.8753583779173542
 40
1.381816452077307
 40
1.881186709606319
 40
2.35303926069758
 40
2.816997513952872
 40
3.306852748272267
 40
3.852620079520537
 40
4.45656223893762
 40
5.129315367549177
 40
5.886013974659634
 40
6.741932187130031
 40
6.741932187130031
 40
6.741932187130031
 40
6.741932187130031
 10
-9.541142550620602
 20
15.89743179634447
 30
0.0
 10
-9.519000471366295
 20
16.03215310306633
 30
0.0
 10
-9.461152693765454
 20
16.31843827481008
 30
0.0
 10
-9.337169438895466
 20
16.76246456261073
 30
0.0
 10
-9.170360448896834
 20
17.22427283006565
 30
0.0
 10
-8.968847464802848
 20
17.67421129189472
 30
0.0
 10
-8.742603477715572
 20
18.09615288077823
 30
0.0
 10
-8.489862907467818
 20
18.49901536287315
 30
0.0
 10
-8.195362270531578
 20
18.90342262399373
 30
0.0
 10
-7.841011189679645
 20
19.32026371672064
 30
0.0
 10
-7.409267657778264
 20
19.74876443294803
 30
0.0
 10
-6.884413528951125
 20
20.179444506586
 30
0.0
 10
-6.246484301346341
 20
20.59856789162953
 30
0.0
 10
-5.763362691296064
 20
20.83826989961792
 30
0.0
 10
-5.500211939620602
 20
20.94850254424447
 30
0.0
 11
-9.541142550620602
 21
15.89743179634447
 31
0.0
 11
-9.460335120520603
 21
16.29896769594447
 31
0.0
 11
-9.335547790020603
 21
16.74771235704447
 31
0.0
 11
-9.163686870320603
 21
17.22411933134447
 31
0.0
 11
-8.959633490220603
 21
17.67989654904447
 31
0.0
 11
-8.736686919420602
 21
18.09575668964447
 31
0.0
 11
-8.490141208220602
 21
18.48878655244447
 31
0.0
 11
-8.201769750720602
 21
18.88476641694447
 31
0.0
 11
-7.848201649420602
 21
19.30052064434447
 31
0.0
 11
-7.419507706320603
 21
19.72592355344447
 31
0.0
 11
-6.899426282520603
 21
20.15266947864447
 31
0.0
 11
-6.266917989920603
 21
20.56803202124447
 31
0.0
 11
-5.500211939620602
 21
20.94850254424447
 31
0.0
  0
SPLINE
  5
68F
330
206
100
AcDbEntity
  8
0
  6
Continuous
 62
     7
100
AcDbSpline
210
0.0
220
0.0
230
1.0
 70
     8
 71
     3
 72
     9
 73
     5
 74
     3
 42
0.0000000001
 43
0.0000000001
 44
0.0000000001
 12
0.0000009668825439
 22
0.9999999999995326
 32
0.0
 13
-0.5802461108935388
 23
0.8144411892782208
 33
0.0
 40
0.0
 40
0.0
 40
0.0
 40
0.0
 40
0.0580850154996737
 40
0.0787280533973831
 40
0.0787280533973831
 40
0.0787280533973831
 40
0.0787280533973831
 10
-2.914876041620603
 20
22.38655014854447
 30
0.0
 10
-2.91487602290014
 20
22.40591182037769
 30
0.0
 10
-2.92199275772633
 20
22.43255378196046
 30
0.0
 10
-2.935737596001544
 20
22.45491744803256
 30
0.0
 10
-2.939730276820602
 20
22.46052162814447
 30
0.0
 11
-2.914876041620603
 21
22.38655014854447
 31
0.0
 11
-2.928985311820603
 21
22.44289549014447
 31
0.0
 11
-2.939730276820602
 21
22.46052162814447
 31
0.0
  0
SPLINE
  5
690
330
206
100
AcDbEntity
  8
0
  6
Continuous
 62
     7
100
AcDbSpline
210
0.0
220
0.0
230
1.0
 70
     8
 71
     3
 72
    10
 73
     6
 74
     4
 42
0.0000000001
 43
0.0000000001
 44
0.0000000001
 12
0.0002107527262203
 22
-0.9999999777916441
 32
0.0
 13
0.0578726391664784
 23
-0.9983239742868578
 33
0.0
 40
0.0
 40
0.0
 40
0.0
 40
0.0
 40
0.3928582906692489
 40
0.7942773331959763
 40
0.8854224778632218
 40
0.8854224778632218
 40
0.8854224778632218
 40
0.8854224778632218
 10
-9.606586364720602
 20
14.47528177754447
 30
0.0
 10
-9.606558766068676
 20
14.3443290168963
 30
0.0
 10
-9.604575005229257
 20
14.07954851988251
 30
0.0
 10
-9.593271211793913
 20
13.78457235523912
 30
0.0
 10
-9.584290988843637
 20
13.62063028829819
 30
0.0
 10
-9.582532718820603
 20
13.59029949394447
 30
0.0
 11
-9.606586364720602
 21
14.47528177754447
 31
0.0
 11
-9.602600998720603
 21
14.08244370224447
 31
0.0
 11
-9.587522257220602
 21
13.68130796554447
 31
0.0
 11
-9.582532718820603
 21
13.59029949394447
 31
0.0
  0
LINE
  5
691
330
206
100
AcDbEntity
  8
0
  6
Continuous
 62
     7
100
AcDbLine
 10
-9.580064717520603
 20
13.54877333884447
 30
0.0
 11
-9.578426589420603
 21
13.52228769234447
 31
0.0
  0
SPLINE
  5
692
330
206
100
AcDbEntity
  8
0
  6
Continuous
 62
     7
100
AcDbSpline
210
0.0
220
0.0
230
1.0
 70
     8
 71
     3
 72
    10
 73
     6
 74
     4
 42
0.0000000001
 43
0.0000000001
 44
0.0000000001
 12
0.122089672623863
 22
-0.9925190737908254
 32
0.0
 13
0.1265630878635955
 23
-0.9919585600167135
 33
0.0
 40
0.0
 40
0.0
 40
0.0
 40
0.0
 40
0.0826562307570646
 40
0.2783520906046425
 40
0.3269810074153812
 40
0.3269810074153812
 40
0.3269810074153812
 40
0.3269810074153812
 10
-9.510672104520603
 20
12.77233282924447
 30
0.0
 10
-9.507308280469452
 20
12.74498686737979
 30
0.0
 10
-9.495610950156454
 20
12.65294539640933
 30
0.0
 10
-9.478595960390169
 20
12.54522075866347
 30
0.0
 10
-9.471198740477611
 20
12.46409060754272
 30
0.0
 10
-9.469147198520602
 20
12.44801131744447
 30
0.0
 11
-9.510672104520603
 21
12.77233282924447
 31
0.0
 11
-9.500115502920603
 21
12.69035349864447
 31
0.0
 11
-9.474353950920603
 21
12.49636068434447
 31
0.0
 11
-9.469147198520602
 21
12.44801131744447
 31
0.0
  0
SPLINE
  5
693
330
206
100
AcDbEntity
  8
0
  6
Continuous
 62
     7
100
AcDbSpline
210
0.0
220
0.0
230
1.0
 70
     8
 71
     3
 72
     9
 73
     5
 74
     3
 42
0.0000000001
 43
0.0000000001
 44
0.0000000001
 12
0.1265630878888955
 22
-0.9919585600134857
 32
0.0
 13
-0.2873240385736339
 23
0.9578334389953909
 33
0.0
 40
0.0
 40
0.0
 40
0.0
 40
0.0
 40
0.0704778650856632
 40
0.1085445237439299
 40
0.1085445237439299
 40
0.1085445237439299
 40
0.1085445237439299
 10
-9.469147198520602
 20
12.44801131744447
 30
0.0
 10
-9.466173899776249
 20
12.42470761025673
 30
0.0
 10
-9.464474413982454
 20
12.41200193926897
 30
0.0
 10
-9.449581890987037
 20
12.3284901405199
 30
0.0
 10
-9.453227713020602
 20
12.34064398004447
 30
0.0
 11
-9.469147198520602
 21
12.44801131744447
 31
0.0
 11
-9.458404906320604
 21
12.37835693764447
 31
0.0
 11
-9.453227713020602
 21
12.34064398004447
 31
0.0
  0
LINE
  5
69B
330
206
100
AcDbEntity
  8
0
100
AcDbLine
 10
-3.355820882320683
 20
7.084249312910882
 30
0.0
 11
-3.355820882320683
 21
6.72079709486071
 31
0.0
  0
LINE
  5
69C
330
206
100
AcDbEntity
  8
0
100
AcDbLine
 10
-3.481545067251291
 20
7.238501207716366
 30
0.0
 11
-3.481545067251291
 21
21.56903516166775
 31
0.0
  0
ENDSEC
  0
SECTION
  2
OBJECTS
  0
DICTIONARY
  5
C
330
0
100
AcDbDictionary
281
     1
  3
ACAD_2007HEADERVARS_RT
350
6A8
  3
ACAD_COLOR
350
3FB
  3
ACAD_GROUP
350
D
  3
ACAD_LAYOUT
350
1A
  3
ACAD_MATERIAL
350
3D1
  3
ACAD_MLEADERSTYLE
350
420
  3
ACAD_MLINESTYLE
350
17
  3
ACAD_PLOTSETTINGS
350
19
  3
ACAD_PLOTSTYLENAME
350
E
  3
ACAD_SCALELIST
350
3FE
  3
ACAD_TABLESTYLE
350
3FC
  3
ACAD_VISUALSTYLE
350
3EA
  3
ACDB_RECOMPOSE_DATA
350
425
  3
AcDbVariableDictionary
350
426
  3
AcmDictionary
350
488
  3
AMG
350
467
  3
AMGSNAPSETTINGS
350
4CA
  0
DICTIONARY
  5
507
330
8
100
AcDbDictionary
280
     1
281
     1
  0
DICTIONARY
  5
4D5
330
10
100
AcDbDictionary
280
     1
281
     1
  3
ADSK_XREC_LAYER_RECONCILED
360
4D6
  0
DICTIONARY
  5
4D7
330
1FA
100
AcDbDictionary
280
     1
281
     1
  3
ADSK_XREC_LAYER_RECONCILED
360
4D8
  0
DICTIONARY
  5
4D9
330
1FB
100
AcDbDictionary
280
     1
281
     1
  3
ADSK_XREC_LAYER_RECONCILED
360
4DA
  0
DICTIONARY
  5
4DB
330
1FC
100
AcDbDictionary
280
     1
281
     1
  3
ADSK_XREC_LAYER_RECONCILED
360
4DC
  0
DICTIONARY
  5
4DD
330
1FD
100
AcDbDictionary
280
     1
281
     1
  3
ADSK_XREC_LAYER_RECONCILED
360
4DE
  0
DICTIONARY
  5
4DF
330
1FE
100
AcDbDictionary
280
     1
281
     1
  3
ADSK_XREC_LAYER_RECONCILED
360
4E0
  0
DICTIONARY
  5
4E1
330
1FF
100
AcDbDictionary
280
     1
281
     1
  3
ADSK_XREC_LAYER_RECONCILED
360
4E2
  0
DICTIONARY
  5
4E3
330
200
100
AcDbDictionary
280
     1
281
     1
  3
ADSK_XREC_LAYER_RECONCILED
360
4E4
  0
DICTIONARY
  5
4E5
330
201
100
AcDbDictionary
280
     1
281
     1
  3
ADSK_XREC_LAYER_RECONCILED
360
4E6
  0
DICTIONARY
  5
4E7
330
202
100
AcDbDictionary
280
     1
281
     1
  3
ADSK_XREC_LAYER_RECONCILED
360
4E8
  0
DICTIONARY
  5
4E9
330
203
100
AcDbDictionary
280
     1
281
     1
  3
ADSK_XREC_LAYER_RECONCILED
360
4EA
  0
DICTIONARY
  5
6A8
102
{ACAD_REACTORS
330
C
102
}
330
C
100
AcDbDictionary
281
     1
  3
DIMARCSYM
350
6A9
  3
DIMLTEX1
350
6AB
  3
DIMLTEX2
350
6AC
  3
DIMLTYPE
350
6AA
  0
DICTIONARY
  5
3FB
102
{ACAD_REACTORS
330
C
102
}
330
C
100
AcDbDictionary
281
     1
  0
DICTIONARY
  5
D
102
{ACAD_REACTORS
330
C
102
}
330
C
100
AcDbDictionary
281
     1
  0
DICTIONARY
  5
1A
102
{ACAD_REACTORS
330
C
102
}
330
C
100
AcDbDictionary
281
     1
  3
Layout1
350
3CE
  3
Model
350
3CD
  0
DICTIONARY
  5
3D1
102
{ACAD_REACTORS
330
C
102
}
330
C
100
AcDbDictionary
281
     1
  3
ByBlock
350
3DA
  3
ByLayer
350
3D2
  3
Global
350
3E2
  0
DICTIONARY
  5
420
102
{ACAD_REACTORS
330
C
102
}
330
C
100
AcDbDictionary
281
     1
  3
Standard
350
421
  0
DICTIONARY
  5
17
102
{ACAD_REACTORS
330
C
102
}
330
C
100
AcDbDictionary
281
     1
  3
Standard
350
18
  0
DICTIONARY
  5
19
102
{ACAD_REACTORS
330
C
102
}
330
C
100
AcDbDictionary
281
     1
  0
ACDBDICTIONARYWDFLT
  5
E
102
{ACAD_REACTORS
330
C
102
}
330
C
100
AcDbDictionary
281
     1
  3
Normal
350
F
100
AcDbDictionaryWithDefault
340
F
  0
DICTIONARY
  5
3FE
102
{ACAD_REACTORS
330
C
102
}
330
C
100
AcDbDictionary
281
     1
  3
A0
350
3FF
  3
A1
350
400
  3
A2
350
401
  3
A3
350
402
  3
A4
350
403
  3
A5
350
404
  3
A6
350
405
  3
A7
350
406
  3
A8
350
407
  3
A9
350
408
  3
B0
350
409
  3
B1
350
40A
  3
B2
350
40B
  3
B3
350
40C
  3
B4
350
40D
  3
B5
350
40E
  3
B6
350
40F
  3
B7
350
410
  3
B8
350
411
  3
B9
350
412
  3
C0
350
413
  3
C1
350
414
  3
C2
350
415
  3
C3
350
416
  3
C4
350
417
  3
C5
350
418
  3
C6
350
419
  3
C7
350
41A
  3
C8
350
41B
  3
C9
350
41C
  3
D0
350
41D
  3
D1
350
41E
  3
D2
350
41F
  0
DICTIONARY
  5
3FC
102
{ACAD_REACTORS
330
C
102
}
330
C
100
AcDbDictionary
281
     1
  3
Standard
350
3FD
  0
DICTIONARY
  5
3EA
102
{ACAD_REACTORS
330
C
102
}
330
C
100
AcDbDictionary
281
     1
  3
2dWireframe
350
3F0
  3
3D Hidden
350
3F2
  3
3dWireframe
350
3F1
  3
Basic
350
3EF
  3
Brighten
350
3F6
  3
ColorChange
350
3FA
  3
Conceptual
350
3F3
  3
Dim
350
3F5
  3
Facepattern
350
3F9
  3
Flat
350
3EB
  3
FlatWithEdges
350
3EC
  3
Gouraud
350
3ED
  3
GouraudWithEdges
350
3EE
  3
Linepattern
350
3F8
  3
Realistic
350
3F4
  3
Thicken
350
3F7
  0
XRECORD
  5
425
102
{ACAD_REACTORS
330
C
102
}
330
C
100
AcDbXrecord
280
     1
 90
        1
330
3FD
  0
DICTIONARY
  5
426
102
{ACAD_REACTORS
330
C
102
}
330
C
100
AcDbDictionary
281
     1
  3
CANNOSCALE
350
429
  3
CMLEADERSTYLE
350
428
  3
CTABLESTYLE
350
427
  3
LIGHTINGUNITS
350
514
  3
MSLTSCALE
350
513
  0
DICTIONARY
  5
488
102
{ACAD_REACTORS
330
C
102
}
330
C
100
AcDbDictionary
281
     1
  3
AcmStdDictionary
350
493
  0
DICTIONARY
  5
467
102
{ACAD_REACTORS
330
C
102
}
330
C
100
AcDbDictionary
281
     1
  0
DICTIONARY
  5
4CA
102
{ACAD_REACTORS
330
C
102
}
330
C
100
AcDbDictionary
281
     1
  0
XRECORD
  5
4D6
102
{ACAD_REACTORS
330
4D5
102
}
330
4D5
100
AcDbXrecord
280
     1
290
     1
  0
XRECORD
  5
4D8
102
{ACAD_REACTORS
330
4D7
102
}
330
4D7
100
AcDbXrecord
280
     1
290
     1
  0
XRECORD
  5
4DA
102
{ACAD_REACTORS
330
4D9
102
}
330
4D9
100
AcDbXrecord
280
     1
290
     1
  0
XRECORD
  5
4DC
102
{ACAD_REACTORS
330
4DB
102
}
330
4DB
100
AcDbXrecord
280
     1
290
     1
  0
XRECORD
  5
4DE
102
{ACAD_REACTORS
330
4DD
102
}
330
4DD
100
AcDbXrecord
280
     1
290
     1
  0
XRECORD
  5
4E0
102
{ACAD_REACTORS
330
4DF
102
}
330
4DF
100
AcDbXrecord
280
     1
290
     1
  0
XRECORD
  5
4E2
102
{ACAD_REACTORS
330
4E1
102
}
330
4E1
100
AcDbXrecord
280
     1
290
     1
  0
XRECORD
  5
4E4
102
{ACAD_REACTORS
330
4E3
102
}
330
4E3
100
AcDbXrecord
280
     1
290
     1
  0
XRECORD
  5
4E6
102
{ACAD_REACTORS
330
4E5
102
}
330
4E5
100
AcDbXrecord
280
     1
290
     1
  0
XRECORD
  5
4E8
102
{ACAD_REACTORS
330
4E7
102
}
330
4E7
100
AcDbXrecord
280
     1
290
     1
  0
XRECORD
  5
4EA
102
{ACAD_REACTORS
330
4E9
102
}
330
4E9
100
AcDbXrecord
280
     1
290
     1
  0
XRECORD
  5
6A9
102
{ACAD_REACTORS
330
6A8
102
}
330
6A8
100
AcDbXrecord
280
     1
 70
     1
  0
XRECORD
  5
6AB
102
{ACAD_REACTORS
330
6A8
102
}
330
6A8
100
AcDbXrecord
280
     1
340
14
  0
XRECORD
  5
6AC
102
{ACAD_REACTORS
330
6A8
102
}
330
6A8
100
AcDbXrecord
280
     1
340
14
  0
XRECORD
  5
6AA
102
{ACAD_REACTORS
330
6A8
102
}
330
6A8
100
AcDbXrecord
280
     1
340
14
  0
LAYOUT
  5
3CE
102
{ACAD_REACTORS
330
1A
102
}
330
1A
100
AcDbPlotSettings
  1

  2
none_device
  4
ANSI_C_(22.00_x_17.00_Inches)
  6

 40
0.0
 41
0.0
 42
0.0
 43
0.0
 44
558.8
 45
431.8
 46
0.0
 47
0.0
 48
0.0
 49
0.0
140
0.0
141
0.0
142
1.0
143
1.0
 70
     0
 72
     0
 73
     0
 74
     0
  7

 75
     0
147
1.0
 76
     0
 77
     2
 78
   300
148
0.0
149
0.0
100
AcDbLayout
  1
Layout1
 70
     1
 71
     1
 10
0.0
 20
0.0
 11
12.0
 21
9.0
 12
0.0
 22
0.0
 32
0.0
 14
1.000000000000000E+20
 24
1.000000000000000E+20
 34
1.000000000000000E+20
 15
-1.000000000000000E+20
 25
-1.000000000000000E+20
 35
-1.000000000000000E+20
146
0.0
 13
0.0
 23
0.0
 33
0.0
 16
1.0
 26
0.0
 36
0.0
 17
0.0
 27
1.0
 37
0.0
 76
     0
330
207
  0
LAYOUT
  5
3CD
102
{ACAD_REACTORS
330
1A
102
}
330
1A
100
AcDbPlotSettings
  1

  2
none_device
  4
ANSI_C_(22.00_x_17.00_Inches)
  6

 40
0.0
 41
0.0
 42
0.0
 43
0.0
 44
558.8
 45
431.8
 46
0.0
 47
0.0
 48
0.0
 49
0.0
140
0.0
141
0.0
142
1.0
143
1.0
 70
  1024
 72
     0
 73
     0
 74
     0
  7

 75
     0
147
1.0
 76
     0
 77
     2
 78
   300
148
0.0
149
0.0
100
AcDbLayout
  1
Model
 70
     0
 71
     0
 10
0.0
 20
0.0
 11
22.0
 21
17.0
 12
0.0
 22
0.0
 32
0.0
 14
0.0
 24
0.0
 34
0.0
 15
0.0
 25
0.0
 35
0.0
146
0.0
 13
0.0
 23
0.0
 33
0.0
 16
1.0
 26
0.0
 36
0.0
 17
0.0
 27
1.0
 37
0.0
 76
     0
330
206
331
1F4
  0
MATERIAL
  5
3DA
102
{ACAD_XDICTIONARY
360
3DB
102
}
102
{ACAD_REACTORS
330
3D1
102
}
330
3D1
100
AcDbMaterial
  1
ByBlock
 72
     0
 43
0.0208333333333333
 43
0.0
 43
0.0
 43
0.0
 43
0.0
 43
0.0208333333333333
 43
0.0
 43
0.0
 43
0.0
 43
0.0
 43
1.0
 43
0.0
 43
0.0
 43
0.0
 43
0.0
 43
1.0
 77
     0
 47
0.0208333333333333
 47
0.0
 47
0.0
 47
0.0
 47
0.0
 47
0.0208333333333333
 47
0.0
 47
0.0
 47
0.0
 47
0.0
 47
1.0
 47
0.0
 47
0.0
 47
0.0
 47
0.0
 47
1.0
171
     0
 49
0.0208333333333333
 49
0.0
 49
0.0
 49
0.0
 49
0.0
 49
0.0208333333333333
 49
0.0
 49
0.0
 49
0.0
 49
0.0
 49
1.0
 49
0.0
 49
0.0
 49
0.0
 49
0.0
 49
1.0
175
     0
142
0.0208333333333333
142
0.0
142
0.0
142
0.0
142
0.0
142
0.0208333333333333
142
0.0
142
0.0
142
0.0
142
0.0
142
1.0
142
0.0
142
0.0
142
0.0
142
0.0
142
1.0
179
     0
144
0.0208333333333333
144
0.0
144
0.0
144
0.0
144
0.0
144
0.0208333333333333
144
0.0
144
0.0
144
0.0
144
0.0
144
1.0
144
0.0
144
0.0
144
0.0
144
0.0
144
1.0
147
0.0208333333333333
147
0.0
147
0.0
147
0.0
147
0.0
147
0.0208333333333333
147
0.0
147
0.0
147
0.0
147
0.0
147
1.0
147
0.0
147
0.0
147
0.0
147
0.0
147
1.0
  0
MATERIAL
  5
3D2
102
{ACAD_XDICTIONARY
360
3D3
102
}
102
{ACAD_REACTORS
330
3D1
102
}
330
3D1
100
AcDbMaterial
  1
ByLayer
 72
     0
 43
0.0208333333333333
 43
0.0
 43
0.0
 43
0.0
 43
0.0
 43
0.0208333333333333
 43
0.0
 43
0.0
 43
0.0
 43
0.0
 43
1.0
 43
0.0
 43
0.0
 43
0.0
 43
0.0
 43
1.0
 77
     0
 47
0.0208333333333333
 47
0.0
 47
0.0
 47
0.0
 47
0.0
 47
0.0208333333333333
 47
0.0
 47
0.0
 47
0.0
 47
0.0
 47
1.0
 47
0.0
 47
0.0
 47
0.0
 47
0.0
 47
1.0
171
     0
 49
0.0208333333333333
 49
0.0
 49
0.0
 49
0.0
 49
0.0
 49
0.0208333333333333
 49
0.0
 49
0.0
 49
0.0
 49
0.0
 49
1.0
 49
0.0
 49
0.0
 49
0.0
 49
0.0
 49
1.0
175
     0
142
0.0208333333333333
142
0.0
142
0.0
142
0.0
142
0.0
142
0.0208333333333333
142
0.0
142
0.0
142
0.0
142
0.0
142
1.0
142
0.0
142
0.0
142
0.0
142
0.0
142
1.0
179
     0
144
0.0208333333333333
144
0.0
144
0.0
144
0.0
144
0.0
144
0.0208333333333333
144
0.0
144
0.0
144
0.0
144
0.0
144
1.0
144
0.0
144
0.0
144
0.0
144
0.0
144
1.0
147
0.0208333333333333
147
0.0
147
0.0
147
0.0
147
0.0
147
0.0208333333333333
147
0.0
147
0.0
147
0.0
147
0.0
147
1.0
147
0.0
147
0.0
147
0.0
147
0.0
147
1.0
  0
MATERIAL
  5
3E2
102
{ACAD_XDICTIONARY
360
3E3
102
}
102
{ACAD_REACTORS
330
3D1
102
}
330
3D1
100
AcDbMaterial
  1
Global
 72
     0
 43
0.0208333333333333
 43
0.0
 43
0.0
 43
0.0
 43
0.0
 43
0.0208333333333333
 43
0.0
 43
0.0
 43
0.0
 43
0.0
 43
1.0
 43
0.0
 43
0.0
 43
0.0
 43
0.0
 43
1.0
 77
     0
 47
0.0208333333333333
 47
0.0
 47
0.0
 47
0.0
 47
0.0
 47
0.0208333333333333
 47
0.0
 47
0.0
 47
0.0
 47
0.0
 47
1.0
 47
0.0
 47
0.0
 47
0.0
 47
0.0
 47
1.0
171
     0
 49
0.0208333333333333
 49
0.0
 49
0.0
 49
0.0
 49
0.0
 49
0.0208333333333333
 49
0.0
 49
0.0
 49
0.0
 49
0.0
 49
1.0
 49
0.0
 49
0.0
 49
0.0
 49
0.0
 49
1.0
175
     0
142
0.0208333333333333
142
0.0
142
0.0
142
0.0
142
0.0
142
0.0208333333333333
142
0.0
142
0.0
142
0.0
142
0.0
142
1.0
142
0.0
142
0.0
142
0.0
142
0.0
142
1.0
179
     0
144
0.0208333333333333
144
0.0
144
0.0
144
0.0
144
0.0
144
0.0208333333333333
144
0.0
144
0.0
144
0.0
144
0.0
144
1.0
144
0.0
144
0.0
144
0.0
144
0.0
144
1.0
147
0.0208333333333333
147
0.0
147
0.0
147
0.0
147
0.0
147
0.0208333333333333
147
0.0
147
0.0
147
0.0
147
0.0
147
1.0
147
0.0
147
0.0
147
0.0
147
0.0
147
1.0
  0
MLEADERSTYLE
  5
421
102
{ACAD_REACTORS
330
420
102
}
330
420
100
AcDbMLeaderStyle
170
     2
171
     1
172
     0
 90
        2
 40
0.0
 41
0.0
173
     1
 91
-1056964608
340
14
 92
       -2
290
     1
 42
0.09
291
     1
 43
0.36
  3
Standard
 44
0.18
300

342
11
174
     1
178
     6
175
     1
176
     0
 93
-1056964608
 45
0.18
292
     0
297
     0
 46
0.18
 94
-1056964608
 47
1.0
 49
1.0
140
1.0
293
     1
141
0.0
294
     1
177
     0
142
1.0
295
     0
296
     0
143
0.125
1001
ACAD_MLEADERVER
1070
     2
  0
MLINESTYLE
  5
18
102
{ACAD_REACTORS
330
17
102
}
330
17
100
AcDbMlineStyle
  2
STANDARD
 70
     0
  3

 62
   256
 51
90.0
 52
90.0
 71
     2
 49
0.5
 62
   256
  6
BYLAYER
 49
-0.5
 62
   256
  6
BYLAYER
  0
ACDBPLACEHOLDER
  5
F
102
{ACAD_REACTORS
330
E
102
}
330
E
  0
SCALE
  5
3FF
102
{ACAD_REACTORS
330
3FE
102
}
330
3FE
100
AcDbScale
 70
     0
300
1:1
140
1.0
141
1.0
290
     1
  0
SCALE
  5
400
102
{ACAD_REACTORS
330
3FE
102
}
330
3FE
100
AcDbScale
 70
     0
300
1:2
140
1.0
141
2.0
290
     0
  0
SCALE
  5
401
102
{ACAD_REACTORS
330
3FE
102
}
330
3FE
100
AcDbScale
 70
     0
300
1:4
140
1.0
141
4.0
290
     0
  0
SCALE
  5
402
102
{ACAD_REACTORS
330
3FE
102
}
330
3FE
100
AcDbScale
 70
     0
300
1:5
140
1.0
141
5.0
290
     0
  0
SCALE
  5
403
102
{ACAD_REACTORS
330
3FE
102
}
330
3FE
100
AcDbScale
 70
     0
300
1:8
140
1.0
141
8.0
290
     0
  0
SCALE
  5
404
102
{ACAD_REACTORS
330
3FE
102
}
330
3FE
100
AcDbScale
 70
     0
300
1:10
140
1.0
141
10.0
290
     0
  0
SCALE
  5
405
102
{ACAD_REACTORS
330
3FE
102
}
330
3FE
100
AcDbScale
 70
     0
300
1:16
140
1.0
141
16.0
290
     0
  0
SCALE
  5
406
102
{ACAD_REACTORS
330
3FE
102
}
330
3FE
100
AcDbScale
 70
     0
300
1:20
140
1.0
141
20.0
290
     0
  0
SCALE
  5
407
102
{ACAD_REACTORS
330
3FE
102
}
330
3FE
100
AcDbScale
 70
     0
300
1:30
140
1.0
141
30.0
290
     0
  0
SCALE
  5
408
102
{ACAD_REACTORS
330
3FE
102
}
330
3FE
100
AcDbScale
 70
     0
300
1:40
140
1.0
141
40.0
290
     0
  0
SCALE
  5
409
102
{ACAD_REACTORS
330
3FE
102
}
330
3FE
100
AcDbScale
 70
     0
300
1:50
140
1.0
141
50.0
290
     0
  0
SCALE
  5
40A
102
{ACAD_REACTORS
330
3FE
102
}
330
3FE
100
AcDbScale
 70
     0
300
1:100
140
1.0
141
100.0
290
     0
  0
SCALE
  5
40B
102
{ACAD_REACTORS
330
3FE
102
}
330
3FE
100
AcDbScale
 70
     0
300
2:1
140
2.0
141
1.0
290
     0
  0
SCALE
  5
40C
102
{ACAD_REACTORS
330
3FE
102
}
330
3FE
100
AcDbScale
 70
     0
300
4:1
140
4.0
141
1.0
290
     0
  0
SCALE
  5
40D
102
{ACAD_REACTORS
330
3FE
102
}
330
3FE
100
AcDbScale
 70
     0
300
8:1
140
8.0
141
1.0
290
     0
  0
SCALE
  5
40E
102
{ACAD_REACTORS
330
3FE
102
}
330
3FE
100
AcDbScale
 70
     0
300
10:1
140
10.0
141
1.0
290
     0
  0
SCALE
  5
40F
102
{ACAD_REACTORS
330
3FE
102
}
330
3FE
100
AcDbScale
 70
     0
300
100:1
140
100.0
141
1.0
290
     0
  0
SCALE
  5
410
102
{ACAD_REACTORS
330
3FE
102
}
330
3FE
100
AcDbScale
 70
     0
300
1/128" = 1'-0"
140
0.0078125
141
12.0
290
     0
  0
SCALE
  5
411
102
{ACAD_REACTORS
330
3FE
102
}
330
3FE
100
AcDbScale
 70
     0
300
1/64" = 1'-0"
140
0.015625
141
12.0
290
     0
  0
SCALE
  5
412
102
{ACAD_REACTORS
330
3FE
102
}
330
3FE
100
AcDbScale
 70
     0
300
1/32" = 1'-0"
140
0.03125
141
12.0
290
     0
  0
SCALE
  5
413
102
{ACAD_REACTORS
330
3FE
102
}
330
3FE
100
AcDbScale
 70
     0
300
1/16" = 1'-0"
140
0.0625
141
12.0
290
     0
  0
SCALE
  5
414
102
{ACAD_REACTORS
330
3FE
102
}
330
3FE
100
AcDbScale
 70
     0
300
3/32" = 1'-0"
140
0.09375
141
12.0
290
     0
  0
SCALE
  5
415
102
{ACAD_REACTORS
330
3FE
102
}
330
3FE
100
AcDbScale
 70
     0
300
1/8" = 1'-0"
140
0.125
141
12.0
290
     0
  0
SCALE
  5
416
102
{ACAD_REACTORS
330
3FE
102
}
330
3FE
100
AcDbScale
 70
     0
300
3/16" = 1'-0"
140
0.1875
141
12.0
290
     0
  0
SCALE
  5
417
102
{ACAD_REACTORS
330
3FE
102
}
330
3FE
100
AcDbScale
 70
     0
300
1/4" = 1'-0"
140
0.25
141
12.0
290
     0
  0
SCALE
  5
418
102
{ACAD_REACTORS
330
3FE
102
}
330
3FE
100
AcDbScale
 70
     0
300
3/8" = 1'-0"
140
0.375
141
12.0
290
     0
  0
SCALE
  5
419
102
{ACAD_REACTORS
330
3FE
102
}
330
3FE
100
AcDbScale
 70
     0
300
1/2" = 1'-0"
140
0.5
141
12.0
290
     0
  0
SCALE
  5
41A
102
{ACAD_REACTORS
330
3FE
102
}
330
3FE
100
AcDbScale
 70
     0
300
3/4" = 1'-0"
140
0.75
141
12.0
290
     0
  0
SCALE
  5
41B
102
{ACAD_REACTORS
330
3FE
102
}
330
3FE
100
AcDbScale
 70
     0
300
1" = 1'-0"
140
1.0
141
12.0
290
     0
  0
SCALE
  5
41C
102
{ACAD_REACTORS
330
3FE
102
}
330
3FE
100
AcDbScale
 70
     0
300
1-1/2" = 1'-0"
140
1.5
141
12.0
290
     0
  0
SCALE
  5
41D
102
{ACAD_REACTORS
330
3FE
102
}
330
3FE
100
AcDbScale
 70
     0
300
3" = 1'-0"
140
3.0
141
12.0
290
     0
  0
SCALE
  5
41E
102
{ACAD_REACTORS
330
3FE
102
}
330
3FE
100
AcDbScale
 70
     0
300
6" = 1'-0"
140
6.0
141
12.0
290
     0
  0
SCALE
  5
41F
102
{ACAD_REACTORS
330
3FE
102
}
330
3FE
100
AcDbScale
 70
     0
300
1'-0" = 1'-0"
140
12.0
141
12.0
290
     0
  0
TABLESTYLE
  5
3FD
102
{ACAD_XDICTIONARY
360
423
102
}
102
{ACAD_REACTORS
330
3FC
102
}
330
3FC
100
AcDbTableStyle
  3
Standard
 70
     0
 71
     0
 40
0.06
 41
0.06
280
     0
281
     0
  7
STANDARD
140
0.18
170
     2
 62
     0
 63
     7
283
     0
274
    -2
284
     1
 64
     0
275
    -2
285
     1
 65
     0
276
    -2
286
     1
 66
     0
277
    -2
287
     1
 67
     0
278
    -2
288
     1
 68
     0
279
    -2
289
     1
 69
     0
  7
STANDARD
140
0.25
170
     5
 62
     0
 63
     7
283
     0
274
    -2
284
     1
 64
     0
275
    -2
285
     1
 65
     0
276
    -2
286
     1
 66
     0
277
    -2
287
     1
 67
     0
278
    -2
288
     1
 68
     0
279
    -2
289
     1
 69
     0
  7
STANDARD
140
0.18
170
     5
 62
     0
 63
     7
283
     0
274
    -2
284
     1
 64
     0
275
    -2
285
     1
 65
     0
276
    -2
286
     1
 66
     0
277
    -2
287
     1
 67
     0
278
    -2
288
     1
 68
     0
279
    -2
289
     1
 69
     0
  0
VISUALSTYLE
  5
3F0
102
{ACAD_REACTORS
330
3EA
102
}
330
3EA
100
AcDbVisualStyle
  2
2dWireframe
 70
     4
 71
     0
 72
     2
 73
     0
 90
        0
 40
-0.6
 41
-30.0
 62
     5
 63
     7
421
 16777215
 74
     1
 91
        4
 64
     7
 65
   257
 75
     1
175
     1
 42
1.0
 92
        0
 66
   257
 43
1.0
 76
     1
 77
     6
 78
     2
 67
     7
 79
     5
170
     0
171
     0
290
     0
174
     0
 93
        1
 44
0.0
173
     0
291
     0
 45
0.0
1001
ACAD
1000
AcDbSavedByObjectVersion
1070
     0
  0
VISUALSTYLE
  5
3F2
102
{ACAD_REACTORS
330
3EA
102
}
330
3EA
100
AcDbVisualStyle
  2
3D Hidden
 70
     6
 71
     1
 72
     2
 73
     2
 90
        0
 40
-0.6
 41
-30.0
 62
     5
 63
     7
421
 16777215
 74
     2
 91
        2
 64
     7
 65
   257
 75
     2
175
     1
 42
40.0
 92
        0
 66
   257
 43
1.0
 76
     1
 77
     6
 78
     2
 67
     7
 79
     3
170
     0
171
     0
290
     0
174
     0
 93
        1
 44
0.0
173
     0
291
     0
 45
0.0
1001
ACAD
1000
AcDbSavedByObjectVersion
1070
     0
  0
VISUALSTYLE
  5
3F1
102
{ACAD_REACTORS
330
3EA
102
}
330
3EA
100
AcDbVisualStyle
  2
3dWireframe
 70
     5
 71
     0
 72
     2
 73
     0
 90
        0
 40
-0.6
 41
-30.0
 62
     5
 63
     7
421
 16777215
 74
     1
 91
        4
 64
     7
 65
   257
 75
     1
175
     1
 42
1.0
 92
        0
 66
   257
 43
1.0
 76
     1
 77
     6
 78
     2
 67
     7
 79
     5
170
     0
171
     0
290
     0
174
     0
 93
        1
 44
0.0
173
     0
291
     0
 45
0.0
1001
ACAD
1000
AcDbSavedByObjectVersion
1070
     0
  0
VISUALSTYLE
  5
3EF
102
{ACAD_REACTORS
330
3EA
102
}
330
3EA
100
AcDbVisualStyle
  2
Basic
 70
     7
 71
     1
 72
     0
 73
     1
 90
        0
 40
-0.6
 41
-30.0
 62
     5
 63
     7
421
 16777215
 74
     0
 91
        4
 64
     7
 65
   257
 75
     1
175
     1
 42
1.0
 92
        8
 66
     7
 43
1.0
 76
     1
 77
     6
 78
     2
 67
     7
 79
     5
170
     0
171
     0
290
     0
174
     0
 93
        1
 44
0.0
173
     0
291
     1
 45
0.0
1001
ACAD
1000
AcDbSavedByObjectVersion
1070
     0
  0
VISUALSTYLE
  5
3F6
102
{ACAD_REACTORS
330
3EA
102
}
330
3EA
100
AcDbVisualStyle
  2
Brighten
 70
    12
 71
     2
 72
     2
 73
     0
 90
        0
 40
-0.6
 41
-30.0
 62
     5
 63
     7
421
 16777215
 74
     1
 91
        4
 64
     7
 65
   257
 75
     1
175
     1
 42
1.0
 92
        8
 66
     7
 43
1.0
 76
     1
 77
     6
 78
     2
 67
     7
 79
     5
170
     0
171
     0
290
     0
174
     0
 93
        1
 44
50.0
173
     0
291
     1
 45
0.0
1001
ACAD
1000
AcDbSavedByObjectVersion
1070
     0
  0
VISUALSTYLE
  5
3FA
102
{ACAD_REACTORS
330
3EA
102
}
330
3EA
100
AcDbVisualStyle
  2
ColorChange
 70
    16
 71
     2
 72
     2
 73
     3
 90
        0
 40
-0.6
 41
-30.0
 62
     5
 63
     8
421
  8421504
 74
     1
 91
        4
 64
     7
 65
   257
 75
     1
175
     1
 42
1.0
 92
        8
 66
     8
424
  8421504
 43
1.0
 76
     1
 77
     6
 78
     2
 67
     7
 79
     5
170
     0
171
     0
290
     0
174
     0
 93
        1
 44
0.0
173
     0
291
     1
 45
0.0
1001
ACAD
1000
AcDbSavedByObjectVersion
1070
     0
  0
VISUALSTYLE
  5
3F3
102
{ACAD_REACTORS
330
3EA
102
}
330
3EA
100
AcDbVisualStyle
  2
Conceptual
 70
     9
 71
     3
 72
     2
 73
     0
 90
        0
 40
-0.6
 41
-30.0
 62
     5
 63
     7
421
 16777215
 74
     2
 91
        2
 64
     7
 65
   257
 75
     1
175
     1
 42
40.0
 92
        8
 66
     7
 43
1.0
 76
     1
 77
     6
 78
     2
 67
     7
 79
     3
170
     0
171
     0
290
     0
174
     0
 93
        1
 44
0.0
173
     0
291
     0
 45
0.0
1001
ACAD
1000
AcDbSavedByObjectVersion
1070
     0
  0
VISUALSTYLE
  5
3F5
102
{ACAD_REACTORS
330
3EA
102
}
330
3EA
100
AcDbVisualStyle
  2
Dim
 70
    11
 71
     2
 72
     2
 73
     0
 90
        0
 40
-0.6
 41
-30.0
 62
     5
 63
     7
421
 16777215
 74
     1
 91
        4
 64
     7
 65
   257
 75
     1
175
     1
 42
1.0
 92
        8
 66
     7
 43
1.0
 76
     1
 77
     6
 78
     2
 67
     7
 79
     5
170
     0
171
     0
290
     0
174
     0
 93
        1
 44
-50.0
173
     0
291
     1
 45
0.0
1001
ACAD
1000
AcDbSavedByObjectVersion
1070
     0
  0
VISUALSTYLE
  5
3F9
102
{ACAD_REACTORS
330
3EA
102
}
330
3EA
100
AcDbVisualStyle
  2
Facepattern
 70
    15
 71
     2
 72
     2
 73
     0
 90
        0
 40
-0.6
 41
-30.0
 62
     5
 63
     7
421
 16777215
 74
     1
 91
        4
 64
     7
 65
   257
 75
     1
175
     1
 42
1.0
 92
        8
 66
     7
 43
1.0
 76
     1
 77
     6
 78
     2
 67
     7
 79
     5
170
     0
171
     0
290
     0
174
     0
 93
        1
 44
0.0
173
     0
291
     1
 45
0.0
1001
ACAD
1000
AcDbSavedByObjectVersion
1070
     0
  0
VISUALSTYLE
  5
3EB
102
{ACAD_REACTORS
330
3EA
102
}
330
3EA
100
AcDbVisualStyle
  2
Flat
 70
     0
 71
     2
 72
     1
 73
     1
 90
        2
 40
-0.6
 41
30.0
 62
     5
 63
     7
421
 16777215
 74
     0
 91
        4
 64
     7
 65
   257
 75
     1
175
     1
 42
1.0
 92
        8
 66
     7
 43
1.0
 76
     1
 77
     6
 78
     2
 67
     7
 79
     5
170
     0
171
     0
290
     0
174
     0
 93
       13
 44
0.0
173
     0
291
     1
 45
0.0
1001
ACAD
1000
AcDbSavedByObjectVersion
1070
     0
  0
VISUALSTYLE
  5
3EC
102
{ACAD_REACTORS
330
3EA
102
}
330
3EA
100
AcDbVisualStyle
  2
FlatWithEdges
 70
     1
 71
     2
 72
     1
 73
     1
 90
        2
 40
-0.6
 41
30.0
 62
     5
 63
     7
421
 16777215
 74
     1
 91
        4
 64
     7
 65
   257
 75
     1
175
     1
 42
1.0
 92
        0
 66
   257
 43
1.0
 76
     1
 77
     6
 78
     2
 67
     7
 79
     5
170
     0
171
     0
290
     0
174
     0
 93
       13
 44
0.0
173
     0
291
     1
 45
0.0
1001
ACAD
1000
AcDbSavedByObjectVersion
1070
     0
  0
VISUALSTYLE
  5
3ED
102
{ACAD_REACTORS
330
3EA
102
}
330
3EA
100
AcDbVisualStyle
  2
Gouraud
 70
     2
 71
     2
 72
     2
 73
     1
 90
        2
 40
-0.6
 41
30.0
 62
     5
 63
     7
421
 16777215
 74
     0
 91
        4
 64
     7
 65
   257
 75
     1
175
     1
 42
1.0
 92
        0
 66
     7
 43
1.0
 76
     1
 77
     6
 78
     2
 67
     7
 79
     5
170
     0
171
     0
290
     0
174
     0
 93
       13
 44
0.0
173
     0
291
     1
 45
0.0
1001
ACAD
1000
AcDbSavedByObjectVersion
1070
     0
  0
VISUALSTYLE
  5
3EE
102
{ACAD_REACTORS
330
3EA
102
}
330
3EA
100
AcDbVisualStyle
  2
GouraudWithEdges
 70
     3
 71
     2
 72
     2
 73
     1
 90
        2
 40
-0.6
 41
30.0
 62
     5
 63
     7
421
 16777215
 74
     1
 91
        4
 64
     7
 65
   257
 75
     1
175
     1
 42
1.0
 92
        0
 66
   257
 43
1.0
 76
     1
 77
     6
 78
     2
 67
     7
 79
     5
170
     0
171
     0
290
     0
174
     0
 93
       13
 44
0.0
173
     0
291
     1
 45
0.0
1001
ACAD
1000
AcDbSavedByObjectVersion
1070
     0
  0
VISUALSTYLE
  5
3F8
102
{ACAD_REACTORS
330
3EA
102
}
330
3EA
100
AcDbVisualStyle
  2
Linepattern
 70
    14
 71
     2
 72
     2
 73
     0
 90
        0
 40
-0.6
 41
-30.0
 62
     5
 63
     7
421
 16777215
 74
     1
 91
        4
 64
     7
 65
   257
 75
     7
175
     7
 42
1.0
 92
        8
 66
     7
 43
1.0
 76
     1
 77
     6
 78
     2
 67
     7
 79
     5
170
     0
171
     0
290
     0
174
     0
 93
        1
 44
0.0
173
     0
291
     1
 45
0.0
1001
ACAD
1000
AcDbSavedByObjectVersion
1070
     0
  0
VISUALSTYLE
  5
3F4
102
{ACAD_REACTORS
330
3EA
102
}
330
3EA
100
AcDbVisualStyle
  2
Realistic
 70
     8
 71
     2
 72
     2
 73
     0
 90
        0
 40
-0.6
 41
-30.0
 62
     5
 63
     7
421
 16777215
 74
     1
 91
        0
 64
     7
 65
   257
 75
     1
175
     1
 42
1.0
 92
        8
 66
     8
424
  7895160
 43
1.0
 76
     1
 77
     6
 78
     2
 67
     7
 79
     5
170
     0
171
     0
290
     0
174
     0
 93
       13
 44
0.0
173
     0
291
     0
 45
0.0
1001
ACAD
1000
AcDbSavedByObjectVersion
1070
     0
  0
VISUALSTYLE
  5
3F7
102
{ACAD_REACTORS
330
3EA
102
}
330
3EA
100
AcDbVisualStyle
  2
Thicken
 70
    13
 71
     2
 72
     2
 73
     0
 90
        0
 40
-0.6
 41
-30.0
 62
     5
 63
     7
421
 16777215
 74
     1
 91
        4
 64
     7
 65
   257
 75
     1
175
     1
 42
1.0
 92
       12
 66
     7
 43
1.0
 76
     1
 77
     6
 78
     2
 67
     7
 79
     5
170
     0
171
     0
290
     0
174
     0
 93
        1
 44
0.0
173
     0
291
     1
 45
0.0
1001
ACAD
1000
AcDbSavedByObjectVersion
1070
     0
  0
DICTIONARYVAR
  5
429
102
{ACAD_REACTORS
330
426
102
}
330
426
100
DictionaryVariables
280
     0
  1
1:1
  0
DICTIONARYVAR
  5
428
102
{ACAD_REACTORS
330
426
102
}
330
426
100
DictionaryVariables
280
     0
  1
STANDARD
  0
DICTIONARYVAR
  5
427
102
{ACAD_REACTORS
330
426
102
}
330
426
100
DictionaryVariables
280
     0
  1
STANDARD
  0
DICTIONARYVAR
  5
514
102
{ACAD_REACTORS
330
426
102
}
330
426
100
DictionaryVariables
280
     0
  1
2
  0
DICTIONARYVAR
  5
513
102
{ACAD_REACTORS
330
426
102
}
330
426
100
DictionaryVariables
280
     0
  1
1
  0
DICTIONARY
  5
493
102
{ACAD_REACTORS
330
488
102
}
330
488
100
AcDbDictionary
281
     1
  0
DICTIONARY
  5
3DB
330
3DA
100
AcDbDictionary
280
     1
281
     1
  3
ACAD_XREC_ROUNDTRIP
360
6AE
  3
BUMPTILE
360
3DD
  3
DIFFUSETILE
360
3DC
  3
OPACITYTILE
360
3E0
  3
REFLECTIONTILE
360
3DF
  3
REFRACTIONTILE
360
3E1
  3
SPECULARTILE
360
3DE
  0
DICTIONARY
  5
3D3
330
3D2
100
AcDbDictionary
280
     1
281
     1
  3
ACAD_XREC_ROUNDTRIP
360
6AD
  3
BUMPTILE
360
3D5
  3
DIFFUSETILE
360
3D4
  3
OPACITYTILE
360
3D8
  3
REFLECTIONTILE
360
3D7
  3
REFRACTIONTILE
360
3D9
  3
SPECULARTILE
360
3D6
  0
DICTIONARY
  5
3E3
330
3E2
100
AcDbDictionary
280
     1
281
     1
  3
ACAD_XREC_ROUNDTRIP
360
6AF
  3
BUMPTILE
360
3E5
  3
DIFFUSETILE
360
3E4
  3
OPACITYTILE
360
3E8
  3
REFLECTIONTILE
360
3E7
  3
REFRACTIONTILE
360
3E9
  3
SPECULARTILE
360
3E6
  0
DICTIONARY
  5
423
330
3FD
100
AcDbDictionary
280
     1
281
     1
  3
ACAD_ROUNDTRIP_2008_TABLESTYLE_CELLSTYLEMAP
360
6A7
  3
ACAD_XREC_ROUNDTRIP
360
6B0
  0
XRECORD
  5
6AE
102
{ACAD_REACTORS
330
3DB
102
}
330
3DB
100
AcDbXrecord
280
     1
102
MATERIAL
148
0.0
149
0.0
149
0.0
 93
        0
 94
      127
282
     0
 72
     0
 77
     0
171
     0
175
     0
179
     0
273
     0
  0
XRECORD
  5
3DD
102
{ACAD_REACTORS
330
3DB
102
}
330
3DB
100
AcDbXrecord
280
     1
270
     1
271
     1
  0
XRECORD
  5
3DC
102
{ACAD_REACTORS
330
3DB
102
}
330
3DB
100
AcDbXrecord
280
     1
270
     1
271
     1
  0
XRECORD
  5
3E0
102
{ACAD_REACTORS
330
3DB
102
}
330
3DB
100
AcDbXrecord
280
     1
270
     1
271
     1
  0
XRECORD
  5
3DF
102
{ACAD_REACTORS
330
3DB
102
}
330
3DB
100
AcDbXrecord
280
     1
270
     1
271
     1
  0
XRECORD
  5
3E1
102
{ACAD_REACTORS
330
3DB
102
}
330
3DB
100
AcDbXrecord
280
     1
270
     1
271
     1
  0
XRECORD
  5
3DE
102
{ACAD_REACTORS
330
3DB
102
}
330
3DB
100
AcDbXrecord
280
     1
270
     1
271
     1
  0
XRECORD
  5
6AD
102
{ACAD_REACTORS
330
3D3
102
}
330
3D3
100
AcDbXrecord
280
     1
102
MATERIAL
148
0.0
149
0.0
149
0.0
 93
        0
 94
      127
282
     0
 72
     0
 77
     0
171
     0
175
     0
179
     0
273
     0
  0
XRECORD
  5
3D5
102
{ACAD_REACTORS
330
3D3
102
}
330
3D3
100
AcDbXrecord
280
     1
270
     1
271
     1
  0
XRECORD
  5
3D4
102
{ACAD_REACTORS
330
3D3
102
}
330
3D3
100
AcDbXrecord
280
     1
270
     1
271
     1
  0
XRECORD
  5
3D8
102
{ACAD_REACTORS
330
3D3
102
}
330
3D3
100
AcDbXrecord
280
     1
270
     1
271
     1
  0
XRECORD
  5
3D7
102
{ACAD_REACTORS
330
3D3
102
}
330
3D3
100
AcDbXrecord
280
     1
270
     1
271
     1
  0
XRECORD
  5
3D9
102
{ACAD_REACTORS
330
3D3
102
}
330
3D3
100
AcDbXrecord
280
     1
270
     1
271
     1
  0
XRECORD
  5
3D6
102
{ACAD_REACTORS
330
3D3
102
}
330
3D3
100
AcDbXrecord
280
     1
270
     1
271
     1
  0
XRECORD
  5
6AF
102
{ACAD_REACTORS
330
3E3
102
}
330
3E3
100
AcDbXrecord
280
     1
102
MATERIAL
148
0.0
149
0.0
149
0.0
 93
        0
 94
      127
282
     0
 72
     0
 77
     0
171
     0
175
     0
179
     0
273
     0
  0
XRECORD
  5
3E5
102
{ACAD_REACTORS
330
3E3
102
}
330
3E3
100
AcDbXrecord
280
     1
270
     1
271
     1
  0
XRECORD
  5
3E4
102
{ACAD_REACTORS
330
3E3
102
}
330
3E3
100
AcDbXrecord
280
     1
270
     1
271
     1
  0
XRECORD
  5
3E8
102
{ACAD_REACTORS
330
3E3
102
}
330
3E3
100
AcDbXrecord
280
     1
270
     1
271
     1
  0
XRECORD
  5
3E7
102
{ACAD_REACTORS
330
3E3
102
}
330
3E3
100
AcDbXrecord
280
     1
270
     1
271
     1
  0
XRECORD
  5
3E9
102
{ACAD_REACTORS
330
3E3
102
}
330
3E3
100
AcDbXrecord
280
     1
270
     1
271
     1
  0
XRECORD
  5
3E6
102
{ACAD_REACTORS
330
3E3
102
}
330
3E3
100
AcDbXrecord
280
     1
270
     1
271
     1
  0
CELLSTYLEMAP
  5
6A7
102
{ACAD_REACTORS
330
423
102
}
330
423
100
AcDbCellStyleMap
 90
        3
300
CELLSTYLE
  1
TABLEFORMAT_BEGIN
 90
        5
170
     1
 91
        0
 92
    32768
 62
   257
 93
        1
300
CONTENTFORMAT
  1
CONTENTFORMAT_BEGIN
 90
        0
 91
        0
 92
      512
 93
        0
300

 40
0.0
140
1.0
 94
        5
 62
     0
340
11
144
0.25
309
CONTENTFORMAT_END
171
     0
 94
        0
309
TABLEFORMAT_END
  1
CELLSTYLE_BEGIN
 90
        1
 91
        1
300
_TITLE
309
CELLSTYLE_END
300
CELLSTYLE
  1
TABLEFORMAT_BEGIN
 90
        5
170
     1
 91
        0
 92
        0
 62
   257
 93
        1
300
CONTENTFORMAT
  1
CONTENTFORMAT_BEGIN
 90
        0
 91
        0
 92
      512
 93
        0
300

 40
0.0
140
1.0
 94
        5
 62
     0
340
11
144
0.18
309
CONTENTFORMAT_END
171
     0
 94
        0
309
TABLEFORMAT_END
  1
CELLSTYLE_BEGIN
 90
        2
 91
        1
300
_HEADER
309
CELLSTYLE_END
300
CELLSTYLE
  1
TABLEFORMAT_BEGIN
 90
        5
170
     1
 91
        0
 92
        0
 62
   257
 93
        1
300
CONTENTFORMAT
  1
CONTENTFORMAT_BEGIN
 90
        0
 91
        0
 92
      512
 93
        0
300

 40
0.0
140
1.0
 94
        2
 62
     0
340
11
144
0.18
309
CONTENTFORMAT_END
171
     0
 94
        0
309
TABLEFORMAT_END
  1
CELLSTYLE_BEGIN
 90
        3
 91
        2
300
_DATA
309
CELLSTYLE_END
  0
XRECORD
  5
6B0
102
{ACAD_REACTORS
330
423
102
}
330
423
100
AcDbXrecord
280
     1
102
ACAD_ROUNDTRIP_PRE2007_TABLESTYLE
 90
      512
 91
        0
  1

 92
      512
 93
        0
  2

 94
      512
 95
        0
  3

  0
ENDSEC
  0
EOF
