  0
SECTION
  2
HEADER
  9
$ACADVER
  1
AC1018
  9
$ACADMAINTVER
 70
   104
  9
$DWGCODEPAGE
  3
ANSI_936
  9
$LASTSAVEDBY
  1
ko59342
  9
$INSBASE
 10
0.0
 20
0.0
 30
0.0
  9
$EXTMIN
 10
-11.4576867797
 20
-7.2867631946
 30
0.0
  9
$EXTMAX
 10
21.4190583648
 20
20.41498880442182
 30
0.0
  9
$LIMMIN
 10
0.0
 20
0.0
  9
$LIMMAX
 10
22.0
 20
17.0
  9
$ORTHOMODE
 70
     1
  9
$REGENMODE
 70
     1
  9
$FILLMODE
 70
     1
  9
$QTEXTMODE
 70
     0
  9
$MIRRTEXT
 70
     0
  9
$LTSCALE
 40
1.209999999999999
  9
$ATTMODE
 70
     1
  9
$TEXTSIZE
 40
0.2
  9
$TRACEWID
 40
0.05
  9
$TEXTSTYLE
  7
STANDARD
  9
$CLAYER
  8
0
  9
$CELTYPE
  6
BYLAYER
  9
$CECOLOR
 62
   256
  9
$CELTSCALE
 40
1.0
  9
$DISPSILH
 70
     0
  9
$DIMSCALE
 40
1.0
  9
$DIMASZ
 40
0.12
  9
$DIMEXO
 40
0.05
  9
$DIMDLI
 40
0.5
  9
$DIMRND
 40
0.0
  9
$DIMDLE
 40
0.0
  9
$DIMEXE
 40
0.1
  9
$DIMTP
 40
0.1
  9
$DIMTM
 40
0.1
  9
$DIMTXT
 40
0.12
  9
$DIMCEN
 40
0.0
  9
$DIMTSZ
 40
0.0
  9
$DIMTOL
 70
     0
  9
$DIMLIM
 70
     0
  9
$DIMTIH
 70
     1
  9
$DIMTOH
 70
     1
  9
$DIMSE1
 70
     0
  9
$DIMSE2
 70
     0
  9
$DIMTAD
 70
     0
  9
$DIMZIN
 70
     7
  9
$DIMBLK
  1

  9
$DIMASO
 70
     1
  9
$DIMSHO
 70
     1
  9
$DIMPOST
  1

  9
$DIMAPOST
  1
mm
  9
$DIMALT
 70
     0
  9
$DIMALTD
 70
     2
  9
$DIMALTF
 40
25.4
  9
$DIMLFAC
 40
1.0
  9
$DIMTOFL
 70
     0
  9
$DIMTVP
 40
0.0
  9
$DIMTIX
 70
     0
  9
$DIMSOXD
 70
     0
  9
$DIMSAH
 70
     0
  9
$DIMBLK1
  1

  9
$DIMBLK2
  1

  9
$DIMSTYLE
  2
AM_ANSI
  9
$DIMCLRD
 70
   256
  9
$DIMCLRE
 70
   256
  9
$DIMCLRT
 70
     2
  9
$DIMTFAC
 40
0.71
  9
$DIMGAP
 40
0.06
  9
$DIMJUST
 70
     0
  9
$DIMSD1
 70
     0
  9
$DIMSD2
 70
     0
  9
$DIMTOLJ
 70
     1
  9
$DIMTZIN
 70
     7
  9
$DIMALTZ
 70
     0
  9
$DIMALTTZ
 70
     0
  9
$DIMUPT
 70
     0
  9
$DIMDEC
 70
     4
  9
$DIMTDEC
 70
     4
  9
$DIMALTU
 70
     2
  9
$DIMALTTD
 70
     4
  9
$DIMTXSTY
  7
STANDARD
  9
$DIMAUNIT
 70
     0
  9
$DIMADEC
 70
     0
  9
$DIMALTRND
 40
0.0
  9
$DIMAZIN
 70
     2
  9
$DIMDSEP
 70
    46
  9
$DIMATFIT
 70
     3
  9
$DIMFRAC
 70
     0
  9
$DIMLDRBLK
  1

  9
$DIMLUNIT
 70
     2
  9
$DIMLWD
 70
    -1
  9
$DIMLWE
 70
    -1
  9
$DIMTMOVE
 70
     0
  9
$LUNITS
 70
     2
  9
$LUPREC
 70
     4
  9
$SKETCHINC
 40
0.1
  9
$FILLETRAD
 40
0.0
  9
$AUNITS
 70
     0
  9
$AUPREC
 70
     0
  9
$MENU
  1
.
  9
$ELEVATION
 40
0.0
  9
$PELEVATION
 40
0.0
  9
$THICKNESS
 40
0.0
  9
$LIMCHECK
 70
     0
  9
$CHAMFERA
 40
0.0
  9
$CHAMFERB
 40
0.0
  9
$CHAMFERC
 40
0.0
  9
$CHAMFERD
 40
0.0
  9
$SKPOLY
 70
     0
  9
$TDCREATE
 40
2455757.365658437
  9
$TDUCREATE
 40
2455757.032325105
  9
$TDUPDATE
 40
2455757.372342697
  9
$TDUUPDATE
 40
2455757.039009363
  9
$TDINDWG
 40
0.0057424074
  9
$TDUSRTIMER
 40
0.0057424074
  9
$USRTIMER
 70
     1
  9
$ANGBASE
 50
0.0
  9
$ANGDIR
 70
     0
  9
$PDMODE
 70
     3
  9
$PDSIZE
 40
0.3125
  9
$PLINEWID
 40
0.0
  9
$SPLFRAME
 70
     0
  9
$SPLINETYPE
 70
     6
  9
$SPLINESEGS
 70
     8
  9
$HANDSEED
  5
58E
  9
$SURFTAB1
 70
     6
  9
$SURFTAB2
 70
     6
  9
$SURFTYPE
 70
     6
  9
$SURFU
 70
     6
  9
$SURFV
 70
     6
  9
$UCSBASE
  2

  9
$UCSNAME
  2

  9
$UCSORG
 10
0.0
 20
0.0
 30
0.0
  9
$UCSXDIR
 10
1.0
 20
0.0
 30
0.0
  9
$UCSYDIR
 10
0.0
 20
1.0
 30
0.0
  9
$UCSORTHOREF
  2

  9
$UCSORTHOVIEW
 70
     0
  9
$UCSORGTOP
 10
0.0
 20
0.0
 30
0.0
  9
$UCSORGBOTTOM
 10
0.0
 20
0.0
 30
0.0
  9
$UCSORGLEFT
 10
0.0
 20
0.0
 30
0.0
  9
$UCSORGRIGHT
 10
0.0
 20
0.0
 30
0.0
  9
$UCSORGFRONT
 10
0.0
 20
0.0
 30
0.0
  9
$UCSORGBACK
 10
0.0
 20
0.0
 30
0.0
  9
$PUCSBASE
  2

  9
$PUCSNAME
  2

  9
$PUCSORG
 10
0.0
 20
0.0
 30
0.0
  9
$PUCSXDIR
 10
1.0
 20
0.0
 30
0.0
  9
$PUCSYDIR
 10
0.0
 20
1.0
 30
0.0
  9
$PUCSORTHOREF
  2

  9
$PUCSORTHOVIEW
 70
     0
  9
$PUCSORGTOP
 10
0.0
 20
0.0
 30
0.0
  9
$PUCSORGBOTTOM
 10
0.0
 20
0.0
 30
0.0
  9
$PUCSORGLEFT
 10
0.0
 20
0.0
 30
0.0
  9
$PUCSORGRIGHT
 10
0.0
 20
0.0
 30
0.0
  9
$PUCSORGFRONT
 10
0.0
 20
0.0
 30
0.0
  9
$PUCSORGBACK
 10
0.0
 20
0.0
 30
0.0
  9
$USERI1
 70
     0
  9
$USERI2
 70
     0
  9
$USERI3
 70
     0
  9
$USERI4
 70
     0
  9
$USERI5
 70
     0
  9
$USERR1
 40
0.0
  9
$USERR2
 40
0.0
  9
$USERR3
 40
0.0
  9
$USERR4
 40
0.0
  9
$USERR5
 40
0.0
  9
$WORLDVIEW
 70
     1
  9
$SHADEDGE
 70
     3
  9
$SHADEDIF
 70
    70
  9
$TILEMODE
 70
     1
  9
$MAXACTVP
 70
    64
  9
$PINSBASE
 10
0.0
 20
0.0
 30
0.0
  9
$PLIMCHECK
 70
     0
  9
$PEXTMIN
 10
1.000000000000000E+20
 20
1.000000000000000E+20
 30
1.000000000000000E+20
  9
$PEXTMAX
 10
-1.000000000000000E+20
 20
-1.000000000000000E+20
 30
-1.000000000000000E+20
  9
$PLIMMIN
 10
0.0
 20
0.0
  9
$PLIMMAX
 10
12.0
 20
9.0
  9
$UNITMODE
 70
     0
  9
$VISRETAIN
 70
     1
  9
$PLINEGEN
 70
     0
  9
$PSLTSCALE
 70
     1
  9
$TREEDEPTH
 70
  3020
  9
$CMLSTYLE
  2
Standard
  9
$CMLJUST
 70
     0
  9
$CMLSCALE
 40
1.0
  9
$PROXYGRAPHICS
 70
     1
  9
$MEASUREMENT
 70
     0
  9
$CELWEIGHT
370
    -1
  9
$ENDCAPS
280
     0
  9
$JOINSTYLE
280
     0
  9
$LWDISPLAY
290
     0
  9
$INSUNITS
 70
     1
  9
$HYPERLINKBASE
  1

  9
$STYLESHEET
  1

  9
$XEDIT
290
     1
  9
$CEPSNTYPE
380
     0
  9
$PSTYLEMODE
290
     1
  9
$FINGERPRINTGUID
  2
{53F2403B-EE8F-40FD-A7D4-B9DE63DD159C}
  9
$VERSIONGUID
  2
{F02A8A62-118D-434D-BD6B-36B521C92E90}
  9
$EXTNAMES
290
     1
  9
$PSVPSCALE
 40
0.0
  9
$OLESTARTUP
290
     0
  9
$SORTENTS
280
   127
  9
$INDEXCTL
280
     0
  9
$HIDETEXT
280
     1
  9
$XCLIPFRAME
290
     0
  9
$HALOGAP
280
     0
  9
$OBSCOLOR
 70
   257
  9
$OBSLTYPE
280
     0
  9
$INTERSECTIONDISPLAY
280
     0
  9
$INTERSECTIONCOLOR
 70
   257
  9
$DIMASSOC
280
     2
  9
$PROJECTNAME
  1

  0
ENDSEC
  0
SECTION
  2
CLASSES
  0
CLASS
  1
ACDBDICTIONARYWDFLT
  2
AcDbDictionaryWithDefault
  3
ObjectDBX Classes
 90
        0
 91
        1
280
     0
281
     0
  0
CLASS
  1
MATERIAL
  2
AcDbMaterial
  3
ObjectDBX Classes
 90
     1153
 91
        3
280
     0
281
     0
  0
CLASS
  1
VISUALSTYLE
  2
AcDbVisualStyle
  3
ObjectDBX Classes
 90
     4095
 91
       16
280
     0
281
     0
  0
CLASS
  1
TABLESTYLE
  2
AcDbTableStyle
  3
ObjectDBX Classes
 90
     4095
 91
        1
280
     0
281
     0
  0
CLASS
  1
SCALE
  2
AcDbScale
  3
ObjectDBX Classes
 90
     1153
 91
       33
280
     0
281
     0
  0
CLASS
  1
MLEADERSTYLE
  2
AcDbMLeaderStyle
  3
ACDB_MLEADERSTYLE_CLASS
 90
     4095
 91
        1
280
     0
281
     0
  0
CLASS
  1
CELLSTYLEMAP
  2
AcDbCellStyleMap
  3
ObjectDBX Classes
 90
     1152
 91
        3
280
     0
281
     0
  0
CLASS
  1
DICTIONARYVAR
  2
AcDbDictionaryVar
  3
ObjectDBX Classes
 90
        0
 91
        5
280
     0
281
     0
  0
CLASS
  1
ACME_DOCUMENT
  2
AcMeDbDoc
  3
AcMeServices
 90
     1024
 91
        2
280
     0
281
     0
  0
CLASS
  1
ACMESCOPE
  2
AcMeScope
  3
AcMeServices
 90
     1024
 91
        1
280
     0
281
     0
  0
CLASS
  1
ACMECOMMANDHISTORY
  2
AcMeCommandHistory
  3
AcMeServices
 90
     1024
 91
        1
280
     0
281
     0
  0
CLASS
  1
ACIMSYSVARMAN
  2
AcImSysVarManager
  3
AcMeServices
 90
     1024
 91
        5
280
     0
281
     0
  0
CLASS
  1
ACIMINTSYSVAR
  2
AcImIntSysVar
  3
AcMeServices
 90
     1024
 91
       27
280
     0
281
     0
  0
CLASS
  1
ACMEDRAWINGMAN
  2
AcMeDrawingMan
  3
AcMeServices
 90
     1024
 91
        1
280
     0
281
     0
  0
CLASS
  1
ACMEVIEW
  2
AcMeView
  3
AcMeServices
 90
     1024
 91
        1
280
     0
281
     0
  0
CLASS
  1
ACDBENTITYCACHE
  2
AcMeEntityCache
  3
AcMeServices
 90
     1024
 91
        1
280
     0
281
     0
  0
CLASS
  1
GSMANAGER
  2
AcMeGSManager
  3
AcMeServices
 90
     1024
 91
        1
280
     0
281
     0
  0
CLASS
  1
AMDTINTERNALREACTOR
  2
AmdtInternalReactor
  3
AcMeServices
 90
     1024
 91
        2
280
     0
281
     0
  0
CLASS
  1
ACMESTATEMGR
  2
AcMeStateMgr
  3
AcMeServices
 90
     1024
 91
        1
280
     0
281
     0
  0
CLASS
  1
ACGREFMASTER
  2
AcGrefMaster
  3
AcAttribServices
 90
     1024
 91
        1
280
     0
281
     0
  0
CLASS
  1
AM_DRAWING_MGR
  2
AcDmDwgMgr
  3
AcMechDwgViewMgmt
 90
     1024
 91
        1
280
     0
281
     0
  0
CLASS
  1
AM_DWG_DOCUMENT
  2
AcDmDwgDocument
  3
AcMechDwgViewMgmt
 90
     1024
 91
        1
280
     0
281
     0
  0
CLASS
  1
AM_DWG_SHEET
  2
AcDmSheet
  3
AcMechDwgViewMgmt
 90
     1024
 91
        1
280
     0
281
     0
  0
CLASS
  1
AM_VIEWDIMPARMAP
  2
AcDmViewDimParMap
  3
AcMechDwgViewMgmt
 90
     1024
 91
        1
280
     0
281
     0
  0
CLASS
  1
ACIMREALSYSVAR
  2
AcImRealSysVar
  3
AcMeServices
 90
     1024
 91
        1
280
     0
281
     0
  0
CLASS
  1
AM_DWGMGR_NAME
  2
AcDmDwgMgrName
  3
AcMechDwgViewMgmt
 90
     1024
 91
        1
280
     0
281
     0
  0
CLASS
  1
ACME_DATABASE
  2
AcMeDbDatabase
  3
AcMeServices
 90
     1024
 91
        1
280
     0
281
     0
  0
CLASS
  1
ACRFINSADJUSTERMGR
  2
AcRfInsAdjusterMgr
  3
AcMeServices
 90
     1024
 91
        1
280
     0
281
     0
  0
CLASS
  1
ACGREFACADMASTER
  2
AcGrefacadMaster
  3
AcGrefServices
 90
     1024
 91
        1
280
     0
281
     0
  0
CLASS
  1
AMDTMENUSTATEMGR
  2
AmdtMenuStateMgr
  3
McadcomServices
 90
     1024
 91
        1
280
     0
281
     0
  0
CLASS
  1
AMDTMCOMMENUSTATE
  2
AmdtMcomMenuState
  3
McadcomServices
 90
     1024
 91
        1
280
     0
281
     0
  0
CLASS
  1
AMIMASTER
  2
AmiMaster
  3
AmiServices
 90
     1024
 91
        1
280
     0
281
     0
  0
CLASS
  1
AMGSETTINGSOBJ
  2
AmgSettingsObj
  3
"AcadM|Product Description: AutoCAD Mechanical|Company: Autodesk, Inc."
 90
     1024
 91
        2
280
     0
281
     0
  0
CLASS
  1
MAPIAMMOUDLE
  2
MApiAmModule
  3
MApiAmServices
 90
     1024
 91
        1
280
     0
281
     0
  0
CLASS
  1
ACIMSTRSYSVAR
  2
AcImStrSysVar
  3
AcMeServices
 90
     1024
 91
        4
280
     0
281
     0
  0
CLASS
  1
AMDTADMENUSTATE
  2
AmdtAdMenuState
  3
DesignerServices
 90
     1024
 91
        1
280
     0
281
     0
  0
CLASS
  1
ADAPPL
  2
AcAdAppl
  3
DesignerServices
 90
     1024
 91
        1
280
     0
281
     0
  0
CLASS
  1
DEPMGR
  2
AcAdDepMgr
  3
DesignerServices
 90
     1024
 91
        1
280
     0
281
     0
  0
CLASS
  1
PARAMMGR
  2
AcAdParamMgr
  3
DesignerServices
 90
     1024
 91
        1
280
     0
281
     0
  0
CLASS
  1
PARAMSCOPE
  2
AcAdParamScope
  3
DesignerServices
 90
     1024
 91
        1
280
     0
281
     0
  0
CLASS
  1
NAMEDAPPL
  2
AcAdNamedAppl
  3
DesignerServices
 90
     1024
 91
        1
280
     0
281
     0
  0
CLASS
  1
AMDTDMMENUSTATE
  2
AmdtDmMenuState
  3
AcMechDwgViewMgmt
 90
     1024
 91
        1
280
     0
281
     0
  0
CLASS
  1
AMDTAMMENUSTATE
  2
AmdtAmMenuState
  3
DesignerAssemblies
 90
     1024
 91
        1
280
     0
281
     0
  0
CLASS
  1
ACAMPROJECT
  2
AcAmProject
  3
DesignerAssemblies
 90
     1024
 91
        1
280
     0
281
     0
  0
CLASS
  1
ACAMGRCOMPDEF
  2
AcAmGrCompDef
  3
DesignerAssemblies
 90
     1024
 91
        1
280
     0
281
     0
  0
CLASS
  1
ACCMCONTEXT
  2
AcCmContext
  3
DesignerAssemblies
 90
     1024
 91
        1
280
     0
281
     0
  0
CLASS
  1
ACAMCOMPDEF
  2
AcAmCompDef
  3
DesignerAssemblies
 90
     1024
 91
        1
280
     0
281
     0
  0
CLASS
  1
ACAMCOMPDEFMGR
  2
AcAmCompDefMgr
  3
DesignerAssemblies
 90
     1024
 91
        1
280
     0
281
     0
  0
CLASS
  1
AMCONTEXTMGR
  2
AcAmContextMgr
  3
DesignerAssemblies
 90
     1024
 91
        1
280
     0
281
     0
  0
CLASS
  1
ACAMCONTEXTMODELER
  2
AcAmContextModeler
  3
DesignerAssemblies
 90
     1024
 91
        1
280
     0
281
     0
  0
CLASS
  1
ACMDATADICTIONARY
  2
AcmDataDictionary
  3
"AcmSymBB|Product Description: AutoCAD Mechanical|Company: Autodesk, Inc."
 90
     1024
 91
        1
280
     0
281
     0
  0
CLASS
  1
CATALOGSTATE
  2
AcAmCatalogState
  3
DesignerAssemblies
 90
     1024
 91
        1
280
     0
281
     0
  0
CLASS
  1
ACAMGRCOMPDEFSET
  2
AcAmGrCompDefSet
  3
DesignerAssemblies
 90
     1024
 91
        1
280
     0
281
     0
  0
CLASS
  1
AMDTBROWSERDBTAB
  2
AmdtBrowserDbTab
  3
McadcomServices
 90
     1024
 91
        1
280
     0
281
     0
  0
CLASS
  1
CBROWSERAPPOBJECT
  2
CBrowserAppObject
  3
McadcomServices
 90
     1024
 91
        3
280
     0
281
     0
  0
CLASS
  1
DM_PLACEHOLDER
  2
AcDmSelsetPlaceholder
  3
AcMechDwgViewMgmt
 90
     1024
 91
        1
280
     0
281
     0
  0
CLASS
  1
ACMSTANDARDANSI
  2
AcmStandardANSI
  3
"Amdt_StdImp|Product Description: AutoCAD Mechanical|Company: Autodesk, Inc."
 90
     1024
 91
        0
280
     0
281
     0
  0
CLASS
  1
ACMSURFSTANDARDANSI
  2
AcmSurfTextStdANSI
  3
"Amdt_StdImp|Product Description: AutoCAD Mechanical|Company: Autodesk, Inc."
 90
     1024
 91
        0
280
     0
281
     0
  0
CLASS
  1
ACMFCFSTANDARDANSI
  2
AcmFCFStdANSI
  3
"Amdt_StdImp|Product Description: AutoCAD Mechanical|Company: Autodesk, Inc."
 90
     1024
 91
        0
280
     0
281
     0
  0
CLASS
  1
ACMWELDSTANDARDANSI
  2
AcmWeldingStdANSI
  3
"Amdt_StdImp|Product Description: AutoCAD Mechanical|Company: Autodesk, Inc."
 90
     1024
 91
        0
280
     0
281
     0
  0
CLASS
  1
ACMIDSTANDARDANSI
  2
AcmIdStdANSI
  3
"Amdt_StdImp|Product Description: AutoCAD Mechanical|Company: Autodesk, Inc."
 90
     1024
 91
        0
280
     0
281
     0
  0
CLASS
  1
ACMDATUMSTANDARDANSI
  2
AcmDatumStdANSI
  3
"Amdt_StdImp|Product Description: AutoCAD Mechanical|Company: Autodesk, Inc."
 90
     1024
 91
        0
280
     0
281
     0
  0
CLASS
  1
ACMBOMSTANDARDANSI
  2
AcmBOMStdANSI
  3
"Amdt_StdImp|Product Description: AutoCAD Mechanical|Company: Autodesk, Inc."
 90
     1024
 91
        0
280
     0
281
     0
  0
CLASS
  1
ACMDETAILSTANDARDANSI
  2
AmdtDetailSymStdANSI
  3
"Amdt_StdImp|Product Description: AutoCAD Mechanical|Company: Autodesk, Inc."
 90
     1024
 91
        0
280
     0
281
     0
  0
CLASS
  1
ACMSECTIONSTANDARDANSI
  2
AmdtSectionSymStdANSI
  3
"Amdt_StdImp|Product Description: AutoCAD Mechanical|Company: Autodesk, Inc."
 90
     1024
 91
        0
280
     0
281
     0
  0
CLASS
  1
ACMCENTERLINESTANDARDANSI
  2
AmdtCenterLineStdANSI
  3
"Amdt_StdImp|Product Description: AutoCAD Mechanical|Company: Autodesk, Inc."
 90
     1024
 91
        0
280
     0
281
     0
  0
CLASS
  1
ACMTHREADLINESTANDARDANSI
  2
AmdtThreadLineStdANSI
  3
"Amdt_StdImp|Product Description: AutoCAD Mechanical|Company: Autodesk, Inc."
 90
     1024
 91
        0
280
     0
281
     0
  0
CLASS
  1
ACMNOTESTANDARDANSI
  2
AmdtNoteStdANSI
  3
"Amdt_StdImp|Product Description: AutoCAD Mechanical|Company: Autodesk, Inc."
 90
     1024
 91
        0
280
     0
281
     0
  0
CLASS
  1
ACMTAPERSTANDARDANSI
  2
AcmTaperStdANSI
  3
"Amdt_StdImp|Product Description: AutoCAD Mechanical|Company: Autodesk, Inc."
 90
     1024
 91
        0
280
     0
281
     0
  0
CLASS
  1
ACMANOOTATIONVIEWSTANDARDANSI
  2
AmdtAnViewStdANSI
  3
"Amdt_StdImp|Product Description: AutoCAD Mechanical|Company: Autodesk, Inc."
 90
     1024
 91
        0
280
     0
281
     0
  0
CLASS
  1
ACAMGLAYSTD
  2
AcAmgLayStd
  3
"AmgLay|Product Description: AutoCAD Mechanical|Company: Autodesk, Inc."
 90
     1024
 91
        0
280
     0
281
     0
  0
CLASS
  1
ACAMGDIMSTD
  2
AcAmgDimStd
  3
"AmgDim|Product Description: AutoCAD Mechanical|Company: Autodesk, Inc."
 90
     1024
 91
        0
280
     0
281
     0
  0
CLASS
  1
AMGOBJPROPCFG
  2
AmgObjPropCfg
  3
"AmgLay|Product Description: AutoCAD Mechanical|Company: Autodesk, Inc."
 90
     1025
 91
        1
280
     0
281
     0
  0
CLASS
  1
ACAMGHOLECHARTSTDANSI
  2
AcAmgHoleChartStdANSI
  3
AmgDim|Product Description: AutoCAD Mechanical|Company: Autodesk, Inc.
 90
     1024
 91
        0
280
     0
281
     0
  0
CLASS
  1
ACAMGTITLESTD
  2
AcAmgTitleStd
  3
"AmgTitle|Product Description: AutoCAD Mechanical|Company: Autodesk, Inc."
 90
     4095
 91
        0
280
     0
281
     0
  0
CLASS
  1
AMDTNOTETEMPLATEDB
  2
AmdtNoteTemplateDB
  3
AcmSymBB|Product Description: AutoCAD Mechanical|Company: Autodesk, Inc.
 90
     1024
 91
        0
280
     0
281
     0
  0
CLASS
  1
EXACXREFPANELOBJECT
  2
ExAcXREFPanelObject
  3
EXAC_ESW
 90
     1025
 91
        1
280
     0
281
     0
  0
CLASS
  1
NPOCOLLECTION
  2
AcDbImpNonPersistentObjectsCollection
  3
ObjectDBX Classes
 90
     1153
 91
        1
280
     0
281
     0
  0
CLASS
  1
ACAMGFILTERDAT
  2
AcAmgFilterDat
  3
"AcadM|Product Description: AutoCAD Mechanical|Company: Autodesk, Inc."
 90
     1024
 91
        0
280
     0
281
     0
  0
ENDSEC
  0
SECTION
  2
TABLES
  0
TABLE
  2
VPORT
  5
8
102
{ACAD_XDICTIONARY
360
507
102
}
330
0
100
AcDbSymbolTable
 70
     1
  0
VPORT
  5
1F4
330
8
100
AcDbSymbolTableRecord
100
AcDbViewportTableRecord
  2
*ACTIVE
 70
     0
 10
0.0
 20
0.0
 11
1.0
 21
1.0
 12
8.608895796614433
 22
4.891711740250229
 13
0.0
 23
0.0
 14
1.0
 24
1.0
 15
0.0
 25
0.0
 16
0.0
 26
0.0
 36
1.0
 17
0.0
 27
0.0
 37
0.0
 40
32.79807628819327
 41
2.143364928909952
 42
50.0
 43
0.0
 44
0.0
 50
0.0
 51
0.0
 71
     0
 72
   100
 73
     1
 74
     1
 75
     0
 76
     0
 77
     0
 78
     0
281
     0
 65
     0
110
0.0
120
0.0
130
0.0
111
1.0
121
0.0
131
0.0
112
0.0
122
1.0
132
0.0
 79
     0
146
0.0
  0
ENDTAB
  0
TABLE
  2
LTYPE
  5
5
330
0
100
AcDbSymbolTable
 70
    19
  0
LTYPE
  5
14
330
5
100
AcDbSymbolTableRecord
100
AcDbLinetypeTableRecord
  2
BYBLOCK
 70
     0
  3

 72
    65
 73
     0
 40
0.0
  0
LTYPE
  5
15
330
5
100
AcDbSymbolTableRecord
100
AcDbLinetypeTableRecord
  2
BYLAYER
 70
     0
  3

 72
    65
 73
     0
 40
0.0
  0
LTYPE
  5
16
330
5
100
AcDbSymbolTableRecord
100
AcDbLinetypeTableRecord
  2
CONTINUOUS
 70
     0
  3
Solid line
 72
    65
 73
     0
 40
0.0
  0
LTYPE
  5
1F5
330
5
100
AcDbSymbolTableRecord
100
AcDbLinetypeTableRecord
  2
CENTER
 70
     0
  3
____ _ ____ _ ____ _ ____ _ ____ _ ____ _ ____
 72
    65
 73
     4
 40
0.6
 49
0.375
 74
     0
 49
-0.075
 74
     0
 49
0.075
 74
     0
 49
-0.075
 74
     0
  0
LTYPE
  5
1F6
330
5
100
AcDbSymbolTableRecord
100
AcDbLinetypeTableRecord
  2
HIDDEN
 70
     0
  3
- - - - - - - - - - - - - - - - - - - -
 72
    65
 73
     2
 40
0.2
 49
0.1
 74
     0
 49
-0.1
 74
     0
  0
LTYPE
  5
1F7
330
5
100
AcDbSymbolTableRecord
100
AcDbLinetypeTableRecord
  2
PHANTOM
 70
     0
  3
_____ _ _ _____ _ _ _____ _ _ _____
 72
    65
 73
     6
 40
0.8
 49
0.45
 74
     0
 49
-0.05
 74
     0
 49
0.1
 74
     0
 49
-0.05
 74
     0
 49
0.1
 74
     0
 49
-0.05
 74
     0
  0
LTYPE
  5
1F8
330
5
100
AcDbSymbolTableRecord
100
AcDbLinetypeTableRecord
  2
DOT
 70
     0
  3
. . . . . . . . . . . . . . . . . . . .
 72
    65
 73
     2
 40
0.2
 49
0.1
 74
     0
 49
-0.1
 74
     0
  0
LTYPE
  5
1F9
330
5
100
AcDbSymbolTableRecord
100
AcDbLinetypeTableRecord
  2
DASHED
 70
     0
  3
- - - - - - - - - - - - - - - - - - - -
 72
    65
 73
     2
 40
0.2
 49
0.1
 74
     0
 49
-0.1
 74
     0
  0
LTYPE
  5
45D
330
5
100
AcDbSymbolTableRecord
100
AcDbLinetypeTableRecord
  2
PHANTOM2
 70
     0
  3
Phantom (.5x) ___ _ _ ___ _ _ ___ _ _ ___ _ _
 72
    65
 73
     6
 40
1.25
 49
0.625
 74
     0
 49
-0.125
 74
     0
 49
0.125
 74
     0
 49
-0.125
 74
     0
 49
0.125
 74
     0
 49
-0.125
 74
     0
  0
LTYPE
  5
4A6
330
5
100
AcDbSymbolTableRecord
100
AcDbLinetypeTableRecord
  2
AM_ISO02W050
 70
     0
  3
__ __ __ __ __ __ __ __ __ __ __ __ __ __ __
 72
    65
 73
     2
 40
7.5
 49
6.0
 74
     0
 49
-1.5
 74
     0
  0
LTYPE
  5
4A7
330
5
100
AcDbSymbolTableRecord
100
AcDbLinetypeTableRecord
  2
AM_ISO08W050
 70
     0
  3
____ . ____ . ____ . ____ . ____ . ____ . ____
 72
    65
 73
     4
 40
18.0
 49
12.0
 74
     0
 49
-1.5
 74
     0
 49
3.0
 74
     0
 49
-1.5
 74
     0
  0
LTYPE
  5
4A8
330
5
100
AcDbSymbolTableRecord
100
AcDbLinetypeTableRecord
  2
AM_ISO09W050
 70
     0
  3
_____ . . _____ . . _____ . . ____ .. ____
 72
    65
 73
     6
 40
22.5
 49
12.0
 74
     0
 49
-1.5
 74
     0
 49
3.0
 74
     0
 49
-1.5
 74
     0
 49
3.0
 74
     0
 49
-1.5
 74
     0
  0
LTYPE
  5
4A9
330
5
100
AcDbSymbolTableRecord
100
AcDbLinetypeTableRecord
  2
Amconstr
 70
     0
  3
_______________________
 72
    65
 73
     2
 40
9999.0
 49
9999.0
 74
     0
 49
0.0
 74
     0
  0
LTYPE
  5
4AA
330
5
100
AcDbSymbolTableRecord
100
AcDbLinetypeTableRecord
  2
AM_ISO08W050x2
 70
     0
  3
__ . __ . __ . __ . __ . __
 72
    65
 73
     4
 40
9.0
 49
6.0
 74
     0
 49
-0.75
 74
     0
 49
1.5
 74
     0
 49
-0.75
 74
     0
  0
LTYPE
  5
4AB
330
5
100
AcDbSymbolTableRecord
100
AcDbLinetypeTableRecord
  2
AM_ISO02W050x2
 70
     0
  3
 _ _ _ _ _ _ _ _ _ _ _ _
 72
    65
 73
     2
 40
3.75
 49
3.0
 74
     0
 49
-0.75
 74
     0
  0
LTYPE
  5
4AE
330
5
100
AcDbSymbolTableRecord
100
AcDbLinetypeTableRecord
  2
Amzigzag
 70
     0
  3
/\/-/\/-/\/-/\/-/\/-/\/
 72
    65
 73
     2
 40
11.0001
 49
0.0001
 74
     4
 75
   136
340
4AD
 46
0.04
 50
0.0
 44
0.0
 45
0.0
 49
-11.0
 74
     0
  0
LTYPE
  5
4AF
330
5
100
AcDbSymbolTableRecord
100
AcDbLinetypeTableRecord
  2
CENTER2
 70
     0
  3
Center (.5x) ___ _ ___ _ ___ _ ___ _ ___ _ ___
 72
    65
 73
     4
 40
1.125
 49
0.75
 74
     0
 49
-0.125
 74
     0
 49
0.125
 74
     0
 49
-0.125
 74
     0
  0
LTYPE
  5
4B0
330
5
100
AcDbSymbolTableRecord
100
AcDbLinetypeTableRecord
  2
HIDDEN2
 70
     0
  3
Hidden (.5x) _ _ _ _ _ _ _ _ _ _ _ _ _ _ _ _ _
 72
    65
 73
     2
 40
0.1875
 49
0.125
 74
     0
 49
-0.0625
 74
     0
  0
LTYPE
  5
4B1
330
5
100
AcDbSymbolTableRecord
100
AcDbLinetypeTableRecord
  2
Amzigzag2
 70
     0
  3
/\/-/\/-/\/-/\/-/\/-/\/
 72
    65
 73
     2
 40
0.4401
 49
0.0001
 74
     4
 75
   136
340
4AD
 46
0.0016
 50
0.0
 44
0.0
 45
0.0
 49
-0.4400000000000001
 74
     0
  0
LTYPE
  5
4BF
330
5
100
AcDbSymbolTableRecord
100
AcDbLinetypeTableRecord
  2
ACANSTGB
 70
     0
  3
__ . . __ . .
 72
    65
 73
     6
 40
0.35433070866
 49
0.15748031496
 74
     0
 49
-0.03937007874
 74
     0
 49
0.03937007874
 74
     0
 49
-0.03937007874
 74
     0
 49
0.03937007874
 74
     0
 49
-0.03937007874
 74
     0
  0
LTYPE
  5
4C0
330
5
100
AcDbSymbolTableRecord
100
AcDbLinetypeTableRecord
  2
ACANSTGL
 70
     0
  3
_ _ _ _ _
 72
    65
 73
     2
 40
0.11811023622
 49
0.07874015748
 74
     0
 49
-0.03937007874
 74
     0
  0
ENDTAB
  0
TABLE
  2
LAYER
  5
2
330
0
100
AcDbSymbolTable
 70
    11
  0
LAYER
  5
10
102
{ACAD_XDICTIONARY
360
4D5
102
}
330
2
100
AcDbSymbolTableRecord
100
AcDbLayerTableRecord
  2
0
 70
     0
 62
     7
  6
CONTINUOUS
370
    -3
390
F
  0
LAYER
  5
1FA
102
{ACAD_XDICTIONARY
360
4D7
102
}
330
2
100
AcDbSymbolTableRecord
100
AcDbLayerTableRecord
  2
DEFAULT_1
 70
     0
 62
     7
  6
CENTER
370
    -3
390
F
  0
LAYER
  5
1FB
102
{ACAD_XDICTIONARY
360
4D9
102
}
330
2
100
AcDbSymbolTableRecord
100
AcDbLayerTableRecord
  2
DEFAULT_2
 70
     0
 62
     8
  6
HIDDEN
370
    -3
390
F
  0
LAYER
  5
1FC
102
{ACAD_XDICTIONARY
360
4DB
102
}
330
2
100
AcDbSymbolTableRecord
100
AcDbLayerTableRecord
  2
DEFAULT_3
 70
     0
 62
     7
  6
PHANTOM
370
    -3
390
F
  0
LAYER
  5
1FD
102
{ACAD_XDICTIONARY
360
4DD
102
}
330
2
100
AcDbSymbolTableRecord
100
AcDbLayerTableRecord
  2
DATUM_AXIS
 70
     0
 62
     7
  6
CONTINUOUS
370
    -3
390
F
  0
LAYER
  5
1FE
102
{ACAD_XDICTIONARY
360
4DF
102
}
330
2
100
AcDbSymbolTableRecord
100
AcDbLayerTableRecord
  2
DATUM_CSYS
 70
     0
 62
     7
  6
CONTINUOUS
370
    -3
390
F
  0
LAYER
  5
1FF
102
{ACAD_XDICTIONARY
360
4E1
102
}
330
2
100
AcDbSymbolTableRecord
100
AcDbLayerTableRecord
  2
DATUM_PLANE
 70
     0
 62
     7
  6
CONTINUOUS
370
    -3
390
F
  0
LAYER
  5
200
102
{ACAD_XDICTIONARY
360
4E3
102
}
330
2
100
AcDbSymbolTableRecord
100
AcDbLayerTableRecord
  2
INTF_1
 70
     0
 62
     7
  6
CONTINUOUS
370
    -3
390
F
  0
LAYER
  5
201
102
{ACAD_XDICTIONARY
360
4E5
102
}
330
2
100
AcDbSymbolTableRecord
100
AcDbLayerTableRecord
  2
RGB____0____0____0__
 70
     0
 62
     7
  6
CONTINUOUS
370
    -3
390
F
  0
LAYER
  5
202
102
{ACAD_XDICTIONARY
360
4E7
102
}
330
2
100
AcDbSymbolTableRecord
100
AcDbLayerTableRecord
  2
_CURVE
 70
     0
 62
     7
  6
CONTINUOUS
370
    -3
390
F
  0
LAYER
  5
203
102
{ACAD_XDICTIONARY
360
4E9
102
}
330
2
100
AcDbSymbolTableRecord
100
AcDbLayerTableRecord
  2
_SURFACE
 70
     0
 62
     7
  6
CONTINUOUS
370
    -3
390
F
  0
ENDTAB
  0
TABLE
  2
STYLE
  5
3
330
0
100
AcDbSymbolTable
 70
     5
  0
STYLE
  5
11
330
3
100
AcDbSymbolTableRecord
100
AcDbTextStyleTableRecord
  2
STANDARD
 70
     0
 40
0.0
 41
0.8
 50
0.0
 71
     0
 42
0.2
  3
txt
  4

  0
STYLE
  5
204
330
3
100
AcDbSymbolTableRecord
100
AcDbTextStyleTableRecord
  2
TEXTSTYLE_1
 70
     0
 40
0.0
 41
0.8
 50
0.0
 71
     0
 42
0.2
  3
gdt
  4

  0
STYLE
  5
4AD
330
3
100
AcDbSymbolTableRecord
100
AcDbTextStyleTableRecord
  2

 70
     1
 40
0.0
 41
1.0
 50
0.0
 71
     0
 42
0.2
  3
genltshp.shx
  4

  0
STYLE
  5
4BD
330
3
100
AcDbSymbolTableRecord
100
AcDbTextStyleTableRecord
  2
ACANSTS
 70
     0
 40
1.0
 41
1.0
 50
0.0
 71
     0
 42
0.2
  3
romans.shx
  4

  0
STYLE
  5
4BE
330
3
100
AcDbSymbolTableRecord
100
AcDbTextStyleTableRecord
  2
ACANSGDT
 70
     0
 40
0.0
 41
1.0
 50
0.0
 71
     0
 42
0.2
  3
amgdt.shx
  4

  0
ENDTAB
  0
TABLE
  2
VIEW
  5
6
330
0
100
AcDbSymbolTable
 70
     0
  0
ENDTAB
  0
TABLE
  2
UCS
  5
7
330
0
100
AcDbSymbolTable
 70
     0
  0
ENDTAB
  0
TABLE
  2
APPID
  5
9
330
0
100
AcDbSymbolTable
 70
    13
  0
APPID
  5
205
330
9
100
AcDbSymbolTableRecord
100
AcDbRegAppTableRecord
  2
ACAD
 70
     0
  0
APPID
  5
422
330
9
100
AcDbSymbolTableRecord
100
AcDbRegAppTableRecord
  2
ACAD_MLEADERVER
 70
     0
  0
APPID
  5
430
330
9
100
AcDbSymbolTableRecord
100
AcDbRegAppTableRecord
  2
MCAD_NO_VIS
 70
     0
  0
APPID
  5
431
330
9
100
AcDbSymbolTableRecord
100
AcDbRegAppTableRecord
  2
ACAD_TEMP_GRAPHIC
 70
     0
  0
APPID
  5
45F
330
9
100
AcDbSymbolTableRecord
100
AcDbRegAppTableRecord
  2
AD_DRAW
 70
     0
  0
APPID
  5
462
330
9
100
AcDbSymbolTableRecord
100
AcDbRegAppTableRecord
  2
ACATTRIBSERVICES
 70
     0
  0
APPID
  5
487
330
9
100
AcDbSymbolTableRecord
100
AcDbRegAppTableRecord
  2
DESIGNERASSEMBLIES
 70
     0
  0
APPID
  5
48D
330
9
100
AcDbSymbolTableRecord
100
AcDbRegAppTableRecord
  2
ACADM_DIM_EDIT
 70
     0
  0
APPID
  5
48E
330
9
100
AcDbSymbolTableRecord
100
AcDbRegAppTableRecord
  2
AMDT_DM_ADJ
 70
     0
  0
APPID
  5
50D
330
9
100
AcDbSymbolTableRecord
100
AcDbRegAppTableRecord
  2
ACAD_DSTYLE_DIMARC_LENGTH_SYMBOL
 70
     0
  0
APPID
  5
50E
330
9
100
AcDbSymbolTableRecord
100
AcDbRegAppTableRecord
  2
ACAD_DSTYLE_DIM_LINETYPE
 70
     0
  0
APPID
  5
50F
330
9
100
AcDbSymbolTableRecord
100
AcDbRegAppTableRecord
  2
ACAD_DSTYLE_DIM_EXT1_LINETYPE
 70
     0
  0
APPID
  5
510
330
9
100
AcDbSymbolTableRecord
100
AcDbRegAppTableRecord
  2
ACAD_DSTYLE_DIM_EXT2_LINETYPE
 70
     0
  0
ENDTAB
  0
TABLE
  2
DIMSTYLE
  5
A
330
0
100
AcDbSymbolTable
 70
     7
100
AcDbDimStyleTable
 71
     1
340
4A4
  0
DIMSTYLE
105
208
330
A
100
AcDbSymbolTableRecord
100
AcDbDimStyleTableRecord
  2
STANDARD
 70
     0
 41
0.1875
 47
0.01
 48
0.01
 71
     1
 78
     4
140
0.15625
271
     3
272
     3
284
     4
340
11
  0
DIMSTYLE
105
4A4
330
A
100
AcDbSymbolTableRecord
100
AcDbDimStyleTableRecord
  2
AM_ANSI
 70
     0
  4
mm
 41
0.12
 42
0.05
 43
0.5
 44
0.1
 47
0.1
 48
0.1
 78
     7
 79
     2
140
0.12
141
0.0
146
0.71
147
0.06
176
   256
177
   256
178
     2
274
     4
284
     7
340
11
371
    -1
372
    -1
1001
ACAD_DSTYLE_DIMARC_LENGTH_SYMBOL
1070
   379
1070
     1
1001
ACAD_DSTYLE_DIM_LINETYPE
1070
   380
1005
14
1001
ACAD_DSTYLE_DIM_EXT1_LINETYPE
1070
   381
1005
14
1001
ACAD_DSTYLE_DIM_EXT2_LINETYPE
1070
   382
1005
14
  0
DIMSTYLE
105
4B2
330
A
100
AcDbSymbolTableRecord
100
AcDbDimStyleTableRecord
  2
AM_ANSI$3
 70
     0
  4
mm
 41
0.12
 42
0.05
 43
0.5
 44
0.1
 47
0.1
 48
0.1
 78
     7
 79
     2
140
0.12
141
0.0
146
0.71
147
0.06
176
   256
177
   256
178
     2
274
     4
284
     7
288
     1
289
     0
340
11
371
    -1
372
    -1
1001
ACAD_DSTYLE_DIMARC_LENGTH_SYMBOL
1070
   379
1070
     1
1001
ACAD_DSTYLE_DIM_LINETYPE
1070
   380
1005
14
1001
ACAD_DSTYLE_DIM_EXT1_LINETYPE
1070
   381
1005
14
1001
ACAD_DSTYLE_DIM_EXT2_LINETYPE
1070
   382
1005
14
  0
DIMSTYLE
105
4B3
330
A
100
AcDbSymbolTableRecord
100
AcDbDimStyleTableRecord
  2
AM_ANSI$4
 70
     0
  4
mm
 41
0.12
 42
0.05
 43
0.5
 44
0.1
 47
0.1
 48
0.1
 78
     7
 79
     2
140
0.12
141
0.0
146
0.71
147
0.06
176
   256
177
   256
178
     2
274
     4
284
     7
340
11
371
    -1
372
    -1
1001
ACAD_DSTYLE_DIMARC_LENGTH_SYMBOL
1070
   379
1070
     1
1001
ACAD_DSTYLE_DIM_LINETYPE
1070
   380
1005
14
1001
ACAD_DSTYLE_DIM_EXT1_LINETYPE
1070
   381
1005
14
1001
ACAD_DSTYLE_DIM_EXT2_LINETYPE
1070
   382
1005
14
  0
DIMSTYLE
105
4B4
330
A
100
AcDbSymbolTableRecord
100
AcDbDimStyleTableRecord
  2
AM_ANSI$7
 70
     0
  4
mm
 41
0.12
 42
0.05
 43
0.5
 44
0.1
 47
0.1
 48
0.1
 78
     7
 79
     2
140
0.12
141
0.0
146
0.71
147
0.06
176
   256
177
   256
178
     2
274
     4
284
     7
340
11
371
    -1
372
    -1
1001
ACAD_DSTYLE_DIMARC_LENGTH_SYMBOL
1070
   379
1070
     1
1001
ACAD_DSTYLE_DIM_LINETYPE
1070
   380
1005
14
1001
ACAD_DSTYLE_DIM_EXT1_LINETYPE
1070
   381
1005
14
1001
ACAD_DSTYLE_DIM_EXT2_LINETYPE
1070
   382
1005
14
  0
DIMSTYLE
105
4B5
330
A
100
AcDbSymbolTableRecord
100
AcDbDimStyleTableRecord
  2
AM_ANSI$SF
 70
     0
  4
mm
 41
0.12
 42
0.05
 43
0.5
 44
0.1
 47
0.1
 48
0.1
 75
     1
 76
     1
 78
     7
 79
     2
140
0.12
141
0.0
146
0.71
147
0.06
176
   256
177
   256
178
     2
274
     4
284
     7
340
11
371
    -1
372
    -1
1001
ACAD_DSTYLE_DIMARC_LENGTH_SYMBOL
1070
   379
1070
     1
1001
ACAD_DSTYLE_DIM_LINETYPE
1070
   380
1005
14
1001
ACAD_DSTYLE_DIM_EXT1_LINETYPE
1070
   381
1005
14
1001
ACAD_DSTYLE_DIM_EXT2_LINETYPE
1070
   382
1005
14
  0
DIMSTYLE
105
4BA
330
A
100
AcDbSymbolTableRecord
100
AcDbDimStyleTableRecord
  2
AM_ANSI$SH
 70
     0
  4
mm
 41
0.12
 42
0.05
 43
0.5
 44
0.1
 47
0.1
 48
0.1
 75
     1
 76
     1
 78
     7
 79
     2
140
0.12
141
0.0
146
0.71
147
0.06
173
     1
176
   256
177
   256
178
     2
274
     4
284
     7
340
11
343
4B6
371
    -1
372
    -1
1001
ACAD_DSTYLE_DIMARC_LENGTH_SYMBOL
1070
   379
1070
     1
1001
ACAD_DSTYLE_DIM_LINETYPE
1070
   380
1005
14
1001
ACAD_DSTYLE_DIM_EXT1_LINETYPE
1070
   381
1005
14
1001
ACAD_DSTYLE_DIM_EXT2_LINETYPE
1070
   382
1005
14
  0
ENDTAB
  0
TABLE
  2
BLOCK_RECORD
  5
1
330
0
100
AcDbSymbolTable
 70
     2
  0
BLOCK_RECORD
  5
206
330
1
100
AcDbSymbolTableRecord
100
AcDbBlockTableRecord
  2
*Model_Space
340
3CD
  0
BLOCK_RECORD
  5
207
330
1
100
AcDbSymbolTableRecord
100
AcDbBlockTableRecord
  2
*Paper_Space
340
3CE
  0
BLOCK_RECORD
  5
4B6
330
1
100
AcDbSymbolTableRecord
100
AcDbBlockTableRecord
  2
GENAXEH
340
0
  0
ENDTAB
  0
ENDSEC
  0
SECTION
  2
BLOCKS
  0
BLOCK
  5
20
330
206
100
AcDbEntity
  8
0
100
AcDbBlockBegin
  2
*Model_Space
 70
     0
 10
0.0
 20
0.0
 30
0.0
  3
*Model_Space
  1

  0
ENDBLK
  5
21
330
206
100
AcDbEntity
  8
0
100
AcDbBlockEnd
  0
BLOCK
  5
1C
330
207
100
AcDbEntity
 67
     1
  8
0
100
AcDbBlockBegin
  2
*Paper_Space
 70
     0
 10
0.0
 20
0.0
 30
0.0
  3
*Paper_Space
  1

  0
ENDBLK
  5
1D
330
207
100
AcDbEntity
 67
     1
  8
0
100
AcDbBlockEnd
  0
BLOCK
  5
4B8
330
4B6
100
AcDbEntity
  8
0
100
AcDbBlockBegin
  2
GENAXEH
 70
     0
 10
0.0
 20
0.0
 30
0.0
  3
GENAXEH
  1

  0
LINE
  5
4B7
330
4B6
100
AcDbEntity
  8
0
100
AcDbLine
 10
-1.0
 20
0.0
 30
0.0
 11
1.0
 21
0.0
 31
0.0
  0
ENDBLK
  5
4B9
330
4B6
100
AcDbEntity
  8
0
100
AcDbBlockEnd
  0
ENDSEC
  0
SECTION
  2
ENTITIES
  0
LINE
  5
20D
330
206
100
AcDbEntity
  8
0
  6
Continuous
 62
     7
100
AcDbLine
 10
7.498580212899999
 20
20.12221010102182
 30
0.0
 11
7.422744364099999
 21
20.08223421432183
 31
0.0
  0
LWPOLYLINE
  5
20E
330
206
100
AcDbEntity
  8
0
  6
Continuous
 62
     7
100
AcDbPolyline
 90
        5
 70
     0
 43
0.0
 10
7.422744364099999
 20
20.08223421432183
 10
7.3442114133
 20
20.04739261962182
 10
7.263339122399999
 20
20.01787475082183
 10
7.1804989387
 20
19.99385070832182
 10
7.0960385007
 20
19.97546301562183
  0
LINE
  5
20F
330
206
100
AcDbEntity
  8
0
  6
Continuous
 62
     7
100
AcDbLine
 10
9.568779068200001
 20
4.343903932821826
 30
0.0
 11
9.568804743099999
 21
4.343903919521825
 31
0.0
  0
LWPOLYLINE
  5
210
330
206
100
AcDbEntity
  8
0
  6
Continuous
 62
     7
100
AcDbPolyline
 90
        5
 70
     0
 43
0.0
 10
7.771881376
 20
20.33265054322183
 10
7.706682253099999
 20
20.27088855472182
 10
7.640880210599999
 20
20.21677040972182
 10
7.5714048035
 20
20.16712995792182
 10
7.498580212899999
 20
20.12221010102182
  0
LWPOLYLINE
  5
223
330
206
100
AcDbEntity
  8
0
  6
Continuous
 62
     7
100
AcDbPolyline
 90
        6
 70
     0
 43
0.0
 10
11.6573523734
 20
20.11191754642183
 10
11.5837713093
 20
20.15563201442183
 10
11.5134469178
 20
20.20412896662183
 10
11.4467076356
 20
20.25717201892183
 10
11.3838408707
 20
20.31453225082183
 10
11.365676818
 20
20.33265011632183
  0
LWPOLYLINE
  5
224
330
206
100
AcDbEntity
  8
0
  6
Continuous
 62
     7
100
AcDbPolyline
 90
       10
 70
     0
 43
0.0
 10
11.3656726394
 20
20.33264600492183
 10
11.3490466187
 20
20.34823571712182
 10
11.3276184718
 20
20.36493529392183
 10
11.3046661534
 20
20.37942004032183
 10
11.2804238813
 20
20.39157791662182
 10
11.2551480074
 20
20.40128300772183
 10
11.2290863534
 20
20.40843075602182
 10
11.2024602244
 20
20.41298686332183
 10
11.1755314986
 20
20.41491890412183
 10
11.1693791216
 20
20.41498880442182
  0
LINE
  5
225
330
206
100
AcDbEntity
  8
0
  6
Continuous
 62
     7
100
AcDbLine
 10
7.0960385007
 20
19.97546301562183
 30
0.0
 11
7.0657966498
 21
19.97032554222182
 31
0.0
  0
LWPOLYLINE
  5
226
330
206
100
AcDbEntity
  8
0
  6
Continuous
 62
     7
100
AcDbPolyline
 90
       10
 70
     0
 43
0.0
 10
7.968178364699999
 20
20.41498464852183
 10
7.946380863599999
 20
20.41412136162183
 10
7.9193843657
 20
20.41062551192183
 10
7.8928591808
 20
20.40448201212182
 10
7.867049872
 20
20.39573287342182
 10
7.842221434699999
 20
20.38447117222183
 10
7.8186310901
 20
20.37080666052183
 10
7.7964946033
 20
20.35485517962182
 10
7.7760336058
 20
20.33678692192182
 10
7.7718819212
 20
20.33265000772183
  0
LINE
  5
228
330
206
100
AcDbEntity
  8
0
  6
Continuous
 62
     7
100
AcDbLine
 10
11.1693791153
 20
20.41494925572183
 30
0.0
 11
7.968178385899999
 21
20.41494925572183
 31
0.0
  0
LINE
  5
229
330
206
100
AcDbEntity
  8
0
  6
Continuous
 62
     7
100
AcDbLine
 10
12.0717496103
 20
19.97032750742183
 30
0.0
 11
12.0621560777
 21
19.97187599172182
 31
0.0
  0
LWPOLYLINE
  5
22A
330
206
100
AcDbEntity
  8
0
  6
Continuous
 62
     7
100
AcDbPolyline
 90
        5
 70
     0
 43
0.0
 10
12.0621560777
 20
19.97187599172182
 10
11.9774559713
 20
19.98885700282183
 10
11.8942671759
 20
20.01149943662182
 10
11.8129396821
 20
20.03966832662182
 10
11.7338477674
 20
20.07320178442183
  0
LINE
  5
22B
330
206
100
AcDbEntity
  8
0
  6
Continuous
 62
     7
100
AcDbLine
 10
11.7338477674
 20
20.07320178442183
 30
0.0
 11
11.6573523734
 21
20.11191754642183
 31
0.0
  0
ARC
  5
278
330
206
100
AcDbEntity
  8
0
  6
Continuous
 62
     7
100
AcDbCircle
 10
9.418542564999999
 20
3.120312279921825
 30
0.0
 40
17.0576238111
100
AcDbArc
 50
80.7680492977
 51
81.05166513350001
  0
ARC
  5
279
330
206
100
AcDbEntity
  8
0
  6
Continuous
 62
     7
100
AcDbCircle
 10
9.718450113099999
 20
3.123944049321825
 30
0.0
 40
17.0539482478
100
AcDbArc
 50
98.94835738889998
 51
99.24262947450001
  0
ARC
  5
27A
330
206
100
AcDbEntity
  8
0
  6
Continuous
 62
     7
100
AcDbCircle
 10
9.560497103099999
 20
20.19019319412183
 30
0.0
 40
15.8462914257
100
AcDbArc
 50
269.1057720778999
 51
270.0299452782
  0
ARC
  5
27B
330
206
100
AcDbEntity
  8
0
  6
Continuous
 62
     7
100
AcDbCircle
 10
9.5606796082
 20
20.18418530122183
 30
0.0
 40
15.8402834391
100
AcDbArc
 50
269.1047728608
 51
270.0293893582
  0
ARC
  5
27C
330
206
100
AcDbEntity
  8
0
  6
Continuous
 62
     7
100
AcDbCircle
 10
3.220072460199999
 20
12.25678997632182
 30
0.0
 40
5.5015724133
100
AcDbArc
 50
178.696551797
 51
180.0065859741
  0
ARC
  5
27D
330
206
100
AcDbEntity
  8
0
  6
Continuous
 62
     7
100
AcDbCircle
 10
15.9184533296
 20
12.25680272982182
 30
0.0
 40
5.500605035199999
100
AcDbArc
 50
359.9932800231
 51
1.315897833699991
  0
ARC
  5
27E
330
206
100
AcDbEntity
  8
0
  6
Continuous
 62
     7
100
AcDbCircle
 10
3.2076812499
 20
12.25509766792182
 30
0.0
 40
5.489181224299999
100
AcDbArc
 50
179.9889366175
 51
181.8466534918
  0
ARC
  5
27F
330
206
100
AcDbEntity
  8
0
  6
Continuous
 62
     7
100
AcDbCircle
 10
15.934943774
 20
12.25524498162182
 30
0.0
 40
5.484114584099999
100
AcDbArc
 50
358.1614216176
 51
0.009534530700001
  0
ARC
  5
280
330
206
100
AcDbEntity
  8
0
  6
Continuous
 62
     7
100
AcDbCircle
 10
3.2015956798
 20
12.25523975522182
 30
0.0
 40
5.4830956287
100
AcDbArc
 50
179.9904090838
 51
181.850186833
  0
CIRCLE
  5
282
330
206
100
AcDbEntity
  8
0
  6
Continuous
 62
     7
100
AcDbCircle
 10
9.568779205
 20
12.25598276632182
 30
0.0
 40
0.8858267717
  0
SPLINE
  5
341
330
206
100
AcDbEntity
  8
0
  6
Continuous
 62
     7
100
AcDbSpline
210
0.0
220
0.0
230
1.0
 70
     8
 71
     3
 72
    34
 73
    30
 74
    28
 42
0.0000000001
 43
0.0000000001
 44
0.0000000001
 12
0.9999998715834014
 22
-0.0005067871159895
 32
0.0
 13
0.0321183447694173
 23
0.9994840728742369
 33
0.0
 40
0.0
 40
0.0
 40
0.0
 40
0.0
 40
0.831753709485932
 40
1.581129719993975
 40
2.252262903807223
 40
2.846394485378739
 40
3.374575643624909
 40
3.841972870693261
 40
4.247984870326553
 40
4.616320201209671
 40
4.971614092630444
 40
5.338413660600054
 40
5.741783299606878
 40
6.207260891922268
 40
6.736340648724276
 40
7.303832939716897
 40
7.903930466099383
 40
8.536408596185321
 40
9.213899426848296
 40
9.967907695090804
 40
10.7874680013857
 40
11.56414431052805
 40
12.2579957115778
 40
12.87504323567968
 40
13.4374816240119
 40
13.99963549071515
 40
14.53180423756901
 40
15.05117935088255
 40
15.44263627200244
 40
15.44263627200244
 40
15.44263627200244
 40
15.44263627200244
 10
9.568804743099999
 20
4.343903919521825
 30
0.0
 10
9.846055943991649
 20
4.343763412167278
 30
0.0
 10
10.37322210561109
 20
4.357305219920108
 30
0.0
 10
11.12205721835442
 20
4.414579894992768
 30
0.0
 10
11.78889837853701
 20
4.495540104855336
 30
0.0
 10
12.37934871835993
 20
4.589844335407955
 30
0.0
 10
12.89966327324864
 20
4.690668364485921
 30
0.0
 10
13.35544817677048
 20
4.793596730186377
 30
0.0
 10
13.75666479873016
 20
4.89549600717186
 30
0.0
 10
14.11949276163149
 20
4.996312542939672
 30
0.0
 10
14.46767697589772
 20
5.100714233594718
 30
0.0
 10
14.82485966357686
 20
5.215515165771561
 30
0.0
 10
15.21426619380393
 20
5.349831361645686
 30
0.0
 10
15.6504592662621
 20
5.513967795534611
 30
0.0
 10
16.13088098630414
 20
5.715135438664625
 30
0.0
 10
16.64200918744045
 20
5.95775515049261
 30
0.0
 10
17.17011289109924
 20
6.243264882510282
 30
0.0
 10
17.71150088495436
 20
6.579077093092067
 30
0.0
 10
18.27298382106603
 20
6.977478912781623
 30
0.0
 10
18.85464728584536
 20
7.452429296384784
 30
0.0
 10
19.42735606005925
 20
7.987834426547145
 30
0.0
 10
19.95165816950236
 20
8.543269565170279
 30
0.0
 10
20.39271188686971
 20
9.08280313901047
 30
0.0
 10
20.732898652585
 20
9.608082743454819
 30
0.0
 10
20.99309675925925
 20
10.12830834718105
 30
0.0
 10
21.18462533297599
 20
10.64750007960983
 30
0.0
 10
21.31724876629577
 20
11.16965913395447
 30
0.0
 10
21.39139094380402
 20
11.64565982878436
 30
0.0
 10
21.41204406711503
 20
11.94887575882992
 30
0.0
 10
21.4162350499
 20
12.07929407812182
 30
0.0
 11
9.568804743099999
 21
4.343903919521825
 31
0.0
 11
10.4002808886
 21
4.365390024521826
 31
0.0
 11
11.1474849559
 21
4.422403066321825
 31
0.0
 11
11.8137553293
 21
4.503047594621826
 31
0.0
 11
12.4004558519
 21
4.596721673221825
 31
0.0
 11
12.9189666041
 21
4.697329504821825
 31
0.0
 11
13.3748888522
 21
4.800261868821825
 31
0.0
 11
13.7684299765
 21
4.900117401121825
 31
0.0
 11
14.1233291946
 21
4.998694583921825
 31
0.0
 11
14.4636631977
 21
5.100706914621826
 31
0.0
 11
14.8128655758
 21
5.212954953321825
 31
0.0
 11
15.194109843
 21
5.344711829421825
 31
0.0
 11
15.6296397743
 21
5.508977065821826
 31
0.0
 11
16.1174574568
 21
5.713816753621825
 31
0.0
 11
16.630014922
 21
5.957399070721826
 31
0.0
 11
17.157708787
 21
6.243154606121825
 31
0.0
 11
17.6952612559
 21
6.576420158221825
 31
0.0
 11
18.2477933172
 21
6.968468811921825
 31
0.0
 11
18.8323924402
 21
7.444675000421825
 31
0.0
 11
19.4316051426
 21
8.003802206821825
 31
0.0
 11
19.9633726429
 21
8.569884722721825
 31
0.0
 11
20.3980380452
 21
9.110713489321826
 31
0.0
 11
20.732422333
 21
9.629302724721824
 31
0.0
 11
20.9836333061
 21
10.13252234642182
 31
0.0
 11
21.1784412833
 21
10.65984276312182
 31
0.0
 11
21.3100036371
 21
11.17549276282182
 31
0.0
 11
21.3894620645
 21
11.68875377502182
 31
0.0
 11
21.4162350499
 21
12.07929407812182
 31
0.0
  0
SPLINE
  5
342
330
206
100
AcDbEntity
  8
DATUM_AXIS
  6
Continuous
 62
     7
100
AcDbSpline
210
0.0
220
0.0
230
1.0
 70
     8
 71
     3
 72
    12
 73
     8
 74
     6
 42
0.0000000001
 43
0.0000000001
 44
0.0000000001
 12
0.9999999988725722
 22
0.0000474853173348
 32
0.0
 13
0.0
 23
-1.0
 33
0.0
 40
0.0
 40
0.0
 40
0.0
 40
0.0
 40
0.0942321167180749
 40
0.1812277148404399
 40
0.2529798278176444
 40
0.3046390132413911
 40
0.3385404352229427
 40
0.3385404352229427
 40
0.3385404352229427
 40
0.3385404352229427
 10
9.5687792051
 20
18.93214755342182
 30
0.0
 10
9.600189910637277
 20
18.93214904496915
 30
0.0
 10
9.660635638787237
 20
18.92950578391016
 30
0.0
 10
9.744337874129145
 20
18.91840804917256
 30
0.0
 10
9.812405289819963
 20
18.89972611378535
 30
0.0
 10
9.860138282607989
 20
18.87861548882473
 30
0.0
 10
9.8798028271
 20
18.85269414461567
 30
0.0
 10
9.8798028271
 20
18.84139367062182
 30
0.0
 11
9.5687792051
 21
18.93214755342182
 31
0.0
 11
9.662918473699999
 21
18.92796545722182
 31
0.0
 11
9.749030455899999
 21
18.91559773252183
 31
0.0
 11
9.8180679007
 21
18.89604787492183
 31
0.0
 11
9.8632309951
 21
18.87096867352182
 31
0.0
 11
9.8798028271
 21
18.84139367062182
 31
0.0
  0
SPLINE
  5
343
330
206
100
AcDbEntity
  8
DATUM_AXIS
  6
Continuous
 62
     7
100
AcDbSpline
210
0.0
220
0.0
230
1.0
 70
     8
 71
     3
 72
    17
 73
    13
 74
    11
 42
0.0000000001
 43
0.0000000001
 44
0.0000000001
 12
0.0
 22
1.0
 32
0.0
 13
0.0
 23
-1.0
 33
0.0
 40
0.0
 40
0.0
 40
0.0
 40
0.0
 40
0.0310212718240598
 40
0.0790999025193582
 40
0.1494905000851488
 40
0.2376255193728227
 40
0.3316790230536349
 40
0.4267627458169344
 40
0.5150210871750767
 40
0.5893334524190895
 40
0.6438094491362652
 40
0.6793834326440155
 40
0.6793834326440155
 40
0.6793834326440155
 40
0.6793834326440155
 10
10.2420075515
 20
18.82777731992182
 30
0.0
 10
10.2420075515
 20
18.83811774386318
 30
0.0
 10
10.25975381219376
 20
18.86246204056295
 30
0.0
 10
10.30653951072853
 20
18.88045399037726
 30
0.0
 10
10.37416597482241
 20
18.8947747163759
 30
0.0
 10
10.45840553156947
 20
18.90013187826773
 30
0.0
 10
10.55088667789544
 20
18.89768668953146
 30
0.0
 10
10.64288984536901
 20
18.88714456089893
 30
0.0
 10
10.72710100145999
 20
18.86988917469151
 30
0.0
 10
10.79597274388539
 20
18.84608182149687
 30
0.0
 10
10.84412778476381
 20
18.82082801241739
 30
0.0
 10
10.8640547956
 20
18.79343876732441
 30
0.0
 10
10.8640547956
 20
18.78158077282182
 30
0.0
 11
10.2420075515
 21
18.82777731992182
 31
0.0
 11
10.2570050324
 21
18.85493233552183
 31
0.0
 11
10.2998366976
 21
18.87677273812182
 31
0.0
 11
10.3685513975
 21
18.89204121032182
 31
0.0
 11
10.4564325361
 21
18.89872605162182
 31
0.0
 11
10.5504555341
 21
18.89633076422182
 31
0.0
 11
10.6449154208
 21
18.88545675212182
 31
0.0
 11
10.7312027023
 21
18.86690844032182
 31
0.0
 11
10.8012237464
 21
18.84202107382182
 31
0.0
 11
10.8473030547
 21
18.81296368982183
 31
0.0
 11
10.8640547956
 21
18.78158077282182
 31
0.0
  0
SPLINE
  5
344
330
206
100
AcDbEntity
  8
0
  6
Continuous
 62
     7
100
AcDbSpline
210
0.0
220
0.0
230
1.0
 70
     8
 71
     3
 72
    35
 73
    31
 74
    29
 42
0.0000000001
 43
0.0000000001
 44
0.0000000001
 12
-0.0229868866248521
 22
0.9997357666120066
 32
0.0
 13
-0.9870466452433458
 23
0.1604335379958226
 33
0.0
 40
0.0
 40
0.0
 40
0.0
 40
0.0
 40
0.2814601551540415
 40
0.6428202371968315
 40
0.9670790061536155
 40
1.258131534277905
 40
1.517721232796105
 40
1.760192513876956
 40
2.006171698994791
 40
2.268365703817611
 40
2.557115142250653
 40
2.879427520282685
 40
3.23641189659544
 40
3.63191644673174
 40
4.064616599357667
 40
4.530568697262617
 40
5.038039332158867
 40
5.560211589703822
 40
6.074436057021369
 40
6.581458312001169
 40
7.0988612370859
 40
7.669510882482704
 40
8.287231574147032
 40
8.950432198412471
 40
9.651810200536854
 40
10.30785541139844
 40
10.97496190916956
 40
11.65130151088265
 40
12.32258243455767
 40
12.89591700471835
 40
12.89591700471835
 40
12.89591700471835
 40
12.89591700471835
 10
21.417607722
 20
12.38312264382182
 30
0.0
 10
21.41545109110802
 20
12.47691790514971
 30
0.0
 10
21.40501323958603
 20
12.69104440236245
 30
0.0
 10
21.36986513299602
 20
13.01174038994965
 30
0.0
 10
21.31370308602547
 20
13.33260973687839
 30
0.0
 10
21.24751208411295
 20
13.61676965816166
 30
0.0
 10
21.17467758547514
 20
13.87101601086459
 30
0.0
 10
21.09459725954504
 20
14.10725129092077
 30
0.0
 10
21.00281777707742
 20
14.34013505351605
 30
0.0
 10
20.89303765767411
 20
14.58215455222757
 30
0.0
 10
20.7592192623529
 20
14.84081209256252
 30
0.0
 10
20.59477931713983
 20
15.11868070279894
 30
0.0
 10
20.3929545162887
 20
15.41500000441088
 30
0.0
 10
20.15019996375845
 20
15.72695998950071
 30
0.0
 10
19.86847061744081
 20
16.05382473102607
 30
0.0
 10
19.54784062163214
 20
16.39589551501982
 30
0.0
 10
19.19173419786429
 20
16.74496859386994
 30
0.0
 10
18.81088284133304
 20
17.09128823851237
 30
0.0
 10
18.41457123133515
 20
17.4196562006809
 30
0.0
 10
18.00428856913059
 20
17.72773111934429
 30
0.0
 10
17.56430637211965
 20
18.0266185528962
 30
0.0
 10
17.07759741567283
 20
18.32113963244592
 30
0.0
 10
16.53201445437061
 20
18.61041531866645
 30
0.0
 10
15.93112617792678
 20
18.88614317821189
 30
0.0
 10
15.30398296231298
 20
19.1326480204665
 30
0.0
 10
14.66543096841878
 20
19.35144393982017
 30
0.0
 10
14.02753048503118
 20
19.54506502800406
 30
0.0
 10
13.37782164906028
 20
19.71575447183753
 30
0.0
 10
12.75217014553009
 20
19.85286470951822
 30
0.0
 10
12.34376101932638
 20
19.92632721847309
 30
0.0
 10
12.1551250313
 20
19.95698791632182
 30
0.0
 11
21.417607722
 21
12.38312264382182
 31
0.0
 11
21.4038326752
 21
12.66424551202183
 31
0.0
 11
21.3644868302
 21
13.02345716742183
 31
0.0
 11
21.3086918334
 21
13.34287956422183
 31
0.0
 11
21.2426428707
 21
13.62633874762182
 31
0.0
 11
21.1710627219
 21
13.87586448552182
 31
0.0
 11
21.0931415522
 21
14.10547418362182
 31
0.0
 11
21.0029563041
 21
14.33432431042182
 31
0.0
 11
20.8947635239
 21
14.57315483292182
 31
0.0
 11
20.762093791
 21
14.82962116632182
 31
0.0
 11
20.5979298602
 21
15.10699361062182
 31
0.0
 11
20.3973011655
 21
15.40226631812182
 31
0.0
 11
20.155387749
 21
15.71515886852182
 31
0.0
 11
19.8735569777
 21
16.04348924852182
 31
0.0
 11
19.5550597618
 21
16.38359346932182
 31
0.0
 11
19.1930879753
 21
16.73926589032182
 31
0.0
 11
18.806268048
 21
17.09002821782182
 31
0.0
 11
18.4101647352
 21
17.41794431742183
 31
0.0
 11
18.0047512201
 21
17.72242986522182
 31
0.0
 11
17.57665831089999
 21
18.01301934882182
 31
0.0
 11
17.0884718263
 21
18.30851042152182
 31
0.0
 11
16.5428931537
 21
18.59820468262183
 31
0.0
 11
15.9403638056
 21
18.87532099882182
 31
0.0
 11
15.28808775
 21
19.13313304112183
 31
0.0
 11
14.6677410254
 21
19.34659324812183
 31
0.0
 11
14.0293337991
 21
19.54015794732183
 31
0.0
 11
13.3750979078
 21
19.71165329822182
 31
0.0
 11
12.719384825
 21
19.85538371092182
 31
0.0
 11
12.1551250313
 21
19.95698791632182
 31
0.0
  0
SPLINE
  5
345
330
206
100
AcDbEntity
  8
DATUM_AXIS
  6
Continuous
 62
     7
100
AcDbSpline
210
0.0
220
0.0
230
1.0
 70
     8
 71
     3
 72
    12
 73
     8
 74
     6
 42
0.0000000001
 43
0.0000000001
 44
0.0000000001
 12
0.0
 22
1.0
 32
0.0
 13
0.9999999988725726
 23
-0.0000474853146314
 33
0.0
 40
0.0
 40
0.0
 40
0.0
 40
0.0
 40
0.0322790474879052
 40
0.083127296550535
 40
0.1555478454412793
 40
0.2445617793449686
 40
0.3386183733867213
 40
0.3386183733867213
 40
0.3386183733867213
 40
0.3386183733867213
 10
9.257755582999999
 20
18.84139367062182
 30
0.0
 10
9.257755582999999
 20
18.85215335311779
 30
0.0
 10
9.276093125455531
 20
18.87762869861067
 30
0.0
 10
9.323281768894657
 20
18.89911080781857
 30
0.0
 10
9.391811337685169
 20
18.91820368750787
 30
0.0
 10
9.476376016859363
 20
18.92948555657062
 30
0.0
 10
9.537427007121429
 20
18.93214904219081
 30
0.0
 10
9.5687792051
 20
18.93214755342182
 30
0.0
 11
9.257755582999999
 21
18.84139367062182
 31
0.0
 11
9.273034352499999
 21
18.86982773662182
 31
0.0
 11
9.317145360699999
 21
18.89512128102182
 31
0.0
 11
9.386719945299999
 21
18.91522384502183
 31
0.0
 11
9.4748149247
 21
18.92798139312182
 31
0.0
 11
9.5687792051
 21
18.93214755342182
 31
0.0
  0
SPLINE
  5
346
330
206
100
AcDbEntity
  8
DATUM_AXIS
  6
Continuous
 62
     7
100
AcDbSpline
210
0.0
220
0.0
230
1.0
 70
     8
 71
     3
 72
    17
 73
    13
 74
    11
 42
0.0000000001
 43
0.0000000001
 44
0.0000000001
 12
0.0
 22
1.0
 32
0.0
 13
0.0
 23
-1.0
 33
0.0
 40
0.0
 40
0.0
 40
0.0
 40
0.0
 40
0.0339524318029941
 40
0.088025067968312
 40
0.1643984045371057
 40
0.2560764215492002
 40
0.3520716899780055
 40
0.4457035414454921
 40
0.5303666564785769
 40
0.5994592674756464
 40
0.6482498685097596
 40
0.6794357025738097
 40
0.6794357025738097
 40
0.6794357025738097
 40
0.6794357025738097
 10
8.2735036145
 20
18.78158077282182
 30
0.0
 10
8.2735036145
 20
18.79289825008949
 30
0.0
 10
8.292266172948151
 20
18.81992774251258
 30
0.0
 10
8.340431184786668
 20
18.84566899215081
 30
0.0
 10
8.410824875676205
 20
18.87010272707928
 30
0.0
 10
8.497201040943284
 20
18.88759893799639
 30
0.0
 10
8.590529405808879
 20
18.8979601538981
 30
0.0
 10
8.682028461125174
 20
18.90003059320902
 30
0.0
 10
8.764511607660599
 20
18.89453003258632
 30
0.0
 10
8.830786139946864
 20
18.8804683516878
 30
0.0
 10
8.877519915605757
 20
18.86274509739367
 30
0.0
 10
8.8955508586
 20
18.83817259794317
 30
0.0
 10
8.8955508586
 20
18.82777731992182
 30
0.0
 11
8.2735036145
 21
18.78158077282182
 31
0.0
 11
8.289022957
 21
18.81177874682182
 31
0.0
 11
8.3344340546
 21
18.84113317062183
 31
0.0
 11
8.406329125099999
 21
18.86690108432182
 31
0.0
 11
8.4959967619
 21
18.88599489782183
 31
0.0
 11
8.5914017483
 21
18.89662410902182
 31
0.0
 11
8.685012028699999
 21
18.89863383852182
 31
0.0
 11
8.769413577899999
 21
18.89198391072183
 31
0.0
 11
8.8368741976
 21
18.87705562602182
 31
0.0
 11
8.880418218999999
 21
18.85504560672182
 31
0.0
 11
8.8955508586
 21
18.82777731992182
 31
0.0
  0
SPLINE
  5
347
330
206
100
AcDbEntity
  8
0
  6
Continuous
 62
     7
100
AcDbSpline
210
0.0
220
0.0
230
1.0
 70
     8
 71
     3
 72
    34
 73
    30
 74
    28
 42
0.0000000001
 43
0.0000000001
 44
0.0000000001
 12
0.0323206620678464
 22
-0.9994775509252301
 32
0.0
 13
0.9998778334328846
 23
-0.0156306816729317
 33
0.0
 40
0.0
 40
0.0
 40
0.0
 40
0.0
 40
0.3948453540188807
 40
0.9165633036579128
 40
1.450408021042738
 40
2.017163891543019
 40
2.584145101956675
 40
3.206853829448542
 40
3.904211472605193
 40
4.673272709780813
 40
5.478548758021366
 40
6.23713944006295
 40
6.922451336378445
 40
7.558772884086986
 40
8.16359377618984
 40
8.736506216924457
 40
9.268860744624868
 40
9.732642011015693
 40
10.13444825986832
 40
10.50120388701863
 40
10.85895451116424
 40
11.2324289353066
 40
11.64597438693986
 40
12.12092170599978
 40
12.64552383987971
 40
13.23003222293003
 40
13.88936309591329
 40
14.62514529266904
 40
15.18603200602352
 40
15.18603200602352
 40
15.18603200602352
 40
15.18603200602352
 10
-2.2786414107
 20
12.07821121282182
 30
0.0
 10
-2.274387522947899
 20
11.94666485701216
 30
0.0
 10
-2.253446441831006
 20
11.64154578802382
 30
0.0
 10
-2.178415572250524
 20
11.16317636220559
 30
0.0
 10
-2.044375533210508
 20
10.63839970853154
 30
0.0
 10
-1.850430698898503
 20
10.11622996255856
 30
0.0
 10
-1.586538311040571
 20
9.592301566235251
 30
0.0
 10
-1.241712229669675
 20
9.064564579709427
 30
0.0
 10
-0.7986756537895121
 20
8.526024959309973
 30
0.0
 10
-0.2775501750832546
 20
7.976050933601054
 30
0.0
 10
0.2913999404998211
 20
7.445114397359404
 30
0.0
 10
0.8729180107280498
 20
6.970962470268228
 30
0.0
 10
1.439320956594303
 20
6.570110067831715
 30
0.0
 10
1.985998592429519
 20
6.232449451171783
 30
0.0
 10
2.518835120516747
 20
5.94588086238743
 30
0.0
 10
3.034626636296474
 20
5.702647784853691
 30
0.0
 10
3.517729801042859
 20
5.501848710595349
 30
0.0
 10
3.954302081707909
 20
5.338716511072921
 30
0.0
 10
4.342918095386167
 20
5.205491573066629
 30
0.0
 10
4.700561074655954
 20
5.0911993504763
 30
0.0
 10
5.051346499687404
 20
4.986707877659899
 30
0.0
 10
5.419244607145323
 20
4.885299663100668
 30
0.0
 10
5.827255873435314
 20
4.782763465024266
 30
0.0
 10
6.287109598562594
 20
4.680440531611679
 30
0.0
 10
6.805880681485031
 20
4.581583994875222
 30
0.0
 10
7.388343405613044
 20
4.490152760944684
 30
0.0
 10
8.043750570722343
 20
4.412001002682702
 30
0.0
 10
8.694167809038219
 20
4.363183962027953
 30
0.0
 10
9.126251220149946
 20
4.348757714545499
 30
0.0
 10
9.3131906174
 20
4.345835367321825
 30
0.0
 11
-2.2786414107
 21
12.07821121282182
 31
0.0
 11
-2.251432213899999
 21
11.68430448122182
 31
0.0
 11
-2.1710771156
 21
11.16881182642182
 31
0.0
 11
-2.0383734799
 21
10.65172389642182
 31
0.0
 11
-1.8408411924
 21
10.12050528592182
 31
0.0
 11
-1.5861315424
 21
9.613957472621825
 31
0.0
 11
-1.2467360856
 21
9.091868511621825
 31
0.0
 11
-0.8081339814999999
 21
8.549709976921825
 31
0.0
 11
-0.2804183904
 21
7.990271471421825
 31
0.0
 11
0.3088679823
 21
7.441444463321825
 31
0.0
 11
0.8973371901999998
 21
6.962733888721825
 31
0.0
 11
1.4567445956
 21
6.566860487221825
 31
0.0
 11
1.9981846206
 21
6.232573467721826
 31
0.0
 11
2.530658204199999
 21
5.945728223221825
 31
0.0
 11
3.048724164499999
 21
5.701113576221825
 31
0.0
 11
3.540095223799999
 21
5.496282364621825
 31
0.0
 11
3.9744147704
 21
5.333618310521825
 31
0.0
 11
4.354430661
 21
5.203095574921825
 31
0.0
 11
4.7037821175
 21
5.091456648521825
 31
0.0
 11
5.046653911199999
 21
4.989356491021825
 31
0.0
 11
5.406710849999999
 21
4.890148899021825
 31
0.0
 11
5.8078098358
 21
4.789454092021825
 31
0.0
 11
6.271418362899999
 21
4.686293588521825
 31
0.0
 11
6.786725685499999
 21
4.587978980521825
 31
0.0
 11
7.3641697373
 21
4.497378666521825
 31
0.0
 11
8.0188902328
 21
4.419543758921825
 31
0.0
 11
8.7526176797
 21
4.364594011621825
 31
0.0
 11
9.3131906174
 21
4.345835367321825
 31
0.0
  0
SPLINE
  5
348
330
206
100
AcDbEntity
  8
0
  6
Continuous
 62
     7
100
AcDbSpline
210
0.0
220
0.0
230
1.0
 70
     8
 71
     3
 72
    46
 73
    42
 74
    40
 42
0.0000000001
 43
0.0000000001
 44
0.0000000001
 12
-0.9998780723633529
 22
0.0156153900670414
 32
0.0
 13
-0.0322689715638112
 23
0.9994792211317921
 33
0.0
 40
0.0
 40
0.0
 40
0.0
 40
0.0
 40
0.3738444945411761
 40
0.9400430762609309
 40
1.444299215480594
 40
1.909430048759802
 40
2.353802603843178
 40
2.779797792003856
 40
3.173375132219175
 40
3.516300584757372
 40
3.817025382008226
 40
4.086442091230177
 40
4.335333190320027
 40
4.574436800254092
 40
4.814505891069063
 40
5.066397924973394
 40
5.3411231651551
 40
5.649911118155062
 40
6.003545596120775
 40
6.402888483328073
 40
6.822288173490973
 40
7.247865077066942
 40
7.677175378313255
 40
8.108189183388887
 40
8.540107279577371
 40
9.008650233130996
 40
9.498424378672041
 40
9.984768717126881
 40
10.4535320045426
 40
10.88086363050695
 40
11.26105042972372
 40
11.626745237922
 40
12.01212923223299
 40
12.44204517868176
 40
12.92294934606155
 40
13.40359017367466
 40
13.83601051233273
 40
14.21239543857699
 40
14.56809418079845
 40
14.94286809623994
 40
15.18739712502205
 40
15.18739712502205
 40
15.18739712502205
 40
15.18739712502205
 10
9.313190563099999
 20
4.345831691521826
 30
0.0
 10
9.188590925578171
 20
4.347777600724051
 30
0.0
 10
8.875330413035204
 20
4.356378527513114
 30
0.0
 10
8.394582319461832
 20
4.384059304966455
 30
0.0
 10
7.884779115067285
 20
4.43084966633454
 30
0.0
 10
7.416945805874874
 20
4.488041869124094
 30
0.0
 10
6.976647202169994
 20
4.554037284805282
 30
0.0
 10
6.561681503632533
 20
4.627161631649441
 30
0.0
 10
6.181777144481097
 20
4.703694129688926
 30
0.0
 10
5.844463026939003
 20
4.779688614013291
 30
0.0
 10
5.548911328200042
 20
4.852431779487281
 30
0.0
 10
5.284931296644594
 20
4.922113105102748
 30
0.0
 10
5.041798410091017
 20
4.990171559565493
 30
0.0
 10
4.809004166498727
 20
5.058784456815151
 30
0.0
 10
4.576182644359114
 20
5.130767200588005
 30
0.0
 10
4.333046462183584
 20
5.209512187497017
 30
0.0
 10
4.069380568406082
 20
5.299129644614772
 30
0.0
 10
3.775426398076648
 20
5.404895420805849
 30
0.0
 10
3.445123095979325
 20
5.532119921499815
 30
0.0
 10
3.08448559393472
 20
5.682820314247516
 30
0.0
 10
2.707391608729196
 20
5.855773152030592
 30
0.0
 10
2.328088009550583
 20
6.047187991796276
 30
0.0
 10
1.95317524296597
 20
6.255196157674712
 30
0.0
 10
1.585394315292097
 20
6.479673459001346
 30
0.0
 10
1.216413534626818
 20
6.726537882477352
 30
0.0
 10
0.8422504995538554
 20
7.000194090928034
 30
0.0
 10
0.4665281734548571
 20
7.301678046077419
 30
0.0
 10
0.1046784246918423
 20
7.619741293056833
 30
0.0
 10
-0.2298392407172512
 20
7.936809359347362
 30
0.0
 10
-0.5284196806145017
 20
8.239986556744678
 30
0.0
 10
-0.7924652788502148
 20
8.528569798360726
 30
0.0
 10
-1.03699492840969
 20
8.815740847820165
 30
0.0
 10
-1.278178258897421
 20
9.127135675593722
 30
0.0
 10
-1.518669943141389
 20
9.486628798575935
 30
0.0
 10
-1.742974389764922
 20
9.893319711822028
 30
0.0
 10
-1.930268140450906
 20
10.31930965442342
 30
0.0
 10
-2.066537383845013
 20
10.72750076806481
 30
0.0
 10
-2.161507057051439
 20
11.10417174652025
 30
0.0
 10
-2.228033134810996
 20
11.46733460836416
 30
0.0
 10
-2.264724005779032
 20
11.79054430691084
 30
0.0
 10
-2.276018948974567
 20
11.99674374987807
 30
0.0
 10
-2.2786491824
 20
12.07821097762182
 30
0.0
 11
9.313190563099999
 21
4.345831691521826
 31
0.0
 11
8.9394873257
 21
4.356107705121825
 31
0.0
 11
8.374223674999999
 21
4.388632144221825
 31
0.0
 11
7.8720726574
 21
4.434660499221825
 31
0.0
 11
7.410368175499999
 21
4.491013524521825
 31
0.0
 11
6.970901179199999
 21
4.556859761121826
 31
0.0
 11
6.551372727799999
 21
4.630804191621825
 31
0.0
 11
6.165559063799999
 21
4.708591976021825
 31
0.0
 11
5.831016090499999
 21
4.783950220521825
 31
0.0
 11
5.5389967133
 21
4.855783966221825
 31
0.0
 11
5.278498091499999
 21
4.924528647821825
 31
0.0
 11
5.0388166187
 21
4.991607488021825
 31
0.0
 11
4.8094650187
 21
5.059197279121825
 31
0.0
 11
4.580105228999999
 21
5.130100418921825
 31
0.0
 11
4.3404695951
 21
5.207717167821826
 31
0.0
 11
4.0803828723
 21
5.296197980521825
 31
0.0
 11
3.789864759299999
 21
5.400836529521825
 31
0.0
 11
3.4599198754
 21
5.528091068121825
 31
0.0
 11
3.091543475599999
 21
5.682277869221826
 31
0.0
 11
2.710386247699999
 21
5.857250060521826
 31
0.0
 11
2.330492272399999
 21
6.049073595021825
 31
0.0
 11
1.955160738799999
 21
6.257480827721826
 31
0.0
 11
1.587263051399999
 21
6.482034143821826
 31
0.0
 11
1.228217450699999
 21
6.722116418121825
 31
0.0
 11
0.8500400906999999
 21
6.998728752821826
 31
0.0
 11
0.4680053755
 21
7.305205815621826
 31
0.0
 11
0.1023703984
 21
7.625895508421826
 31
0.0
 11
-0.2378954159
 21
7.948320996321825
 31
0.0
 11
-0.5374400513000001
 21
8.253091943021825
 31
0.0
 11
-0.7940009944
 21
8.533660089421825
 31
0.0
 11
-1.030613860899999
 21
8.812491658921825
 31
0.0
 11
-1.2656801035
 21
9.117884331821827
 31
0.0
 11
-1.504271724099999
 21
9.475517886721826
 31
0.0
 11
-1.736561274
 21
9.896600281521825
 31
0.0
 11
-1.9294906861
 21
10.33682050722182
 31
0.0
 11
-2.066881390699999
 21
10.74683409672182
 31
0.0
 11
-2.159043262399999
 21
11.11176121562182
 31
0.0
 11
-2.222994390899999
 21
11.46166384262182
 31
0.0
 11
-2.265226971999999
 21
11.83405059962182
 31
0.0
 11
-2.2786491824
 21
12.07821097762182
 31
0.0
  0
SPLINE
  5
349
330
206
100
AcDbEntity
  8
0
  6
Continuous
 62
     7
100
AcDbSpline
210
0.0
220
0.0
230
1.0
 70
     8
 71
     3
 72
    35
 73
    31
 74
    29
 42
0.0000000001
 43
0.0000000001
 44
0.0000000001
 12
-0.9870167068929479
 22
-0.1606176214311515
 32
0.0
 13
-0.0227694460770291
 23
-0.9997407425554614
 33
0.0
 40
0.0
 40
0.0
 40
0.0
 40
0.0
 40
0.5667152703976827
 40
1.234540452546058
 40
1.908128884835092
 40
2.572009186474002
 40
3.219841746968175
 40
3.906887435502641
 40
4.566619856351955
 40
5.187604189918853
 40
5.76488188137292
 40
6.284922883312728
 40
6.793994497463947
 40
7.316835976028055
 40
7.854264272362176
 40
8.371484284509355
 40
8.840021262693303
 40
9.277992487781281
 40
9.676407639655673
 40
10.03260516688761
 40
10.35281545582317
 40
10.63902471633531
 40
10.89877262234024
 40
11.14275406107463
 40
11.38411248395585
 40
11.64330963338529
 40
11.93373580765534
 40
12.25662052809624
 40
12.61550284829568
 40
12.89394940144368
 40
12.89394940144368
 40
12.89394940144368
 40
12.89394940144368
 10
6.979320032
 20
19.95648150622183
 30
0.0
 10
6.792867552022044
 20
19.92614001996849
 30
0.0
 10
6.387766482055752
 20
19.85327393589178
 30
0.0
 10
5.766249609498109
 20
19.71728246436289
 30
0.0
 10
5.119500991742635
 20
19.54770804406946
 30
0.0
 10
4.48601097062799
 20
19.35584909929034
 30
0.0
 10
3.855387435708722
 20
19.14043657565773
 30
0.0
 10
3.235844849139895
 20
18.89836482477859
 30
0.0
 10
2.63848802988768
 20
18.62659208450278
 30
0.0
 10
2.090024588976736
 20
18.33818157820619
 30
0.0
 10
1.598792253980414
 20
18.04305654431868
 30
0.0
 10
1.154908649780852
 20
17.74319466648266
 30
0.0
 10
0.7403454455681097
 20
17.43343305217614
 30
0.0
 10
0.3367528621822547
 20
17.10029284029403
 30
0.0
 10
-0.0526164182875674
 20
16.74666192062667
 30
0.0
 10
-0.4151787834008967
 20
16.39102587087867
 30
0.0
 10
-0.7394956633751029
 20
16.04436329529022
 30
0.0
 10
-1.023096293128981
 20
15.71436478431284
 30
0.0
 10
-1.266545753665996
 20
15.3998079943419
 30
0.0
 10
-1.467283404730125
 20
15.10273978224034
 30
0.0
 10
-1.629861359615421
 20
14.82587976968637
 30
0.0
 10
-1.761837176872565
 20
14.56893407560718
 30
0.0
 10
-1.87002942956387
 20
14.32875438353957
 30
0.0
 10
-1.960610441260313
 20
14.09739239272318
 30
0.0
 10
-2.039872469860591
 20
13.86211489853099
 30
0.0
 10
-2.112095196585857
 20
13.60843374588299
 30
0.0
 10
-2.177677986739464
 20
13.32495245354546
 30
0.0
 10
-2.23314996917707
 20
13.00548023940259
 30
0.0
 10
-2.267719981225232
 20
12.68702840628756
 30
0.0
 10
-2.277963020074253
 20
12.47472845232389
 30
0.0
 10
-2.280076377999999
 20
12.38193699772182
 30
0.0
 11
6.979320032
 21
19.95648150622183
 31
0.0
 11
6.421573795499999
 21
19.85605574572182
 31
0.0
 11
5.7691907426
 21
19.71327330212182
 31
0.0
 11
5.117533676399999
 21
19.54279032882183
 31
0.0
 11
4.482094021099999
 21
19.35055739882182
 31
0.0
 11
3.869299830899999
 21
19.14039006812182
 31
0.0
 11
3.2298274004
 21
18.88917942192182
 31
0.0
 11
2.629573294
 21
18.61542428522183
 31
0.0
 11
2.080118529499999
 21
18.32607846392182
 31
0.0
 11
1.585332198999999
 21
18.02869652062183
 31
0.0
 11
1.1542953053
 21
17.73775006512182
 31
0.0
 11
0.7465225702
 21
17.43299556582182
 31
0.0
 11
0.3431713468999999
 21
17.10032305062182
 31
0.0
 11
-0.0551945834
 21
16.73958248002183
 31
0.0
 11
-0.4239891761
 21
16.37694341792182
 31
0.0
 11
-0.7439246006999999
 21
16.03464497502183
 31
0.0
 11
-1.0286668632
 21
15.70186781542182
 31
0.0
 11
-1.271509511599999
 21
15.38601645582182
 31
0.0
 11
-1.4706522094
 21
15.09068805502183
 31
0.0
 11
-1.6328099268
 21
14.81457303582183
 31
0.0
 11
-1.763557699499999
 21
14.55997381992182
 31
0.0
 11
-1.870127270699999
 21
14.32309431222182
 31
0.0
 11
-1.9590757405
 21
14.09590471702182
 31
0.0
 11
-2.036210207099999
 21
13.86720368432182
 31
0.0
 11
-2.107270645299999
 21
13.61793760882182
 31
0.0
 11
-2.1727479638
 21
13.33498870272182
 31
0.0
 11
-2.2278761249
 21
13.01684497962182
 31
0.0
 11
-2.2665881297
 21
12.66005666642182
 31
0.0
 11
-2.280076377999999
 21
12.38193699772182
 31
0.0
  0
SPLINE
  5
34A
330
206
100
AcDbEntity
  8
0
  6
Continuous
 62
     7
100
AcDbSpline
210
0.0
220
0.0
230
1.0
 70
     8
 71
     3
 72
    36
 73
    32
 74
    30
 42
0.0000000001
 43
0.0000000001
 44
0.0000000001
 12
0.0227502467390682
 22
0.9997411796426671
 32
0.0
 13
0.9870127481336556
 23
0.1606419466442337
 33
0.0
 40
0.0
 40
0.0
 40
0.0
 40
0.0
 40
0.1833483947604683
 40
0.4886848951714003
 40
0.7849172546986405
 40
1.070431821887632
 40
1.368608208200976
 40
1.703344472833873
 40
2.078381851059132
 40
2.494299545754867
 40
2.958653842923841
 40
3.478996018340448
 40
4.036873430027648
 40
4.596755954892387
 40
5.139180082692963
 40
5.611280263555569
 40
6.026976746633407
 40
6.406197665842963
 40
6.769720707389912
 40
7.15219075593092
 40
7.573287642823173
 40
8.02250396562926
 40
8.506177549474626
 40
9.030728511119333
 40
9.603456509846431
 40
10.21615136703655
 40
10.78542129340368
 40
11.31453402186207
 40
11.83262016595344
 40
12.37725618044037
 40
12.89389210312988
 40
12.89389210312988
 40
12.89389210312988
 40
12.89389210312988
 10
-2.280078568299999
 20
12.38193704442182
 30
0.0
 10
-2.278688161226662
 20
12.44303735790963
 30
0.0
 10
-2.272252048890246
 20
12.60583639105474
 30
0.0
 10
-2.249997859230731
 20
12.86668059873898
 30
0.0
 10
-2.20818454193786
 20
13.15955422641987
 30
0.0
 10
-2.151233582348879
 20
13.44741317720506
 30
0.0
 10
-2.076066636994553
 20
13.74433430891264
 30
0.0
 10
-1.97467833963115
 20
14.06489738985394
 30
0.0
 10
-1.836456117049267
 20
14.41412457416906
 30
0.0
 10
-1.652686131209317
 20
14.79051429811125
 30
0.0
 10
-1.41420691306247
 20
15.19259643038417
 30
0.0
 10
-1.111535674122124
 20
15.60910527175358
 30
0.0
 10
-0.7582360099672877
 20
16.02587660467024
 30
0.0
 10
-0.3788705929297351
 20
16.42906660971534
 30
0.0
 10
-0.0017150698571252
 20
16.79422052474424
 30
0.0
 10
0.3530951030376415
 20
17.11280908143454
 30
0.0
 10
0.6784533342713378
 20
17.38226031526857
 30
0.0
 10
0.9848450623905939
 20
17.61740878382407
 30
0.0
 10
1.290143967621016
 20
17.8354084754692
 30
0.0
 10
1.614494196256292
 20
18.05036761075271
 30
0.0
 10
1.971384550758814
 20
18.2674226344236
 30
0.0
 10
2.366594964883684
 20
18.48565876517603
 30
0.0
 10
2.801626282391889
 20
18.70224869503175
 30
0.0
 10
3.283477365823868
 20
18.91605920501648
 30
0.0
 10
3.814235928526784
 20
19.12433683306652
 30
0.0
 10
4.366873272627823
 20
19.3162975612516
 30
0.0
 10
4.911446766336938
 20
19.48614419097826
 30
0.0
 10
5.430562284416395
 20
19.63083754558651
 30
0.0
 10
5.94586669995903
 20
19.75773272657228
 30
0.0
 10
6.461024645340943
 20
19.86666738089743
 30
0.0
 10
6.809344813853887
 20
19.92881578474609
 30
0.0
 10
6.979320227799999
 20
19.95648025152182
 30
0.0
 11
-2.280078568299999
 21
12.38193704442182
 31
0.0
 11
-2.272814295199999
 21
12.56514147722182
 31
0.0
 11
-2.246828701399999
 21
12.86937021912182
 31
0.0
 11
-2.205026452499999
 21
13.16263832652182
 31
0.0
 11
-2.149662034499999
 21
13.44273357692183
 31
0.0
 11
-2.076425515099999
 21
13.73177608172182
 31
0.0
 11
-1.975227551399999
 21
14.05084870512182
 31
0.0
 11
-1.8372780793
 21
14.39959356632182
 31
0.0
 11
-1.655085458199999
 21
14.77348309222182
 31
0.0
 11
-1.4180586724
 21
15.17278650582182
 31
0.0
 11
-1.1140127517
 21
15.59505662982182
 31
0.0
 11
-0.7550955917000001
 21
16.02214640812183
 31
0.0
 11
-0.3717400034
 21
16.43019902062183
 31
0.0
 11
0.0176041458
 21
16.80786960182182
 31
0.0
 11
0.3692743704999999
 21
17.12284044782182
 31
0.0
 11
0.6894928656000001
 21
17.38791342162182
 31
0.0
 11
0.9903210518000001
 21
17.61880497182182
 31
0.0
 11
1.2861702795
 21
17.83004473182182
 31
0.0
 11
1.6050270746
 21
18.04126424382182
 31
0.0
 11
1.964801892499999
 21
18.26008990172183
 31
0.0
 11
2.3579657509
 21
18.47738574872182
 31
0.0
 11
2.7908855406
 21
18.69307207512182
 31
0.0
 11
3.270199119299999
 21
18.90617347032182
 31
0.0
 11
3.8030919517
 21
19.11603673462182
 31
0.0
 11
4.3816028179
 21
19.31782911732183
 31
0.0
 11
4.925076524499999
 21
19.48725337562182
 31
0.0
 11
5.434791937
 21
19.62920575382182
 31
0.0
 11
5.937894536599999
 21
19.75290307382183
 31
0.0
 11
6.470724667699999
 21
19.86568800042183
 31
0.0
 11
6.979320227799999
 21
19.95648025152182
 31
0.0
  0
SPLINE
  5
34E
330
206
100
AcDbEntity
  8
0
  6
Continuous
 62
     7
100
AcDbSpline
210
0.0
220
0.0
230
1.0
 70
     8
 71
     3
 72
    54
 73
    50
 74
    48
 42
0.0000000001
 43
0.0000000001
 44
0.0000000001
 12
-0.0000450758363997
 22
-0.9999999989840844
 32
0.0
 13
0.9999999924633062
 23
0.0001227737255171
 33
0.0
 40
0.0
 40
0.0
 40
0.0
 40
0.0
 40
0.3134888468489817
 40
0.5973472896030599
 40
0.8535300569551958
 40
1.084237719453213
 40
1.293182493707013
 40
1.492017625254467
 40
1.693410449485861
 40
1.897297338439651
 40
2.10028486153455
 40
2.302716052406603
 40
2.505167305478064
 40
2.706416109100661
 40
2.905382768452136
 40
3.101736803635817
 40
3.296016561335385
 40
3.48974134185092
 40
3.683464701650821
 40
3.876745168126255
 40
4.06995664264895
 40
4.263603176580625
 40
4.456933001034678
 40
4.649369801739013
 40
4.846219773104901
 40
5.055436141275229
 40
5.284950193810288
 40
5.542754686094888
 40
5.836918436381684
 40
6.173612365102985
 40
6.539688484913389
 40
6.911007669569224
 40
7.281953905952956
 40
7.658351294319864
 40
8.038341044743772
 40
8.416501464683557
 40
8.791869123923289
 40
9.165342953598738
 40
9.538517448181615
 40
9.912282745502867
 40
10.28469789748048
 40
10.65808995366386
 40
11.04605087637841
 40
11.46389403590041
 40
11.92639565302436
 40
12.44077047587329
 40
13.0093914018906
 40
13.63449179154473
 40
14.31842760000524
 40
14.31842760000524
 40
14.31842760000524
 40
14.31842760000524
 10
-1.453728893199999
 20
12.25598276632182
 30
0.0
 10
-1.453733603457324
 20
12.15148648414499
 30
0.0
 10
-1.446836799479611
 20
11.9522999969462
 30
0.0
 10
-1.418420718183072
 20
11.66904162019304
 30
0.0
 10
-1.37774174040028
 20
11.41522761032277
 30
0.0
 10
-1.328852516039991
 20
11.18839229012673
 30
0.0
 10
-1.273942880622066
 20
10.98268952174327
 30
0.0
 10
-1.212671495062785
 20
10.78902612899406
 30
0.0
 10
-1.14326802088649
 20
10.59991719976057
 30
0.0
 10
-1.064578032765849
 20
10.41297059436662
 30
0.0
 10
-0.9768879463460111
 20
10.22969075434313
 30
0.0
 10
-0.8810869516592202
 20
10.05106835987104
 30
0.0
 10
-0.7778305735008666
 20
9.877330110400254
 30
0.0
 10
-0.6680093478345018
 20
9.709049877835976
 30
0.0
 10
-0.5527374989775485
 20
9.546950126595858
 30
0.0
 10
-0.4329160686932556
 20
9.39111712945111
 30
0.0
 10
-0.3092692929700319
 20
9.240571088082495
 30
0.0
 10
-0.182132474722581
 20
9.094130296396663
 30
0.0
 10
-0.0519435164252049
 20
8.950856231049003
 30
0.0
 10
0.0805904169679224
 20
8.809990135690442
 30
0.0
 10
0.2152145390291964
 20
8.671155890431236
 30
0.0
 10
0.3520736139819967
 20
8.5344996208617
 30
0.0
 10
0.4909685929603257
 20
8.400284187656698
 30
0.0
 10
0.6328849584982209
 20
8.267697707458411
 30
0.0
 10
0.7810241044567095
 20
8.13405761624161
 30
0.0
 10
0.9409659816922948
 20
7.995100805454994
 30
0.0
 10
1.119373155000676
 20
7.846486219592062
 30
0.0
 10
1.323446791957438
 20
7.684541934760455
 30
0.0
 10
1.560557883826249
 20
7.506915938934744
 30
0.0
 10
1.83278984923057
 20
7.316224583637302
 30
0.0
 10
2.133203743568485
 20
7.121299388107261
 30
0.0
 10
2.450486575629156
 20
6.931861390498903
 30
0.0
 10
2.777689395952192
 20
6.752834142944631
 30
0.0
 10
3.114121127501485
 20
6.585232549414012
 30
0.0
 10
3.458583093172322
 20
6.42894833176711
 30
0.0
 10
3.807613053234529
 20
6.284085985316607
 30
0.0
 10
4.158621532161757
 20
6.150097716432837
 30
0.0
 10
4.511277131699324
 20
6.025446322110861
 30
0.0
 10
4.866013607375055
 20
5.908553674954081
 30
0.0
 10
5.222900135564572
 20
5.799593004186417
 30
0.0
 10
5.582203787684227
 20
5.698618895114278
 30
0.0
 10
5.948300308690813
 20
5.604681758861191
 30
0.0
 10
6.331285479863815
 20
5.516061966896389
 30
0.0
 10
6.745519206082338
 20
5.431294444223118
 30
0.0
 10
7.203487633016443
 20
5.350882672675838
 30
0.0
 10
7.713531565294875
 20
5.277752140422557
 30
0.0
 10
8.279763977457129
 20
5.216834456959185
 30
0.0
 10
8.904384618074482
 20
5.174479338547088
 30
0.0
 10
9.340800603898037
 20
5.164208967439419
 30
0.0
 10
9.568779205
 20
5.164236957221826
 30
0.0
 11
-1.453728893199999
 21
12.25598276632182
 31
0.0
 11
-1.442916939499999
 21
11.94268042232182
 31
0.0
 11
-1.4145919503
 21
11.66023872832182
 31
0.0
 11
-1.3740408436
 21
11.40728573262182
 31
0.0
 11
-1.325417943799999
 21
11.18176003752182
 31
0.0
 11
-1.271512296599999
 21
10.97988854402182
 31
0.0
 11
-1.2115158423
 21
10.79032104942182
 31
0.0
 11
-1.142105149999999
 21
10.60126755052182
 31
0.0
 11
-1.062975066099999
 21
10.41336253912182
 31
0.0
 11
-0.9754172289999999
 21
10.23022991042182
 31
0.0
 11
-0.8797994725
 21
10.05180448712182
 31
0.0
 11
-0.7764203716
 21
9.877737628221826
 31
0.0
 11
-0.6664804001000001
 21
9.709172259221826
 31
0.0
 11
-0.5512312395000001
 21
9.546982979321825
 31
0.0
 11
-0.431668496
 21
9.391227859021824
 31
0.0
 11
-0.3084751618
 21
9.241001274621826
 31
0.0
 11
-0.1815866546
 21
9.094616175221826
 31
0.0
 11
-0.0514330748
 21
8.951128246121825
 31
0.0
 11
0.0809573486
 21
8.810308806721826
 31
0.0
 11
0.2154833946
 21
8.671624211921827
 31
0.0
 11
0.3525193727
 21
8.534802719421826
 31
0.0
 11
0.4915574158
 21
8.400471622521825
 31
0.0
 11
0.6321839807
 21
8.269109179221825
 31
0.0
 11
0.7783574236000001
 21
8.137263679421826
 31
0.0
 11
0.9363059246999998
 21
8.000063972021825
 31
0.0
 11
1.1126675924
 21
7.853185578521825
 31
0.0
 11
1.3146361655
 21
7.692961199221826
 31
0.0
 11
1.5500675208
 21
7.516596835121825
 31
0.0
 11
1.825834741499999
 21
7.323425300921825
 31
0.0
 11
2.1329324665
 21
7.124169905021825
 31
0.0
 11
2.4517499265
 21
6.933819270421825
 31
0.0
 11
2.7771880593
 21
6.755799237821825
 31
0.0
 11
3.114019348799999
 21
6.587812106221825
 31
0.0
 11
3.4599585417
 21
6.430591607421825
 31
0.0
 11
3.809144026
 21
6.285419982221825
 31
0.0
 11
4.159748001999999
 21
6.151338918621825
 31
0.0
 11
4.5118021412
 21
6.026677037821825
 31
0.0
 11
4.866240493899999
 21
5.909918065821825
 31
0.0
 11
5.22372321
 21
5.800800674121825
 31
0.0
 11
5.582257201699999
 21
5.700071223521826
 31
0.0
 11
5.943940715499999
 21
5.607299118521826
 31
0.0
 11
6.3219199533
 21
5.519861292921826
 31
0.0
 11
6.7312815869
 21
5.436099971921825
 31
0.0
 11
7.1868182125
 21
5.356136676721826
 31
0.0
 11
7.695990843599999
 21
5.283166202421825
 31
0.0
 11
8.2613553984
 21
5.222398796021826
 31
0.0
 11
8.8850296634
 21
5.180197986521825
 31
0.0
 11
9.568779205
 21
5.164236957221826
 31
0.0
  0
SPLINE
  5
34F
330
206
100
AcDbEntity
  8
0
  6
Continuous
 62
     7
100
AcDbSpline
210
0.0
220
0.0
230
1.0
 70
     8
 71
     3
 72
    54
 73
    50
 74
    48
 42
0.0000000001
 43
0.0000000001
 44
0.0000000001
 12
-0.0000299534705891
 22
0.9999999995513949
 32
0.0
 13
-0.9999999924633062
 23
-0.0001227737255171
 33
0.0
 40
0.0
 40
0.0
 40
0.0
 40
0.0
 40
0.3134888468489835
 40
0.5973472896030618
 40
0.853530056955198
 40
1.084237719453214
 40
1.293182493707015
 40
1.492017625254468
 40
1.693410449485861
 40
1.897297338439653
 40
2.100284861534551
 40
2.302716052406605
 40
2.505167305478066
 40
2.706416109100662
 40
2.905382768452137
 40
3.101736803635818
 40
3.296016561335387
 40
3.489741341850924
 40
3.683464701650822
 40
3.876745168126257
 40
4.069956642648953
 40
4.263603176580627
 40
4.456933001106596
 40
4.649369801737856
 40
4.846219773103744
 40
5.055436141208494
 40
5.284950193807548
 40
5.542754686092149
 40
5.836918436378946
 40
6.173612365100245
 40
6.53968848491065
 40
6.911007669566486
 40
7.281953905950218
 40
7.658351294317122
 40
8.038341044741034
 40
8.416501464642431
 40
8.791869123882163
 40
9.16534295359099
 40
9.538517448173868
 40
9.912282745495122
 40
10.28469789747274
 40
10.65808995365611
 40
11.04605087637066
 40
11.46389403599063
 40
11.92639565301609
 40
12.44077047586502
 40
13.00939140188233
 40
13.63449179153646
 40
14.31842760009694
 40
14.31842760009694
 40
14.31842760009694
 40
14.31842760009694
 10
20.5912873033
 20
12.25598276632182
 30
0.0
 10
20.59128417327368
 20
12.36047904855794
 30
0.0
 10
20.58439850555907
 20
12.55966553567253
 30
0.0
 10
20.55597837106441
 20
12.84292391245633
 30
0.0
 10
20.51530032372963
 20
13.09673792231957
 30
0.0
 10
20.46641088637386
 20
13.32357324251721
 30
0.0
 10
20.41150130037335
 20
13.5292760109003
 30
0.0
 10
20.3502299025958
 20
13.72293940364961
 30
0.0
 10
20.28082643168767
 20
13.91204833288307
 30
0.0
 10
20.2021364426779
 20
14.09899493827703
 30
0.0
 10
20.11444635649612
 20
14.28227477830051
 30
0.0
 10
20.01864536174581
 20
14.46089717277261
 30
0.0
 10
19.91538898360444
 20
14.63463542224339
 30
0.0
 10
19.80556775793356
 20
14.80291565480768
 30
0.0
 10
19.6902959090778
 20
14.96501540604779
 30
0.0
 10
19.5704744787932
 20
15.12084840319255
 30
0.0
 10
19.44682770307001
 20
15.27139444456112
 30
0.0
 10
19.31969088482269
 20
15.41783523624711
 30
0.0
 10
19.18950192652479
 20
15.56110930159421
 30
0.0
 10
19.05696799313363
 20
15.70197539695483
 30
0.0
 10
18.92234387106497
 20
15.84080964220635
 30
0.0
 10
18.78548479612285
 20
15.97746591182158
 30
0.0
 10
18.64658981704148
 20
16.11168134491883
 30
0.0
 10
18.50467345160076
 20
16.2442678252192
 30
0.0
 10
18.35653430567379
 20
16.37790791640458
 30
0.0
 10
18.19659242834062
 20
16.51686472707632
 30
0.0
 10
18.01818525514218
 20
16.66547931306949
 30
0.0
 10
17.8141116181341
 20
16.82742359787311
 30
0.0
 10
17.57700052627653
 20
17.00504959371222
 30
0.0
 10
17.30476856086854
 20
17.19574094900528
 30
0.0
 10
17.00435466653182
 20
17.39066614453683
 30
0.0
 10
16.68707183447054
 20
17.58010414214412
 30
0.0
 10
16.35986901414868
 20
17.75913138970108
 30
0.0
 10
16.02343728259525
 20
17.92673298322189
 30
0.0
 10
15.6789753169516
 20
18.08301720090039
 30
0.0
 10
15.32994535684383
 20
18.22787954720964
 30
0.0
 10
14.97893687791964
 20
18.36186781609019
 30
0.0
 10
14.62628127842181
 20
18.48651921055951
 30
0.0
 10
14.27154480272211
 20
18.60341185768149
 30
0.0
 10
13.91465827453616
 20
18.71237252845927
 30
0.0
 10
13.55535462241567
 20
18.81334663752928
 30
0.0
 10
13.18925810140886
 20
18.90728377378074
 30
0.0
 10
12.80627293020585
 20
18.99590356576211
 30
0.0
 10
12.39203920397938
 20
19.08067108839471
 30
0.0
 10
11.93407077705288
 20
19.16108285998248
 30
0.0
 10
11.42402684480455
 20
19.234213392218
 30
0.0
 10
10.85779443264305
 20
19.29513107568528
 30
0.0
 10
10.2331737919922
 20
19.33748619409916
 30
0.0
 10
9.796757806135287
 20
19.34775656520423
 30
0.0
 10
9.568779205
 20
19.34772857542182
 30
0.0
 11
20.5912873033
 21
12.25598276632182
 31
0.0
 11
20.5804753496
 21
12.56928511032182
 31
0.0
 11
20.5521503604
 21
12.85172680432183
 31
0.0
 11
20.5115992537
 21
13.10467980002182
 31
0.0
 11
20.4629763539
 21
13.33020549512182
 31
0.0
 11
20.4090707067
 21
13.53207698862182
 31
0.0
 11
20.3490742524
 21
13.72164448322182
 31
0.0
 11
20.2796635601
 21
13.91069798212182
 31
0.0
 11
20.2005334762
 21
14.09860299352182
 31
0.0
 11
20.1129756391
 21
14.28173562222182
 31
0.0
 11
20.0173578826
 21
14.46016104552182
 31
0.0
 11
19.9139787817
 21
14.63422790442182
 31
0.0
 11
19.8040388102
 21
14.80279327342182
 31
0.0
 11
19.6887896496
 21
14.96498255332183
 31
0.0
 11
19.5692269061
 21
15.12073767362182
 31
0.0
 11
19.4460335719
 21
15.27096425802182
 31
0.0
 11
19.3191450647
 21
15.41734935742183
 31
0.0
 11
19.1889914849
 21
15.56083728652182
 31
0.0
 11
19.0566010615
 21
15.70165672592182
 31
0.0
 11
18.9220750155
 21
15.84034132072182
 31
0.0
 11
18.7850390374
 21
15.97716281322182
 31
0.0
 11
18.6460009942
 21
16.11149391012182
 31
0.0
 11
18.5053744294
 21
16.24285635342183
 31
0.0
 11
18.3592009865
 21
16.37470185322182
 31
0.0
 11
18.2012524854
 21
16.51190156052183
 31
0.0
 11
18.0248908177
 21
16.65877995412182
 31
0.0
 11
17.8229222446
 21
16.81900433342183
 31
0.0
 11
17.5874908893
 21
16.99536869752182
 31
0.0
 11
17.3117236686
 21
17.18854023172182
 31
0.0
 11
17.0046259436
 21
17.38779562762182
 31
0.0
 11
16.6858084836
 21
17.57814626222182
 31
0.0
 11
16.3603703508
 21
17.75616629482183
 31
0.0
 11
16.0235390613
 21
17.92415342642182
 31
0.0
 11
15.6775998684
 21
18.08137392522182
 31
0.0
 11
15.3284143841
 21
18.22654555032183
 31
0.0
 11
14.9778104081
 21
18.36062661392182
 31
0.0
 11
14.6257562689
 21
18.48528849482183
 31
0.0
 11
14.2713179162
 21
18.60204746682182
 31
0.0
 11
13.9138352001
 21
18.71116485852182
 31
0.0
 11
13.5553012084
 21
18.81189430912182
 31
0.0
 11
13.1936176946
 21
18.90466641412182
 31
0.0
 11
12.8156384568
 21
18.99210423972182
 31
0.0
 11
12.4062768231
 21
19.07586556072183
 31
0.0
 11
11.9507401976
 21
19.15582885592182
 31
0.0
 11
11.4415675665
 21
19.22879933022182
 31
0.0
 11
10.8762030117
 21
19.28956673662182
 31
0.0
 11
10.2525287467
 21
19.33176754612182
 31
0.0
 11
9.568779205
 21
19.34772857542182
 31
0.0
  0
SPLINE
  5
357
330
206
100
AcDbEntity
  8
0
  6
Continuous
 62
     7
100
AcDbSpline
210
0.0
220
0.0
230
1.0
 70
     8
 71
     3
 72
    54
 73
    50
 74
    48
 42
0.0000000001
 43
0.0000000001
 44
0.0000000001
 12
0.0000299534705891
 22
0.9999999995513949
 32
0.0
 13
0.9999999924633062
 23
-0.0001227737255171
 33
0.0
 40
0.0
 40
0.0
 40
0.0
 40
0.0
 40
0.3134888468489835
 40
0.5973472896030616
 40
0.8535300569551976
 40
1.084237719453214
 40
1.293182493707015
 40
1.492017625254468
 40
1.693410449485862
 40
1.897297338439653
 40
2.100284861534552
 40
2.302716052406605
 40
2.505167305478066
 40
2.706416109100663
 40
2.905382768452138
 40
3.101736803635818
 40
3.296016561335387
 40
3.489741341850923
 40
3.683464701650823
 40
3.876745168126257
 40
4.069956642648953
 40
4.263603176580628
 40
4.456933001034681
 40
4.649369801739016
 40
4.846219773104904
 40
5.055436141209655
 40
5.284950193808709
 40
5.542754686093309
 40
5.836918436380105
 40
6.173612365101404
 40
6.539688484911811
 40
6.911007669567645
 40
7.281953905951378
 40
7.658351294318284
 40
8.038341044742193
 40
8.416501464643589
 40
8.791869123883319
 40
9.16534295359215
 40
9.538517448175026
 40
9.91228274549628
 40
10.2846978974739
 40
10.65808995365727
 40
11.04605087637182
 40
11.46389403589382
 40
11.92639565301778
 40
12.4407704758667
 40
13.00939140188402
 40
13.63449179153815
 40
14.31842759999865
 40
14.31842759999865
 40
14.31842759999865
 40
14.31842759999865
 10
-1.453728893199999
 20
12.25598276632182
 30
0.0
 10
-1.453725763173681
 20
12.36047904855794
 30
0.0
 10
-1.446840095459063
 20
12.55966553567253
 30
0.0
 10
-1.418419960964416
 20
12.84292391245633
 30
0.0
 10
-1.377741913629622
 20
13.09673792231957
 30
0.0
 10
-1.32885247627386
 20
13.32357324251721
 30
0.0
 10
-1.273942890273351
 20
13.5292760109003
 30
0.0
 10
-1.212671492495799
 20
13.72293940364961
 30
0.0
 10
-1.143268021587666
 20
13.91204833288307
 30
0.0
 10
-1.064578032577903
 20
14.09899493827703
 30
0.0
 10
-0.9768879463961244
 20
14.28227477830052
 30
0.0
 10
-0.8810869516458033
 20
14.46089717277261
 30
0.0
 10
-0.7778305735044398
 20
14.63463542224339
 30
0.0
 10
-0.6680093478335582
 20
14.80291565480768
 30
0.0
 10
-0.5527374989777972
 20
14.96501540604779
 30
0.0
 10
-0.4329160686931889
 20
15.12084840319254
 30
0.0
 10
-0.3092692929700498
 20
15.27139444456115
 30
0.0
 10
-0.1821324747225754
 20
15.41783523624699
 30
0.0
 10
-0.0519435164252129
 20
15.56110930159465
 30
0.0
 10
0.0805904169679504
 20
15.70197539695318
 30
0.0
 10
0.2152145390290942
 20
15.84080964221253
 30
0.0
 10
0.3520736139823754
 20
15.97746591178151
 30
0.0
 10
0.4909685929589198
 20
16.11168134498859
 30
0.0
 10
0.6328849585034919
 20
16.24426782517912
 30
0.0
 10
0.7810241044197606
 20
16.37790791641144
 30
0.0
 10
0.9409659817613359
 20
16.51686472707424
 30
0.0
 10
1.119373154957202
 20
16.66547931307014
 30
0.0
 10
1.323446791966105
 20
16.82742359787289
 30
0.0
 10
1.560557883823406
 20
17.00504959371228
 30
0.0
 10
1.832789849231469
 20
17.19574094900526
 30
0.0
 10
2.133203743568174
 20
17.39066614453683
 30
0.0
 10
2.450486575629453
 20
17.58010414214412
 30
0.0
 10
2.777689395951315
 20
17.75913138970108
 30
0.0
 10
3.114121127504752
 20
17.92673298322188
 30
0.0
 10
3.458583093148403
 20
18.08301720090039
 30
0.0
 10
3.807613053256164
 20
18.22787954720964
 30
0.0
 10
4.158621532180357
 20
18.3618678160902
 30
0.0
 10
4.511277131678192
 20
18.48651921055952
 30
0.0
 10
4.866013607377889
 20
18.60341185768145
 30
0.0
 10
5.222900135563815
 20
18.7123725284594
 30
0.0
 10
5.58220378768443
 20
18.81334663752879
 30
0.0
 10
5.948300308690756
 20
18.90728377378262
 30
0.0
 10
6.331285479863834
 20
18.99590356574721
 30
0.0
 10
6.74551920608233
 20
19.08067108842055
 30
0.0
 10
7.203487633016447
 20
19.16108285996781
 30
0.0
 10
7.713531565294875
 20
19.2342133922211
 30
0.0
 10
8.279763977457129
 20
19.29513107568446
 30
0.0
 10
8.904384618074482
 20
19.33748619409655
 30
0.0
 10
9.340800603898037
 20
19.34775656520423
 30
0.0
 10
9.568779205
 20
19.34772857542182
 30
0.0
 11
-1.453728893199999
 21
12.25598276632182
 31
0.0
 11
-1.442916939499999
 21
12.56928511032182
 31
0.0
 11
-1.4145919503
 21
12.85172680432183
 31
0.0
 11
-1.3740408436
 21
13.10467980002182
 31
0.0
 11
-1.325417943799999
 21
13.33020549512182
 31
0.0
 11
-1.271512296599999
 21
13.53207698862182
 31
0.0
 11
-1.2115158423
 21
13.72164448322182
 31
0.0
 11
-1.142105149999999
 21
13.91069798212182
 31
0.0
 11
-1.062975066099999
 21
14.09860299352182
 31
0.0
 11
-0.9754172289999999
 21
14.28173562222182
 31
0.0
 11
-0.8797994725
 21
14.46016104552182
 31
0.0
 11
-0.7764203716
 21
14.63422790442182
 31
0.0
 11
-0.6664804001000001
 21
14.80279327342182
 31
0.0
 11
-0.5512312395000001
 21
14.96498255332183
 31
0.0
 11
-0.431668496
 21
15.12073767362182
 31
0.0
 11
-0.3084751618
 21
15.27096425802182
 31
0.0
 11
-0.1815866546
 21
15.41734935742183
 31
0.0
 11
-0.0514330748
 21
15.56083728652182
 31
0.0
 11
0.0809573486
 21
15.70165672592182
 31
0.0
 11
0.2154833946
 21
15.84034132072182
 31
0.0
 11
0.3525193727
 21
15.97716281322182
 31
0.0
 11
0.4915574158
 21
16.11149391012182
 31
0.0
 11
0.6321839807
 21
16.24285635342183
 31
0.0
 11
0.7783574236000001
 21
16.37470185322182
 31
0.0
 11
0.9363059246999998
 21
16.51190156052183
 31
0.0
 11
1.1126675924
 21
16.65877995412182
 31
0.0
 11
1.3146361655
 21
16.81900433342183
 31
0.0
 11
1.5500675208
 21
16.99536869752182
 31
0.0
 11
1.825834741499999
 21
17.18854023172182
 31
0.0
 11
2.1329324665
 21
17.38779562762182
 31
0.0
 11
2.4517499265
 21
17.57814626222182
 31
0.0
 11
2.7771880593
 21
17.75616629482183
 31
0.0
 11
3.114019348799999
 21
17.92415342642182
 31
0.0
 11
3.4599585417
 21
18.08137392522182
 31
0.0
 11
3.809144026
 21
18.22654555032183
 31
0.0
 11
4.159748001999999
 21
18.36062661392182
 31
0.0
 11
4.5118021412
 21
18.48528849482183
 31
0.0
 11
4.866240493899999
 21
18.60204746682182
 31
0.0
 11
5.22372321
 21
18.71116485852182
 31
0.0
 11
5.582257201699999
 21
18.81189430912182
 31
0.0
 11
5.943940715499999
 21
18.90466641412182
 31
0.0
 11
6.3219199533
 21
18.99210423972182
 31
0.0
 11
6.7312815869
 21
19.07586556072183
 31
0.0
 11
7.1868182125
 21
19.15582885592182
 31
0.0
 11
7.695990843599999
 21
19.22879933022182
 31
0.0
 11
8.2613553984
 21
19.28956673662182
 31
0.0
 11
8.8850296634
 21
19.33176754612182
 31
0.0
 11
9.568779205
 21
19.34772857542182
 31
0.0
  0
SPLINE
  5
35E
330
206
100
AcDbEntity
  8
DATUM_AXIS
  6
Continuous
 62
     7
100
AcDbSpline
210
0.0
220
0.0
230
1.0
 70
     8
 71
     3
 72
    13
 73
     9
 74
     7
 42
0.0000000001
 43
0.0000000001
 44
0.0000000001
 12
0.0
 22
-1.0
 32
0.0
 13
-0.999999994905078
 23
-0.0001009447572973
 33
0.0
 40
0.0
 40
0.0
 40
0.0
 40
0.0
 40
0.027529922777314
 40
0.0668818996473041
 40
0.1209619163722033
 40
0.1867951827361888
 40
0.2608346579259637
 40
0.3400315273194334
 40
0.3400315273194334
 40
0.3400315273194334
 40
0.3400315273194334
 10
9.8798028271
 20
18.84139367062182
 30
0.0
 10
9.8798028271
 20
18.83221702969605
 30
0.0
 10
9.867196292273169
 20
18.81095641742923
 30
0.0
 10
9.832231428440277
 20
18.79037906816861
 30
0.0
 10
9.78218828504308
 20
18.77195043441746
 30
0.0
 10
9.718859553768785
 20
18.75826904798327
 30
0.0
 10
9.646285047533874
 20
18.74951022794556
 30
0.0
 10
9.59517816132999
 20
18.74755166365808
 30
0.0
 10
9.568779205
 20
18.74754899882183
 30
0.0
 11
9.8798028271
 21
18.84139367062182
 31
0.0
 11
9.868285009999999
 21
18.81638894032182
 31
0.0
 11
9.8360717272
 21
18.79378623042182
 31
0.0
 11
9.7855812196
 21
18.77441210202182
 31
0.0
 11
9.721391248999999
 21
18.75979476182182
 31
0.0
 11
9.647913782699999
 21
18.75068949782183
 31
0.0
 11
9.568779205
 21
18.74754899882183
 31
0.0
  0
SPLINE
  5
360
330
206
100
AcDbEntity
  8
DATUM_AXIS
  6
Continuous
 62
     7
100
AcDbSpline
210
0.0
220
0.0
230
1.0
 70
     8
 71
     3
 72
    18
 73
    14
 74
    12
 42
0.0000000001
 43
0.0000000001
 44
0.0000000001
 12
0.0
 22
-1.0
 32
0.0
 13
0.0
 23
1.0
 33
0.0
 40
0.0
 40
0.0
 40
0.0
 40
0.0
 40
0.0297128649334421
 40
0.072954008479987
 40
0.1327156138934132
 40
0.2050440761501358
 40
0.286655322161784
 40
0.3731148042704153
 40
0.4587029602200708
 40
0.5376039893552519
 40
0.6030260103913192
 40
0.6509793511755438
 40
0.6821495382418359
 40
0.6821495382418359
 40
0.6821495382418359
 40
0.6821495382418359
 10
10.8640547956
 20
18.78158077282182
 30
0.0
 10
10.8640547956
 20
18.77167648451068
 30
0.0
 10
10.84890362268528
 20
18.74877041830147
 30
0.0
 10
10.80835689556536
 20
18.7302061539927
 30
0.0
 10
10.75160933416448
 20
18.71532548127504
 30
0.0
 10
10.68062878603278
 20
18.70743263946991
 30
0.0
 10
10.60041668552291
 20
18.70616273089216
 30
0.0
 10
10.51596715699263
 20
18.71212746724256
 30
0.0
 10
10.4332190037029
 20
18.72509415871282
 30
0.0
 10
10.35879954624422
 20
18.74387507278874
 30
0.0
 10
10.2989556729837
 20
18.76784624533583
 30
0.0
 10
10.25776186593959
 20
18.79271849528982
 30
0.0
 10
10.2420075515
 20
18.81738725756639
 30
0.0
 10
10.2420075515
 20
18.82777731992182
 30
0.0
 11
10.8640547956
 21
18.78158077282182
 31
0.0
 11
10.8505292425
 21
18.75512488962182
 31
0.0
 11
10.8130748052
 21
18.73351559482182
 31
0.0
 11
10.7554471827
 21
18.71768819432182
 31
0.0
 11
10.6836606065
 21
18.70885111732183
 31
0.0
 11
10.6020635461
 21
18.70732953602183
 31
0.0
 11
10.5158154202
 21
18.71337129282182
 31
0.0
 11
10.4312835684
 21
18.72677645862182
 31
0.0
 11
10.3549735438
 21
18.74683020002182
 31
0.0
 11
10.2945097219
 21
18.77181353602182
 31
0.0
 11
10.2554746874
 21
18.79966652462182
 31
0.0
 11
10.2420075515
 21
18.82777731992182
 31
0.0
  0
SPLINE
  5
362
330
206
100
AcDbEntity
  8
DATUM_AXIS
  6
Continuous
 62
     7
100
AcDbSpline
210
0.0
220
0.0
230
1.0
 70
     8
 71
     3
 72
    12
 73
     8
 74
     6
 42
0.0000000001
 43
0.0000000001
 44
0.0000000001
 12
-0.9999999949050746
 22
0.0001009447901551
 32
0.0
 13
0.0
 23
1.0
 33
0.0
 40
0.0
 40
0.0
 40
0.0
 40
0.0
 40
0.0946701186529853
 40
0.1814370754286924
 40
0.253402692328197
 40
0.3060753225391618
 40
0.3396153476173282
 40
0.3396153476173282
 40
0.3396153476173282
 40
0.3396153476173282
 10
9.568779205
 20
18.74754899882183
 30
0.0
 10
9.537222498943117
 20
18.74755218430691
 30
0.0
 10
9.476704413429967
 20
18.75039598450933
 30
0.0
 10
9.392943958076335
 20
18.76228767254102
 30
0.0
 10
9.324816555126311
 20
18.78192842057861
 30
0.0
 10
9.277107571476042
 20
18.80397545713799
 30
0.0
 10
9.257755582999999
 20
18.83021366226244
 30
0.0
 10
9.257755582999999
 20
18.84139367062182
 30
0.0
 11
9.568779205
 21
18.74754899882183
 31
0.0
 11
9.4742167989
 21
18.75206372122183
 31
0.0
 11
9.388444336599999
 21
18.76516293872182
 31
0.0
 11
9.319457036199999
 21
18.78565201872183
 31
0.0
 11
9.273819556599999
 21
18.81195081012182
 31
0.0
 11
9.257755582999999
 21
18.84139367062182
 31
0.0
  0
SPLINE
  5
366
330
206
100
AcDbEntity
  8
DATUM_AXIS
  6
Continuous
 62
     7
100
AcDbSpline
210
0.0
220
0.0
230
1.0
 70
     8
 71
     3
 72
    18
 73
    14
 74
    12
 42
0.0000000001
 43
0.0000000001
 44
0.0000000001
 12
0.0
 22
-1.0
 32
0.0
 13
0.0
 23
1.0
 33
0.0
 40
0.0
 40
0.0
 40
0.0
 40
0.0
 40
0.0316904450997945
 40
0.0796082310467458
 40
0.1456883790814339
 40
0.2245313439993593
 40
0.3101639144602576
 40
0.3968190524582711
 40
0.4782079236107287
 40
0.5506697852075922
 40
0.6097238165026365
 40
0.6529579017052627
 40
0.6821555574585129
 40
0.6821555574585129
 40
0.6821555574585129
 40
0.6821555574585129
 10
8.8955508586
 20
18.82777731992182
 30
0.0
 10
8.8955508586
 20
18.81721383822189
 30
0.0
 10
8.879481441813871
 20
18.79246196838976
 30
0.0
 10
8.837964020568547
 20
18.76751885284265
 30
0.0
 10
8.777866686984715
 20
18.74359266056645
 30
0.0
 10
8.703223735885247
 20
18.72487119825725
 30
0.0
 10
8.620397700488148
 20
18.71199085653148
 30
0.0
 10
8.535934086676942
 20
18.70612733962452
 30
0.0
 10
8.455692412130959
 20
18.70750758839927
 30
0.0
 10
8.384974820431642
 20
18.71549845434527
 30
0.0
 10
8.328485142785231
 20
18.73046907251241
 30
0.0
 10
8.288303762514454
 20
18.74903102005455
 30
0.0
 10
8.2735036145
 20
18.77184822090407
 30
0.0
 10
8.2735036145
 20
18.78158077282182
 30
0.0
 11
8.8955508586
 21
18.82777731992182
 31
0.0
 11
8.881708471299999
 21
18.79926990642182
 31
0.0
 11
8.842602686699999
 21
18.77157781692182
 31
0.0
 11
8.7814792289
 21
18.74646788122182
 31
0.0
 11
8.705192849699999
 21
18.72655302582182
 31
0.0
 11
8.6206010823
 21
18.71324250322182
 31
0.0
 11
8.534150291299999
 21
18.70729492582183
 31
0.0
 11
8.452777799999999
 21
18.70892771702182
 31
0.0
 11
8.380876498200001
 21
18.71792350412182
 31
0.0
 11
8.323973455599999
 21
18.73371661512183
 31
0.0
 11
8.286627500099999
 21
18.75549884942182
 31
0.0
 11
8.2735036145
 21
18.78158077282182
 31
0.0
  0
SPLINE
  5
367
330
206
100
AcDbEntity
  8
0
  6
Continuous
 62
     7
100
AcDbSpline
210
0.0
220
0.0
230
1.0
 70
     8
 71
     3
 72
    54
 73
    50
 74
    48
 42
0.0000000001
 43
0.0000000001
 44
0.0000000001
 12
0.0000450758363997
 22
-0.9999999989840844
 32
0.0
 13
-0.9999999924633062
 23
0.0001227737255171
 33
0.0
 40
0.0
 40
0.0
 40
0.0
 40
0.0
 40
0.3134888468489816
 40
0.59734728960306
 40
0.8535300569551962
 40
1.084237719453212
 40
1.293182493707013
 40
1.492017625254466
 40
1.693410449485861
 40
1.897297338439651
 40
2.10028486153455
 40
2.302716052406604
 40
2.505167305478065
 40
2.706416109100661
 40
2.905382768452136
 40
3.101736803635818
 40
3.296016561335386
 40
3.489741341850921
 40
3.683464701650821
 40
3.876745168126255
 40
4.069956642648951
 40
4.263603176580625
 40
4.456933001106595
 40
4.649369801737853
 40
4.846219773103742
 40
5.05543614127407
 40
5.284950193809129
 40
5.542754686093729
 40
5.836918436380526
 40
6.173612365101827
 40
6.53968848491223
 40
6.911007669568067
 40
7.281953905951797
 40
7.658351294318703
 40
8.038341044742614
 40
8.416501464682399
 40
8.791869123922131
 40
9.165342953597578
 40
9.538517448180458
 40
9.912282745501711
 40
10.28469789747933
 40
10.6580899536627
 40
11.04605087637725
 40
11.46389403599722
 40
11.92639565302268
 40
12.44077047587161
 40
13.00939140188892
 40
13.63449179154305
 40
14.31842760010353
 40
14.31842760010353
 40
14.31842760010353
 40
14.31842760010353
 10
20.5912873033
 20
12.25598276632182
 30
0.0
 10
20.59129201355732
 20
12.15148648414499
 30
0.0
 10
20.58439520957962
 20
11.9522999969462
 30
0.0
 10
20.55597912828307
 20
11.66904162019304
 30
0.0
 10
20.51530015050028
 20
11.41522761032277
 30
0.0
 10
20.46641092613999
 20
11.18839229012673
 30
0.0
 10
20.41150129072207
 20
10.98268952174327
 30
0.0
 10
20.35022990516278
 20
10.78902612899405
 30
0.0
 10
20.28082643098649
 20
10.59991719976057
 30
0.0
 10
20.20213644286585
 20
10.41297059436662
 30
0.0
 10
20.11444635644601
 20
10.22969075434313
 30
0.0
 10
20.01864536175922
 20
10.05106835987104
 30
0.0
 10
19.91538898360087
 20
9.87733011040026
 30
0.0
 10
19.8055677579345
 20
9.709049877835969
 30
0.0
 10
19.69029590907754
 20
9.546950126595863
 30
0.0
 10
19.57047447879326
 20
9.391117129451099
 30
0.0
 10
19.44682770307
 20
9.240571088082527
 30
0.0
 10
19.3196908848227
 20
9.094130296396546
 30
0.0
 10
19.18950192652478
 20
8.950856231049449
 30
0.0
 10
19.05696799313367
 20
8.809990135688787
 30
0.0
 10
18.92234387106487
 20
8.671155890437425
 30
0.0
 10
18.78548479612323
 20
8.534499620821629
 30
0.0
 10
18.64658981704007
 20
8.400284187726446
 30
0.0
 10
18.50467345160604
 20
8.267697707418342
 30
0.0
 10
18.35653430563684
 20
8.134057616248462
 30
0.0
 10
18.19659242840966
 20
7.995100805452915
 30
0.0
 10
18.01818525509871
 20
7.846486219592721
 30
0.0
 10
17.81411161814276
 20
7.684541934760238
 30
0.0
 10
17.57700052627369
 20
7.506915938934815
 30
0.0
 10
17.30476856086945
 20
7.316224583637282
 30
0.0
 10
17.00435466653151
 20
7.121299388107267
 30
0.0
 10
16.68707183447084
 20
6.931861390498901
 30
0.0
 10
16.35986901414781
 20
6.752834142944633
 30
0.0
 10
16.02343728259852
 20
6.585232549414009
 30
0.0
 10
15.67897531692767
 20
6.428948331767112
 30
0.0
 10
15.32994535686547
 20
6.284085985316608
 30
0.0
 10
14.97893687793824
 20
6.150097716432835
 30
0.0
 10
14.62628127840067
 20
6.025446322110869
 30
0.0
 10
14.27154480272495
 20
5.908553674954046
 30
0.0
 10
13.9146582745354
 20
5.799593004186547
 30
0.0
 10
13.55535462241587
 20
5.698618895113788
 30
0.0
 10
13.18925810140881
 20
5.604681758863065
 30
0.0
 10
12.80627293020586
 20
5.516061966881492
 30
0.0
 10
12.39203920397937
 20
5.431294444248957
 30
0.0
 10
11.93407077705288
 20
5.350882672661168
 30
0.0
 10
11.42402684480456
 20
5.277752140425645
 30
0.0
 10
10.85779443264304
 20
5.216834456958367
 30
0.0
 10
10.23317379199221
 20
5.17447933854449
 30
0.0
 10
9.796757806135287
 20
5.164208967439415
 30
0.0
 10
9.568779205
 20
5.164236957221826
 30
0.0
 11
20.5912873033
 21
12.25598276632182
 31
0.0
 11
20.5804753496
 21
11.94268042232182
 31
0.0
 11
20.5521503604
 21
11.66023872832182
 31
0.0
 11
20.5115992537
 21
11.40728573262182
 31
0.0
 11
20.4629763539
 21
11.18176003752182
 31
0.0
 11
20.4090707067
 21
10.97988854402182
 31
0.0
 11
20.3490742524
 21
10.79032104942182
 31
0.0
 11
20.2796635601
 21
10.60126755052182
 31
0.0
 11
20.2005334762
 21
10.41336253912182
 31
0.0
 11
20.1129756391
 21
10.23022991042182
 31
0.0
 11
20.0173578826
 21
10.05180448712182
 31
0.0
 11
19.9139787817
 21
9.877737628221826
 31
0.0
 11
19.8040388102
 21
9.709172259221826
 31
0.0
 11
19.6887896496
 21
9.546982979321825
 31
0.0
 11
19.5692269061
 21
9.391227859021824
 31
0.0
 11
19.4460335719
 21
9.241001274621826
 31
0.0
 11
19.3191450647
 21
9.094616175221826
 31
0.0
 11
19.1889914849
 21
8.951128246121825
 31
0.0
 11
19.0566010615
 21
8.810308806721826
 31
0.0
 11
18.9220750155
 21
8.671624211921827
 31
0.0
 11
18.7850390374
 21
8.534802719421826
 31
0.0
 11
18.6460009942
 21
8.400471622521825
 31
0.0
 11
18.5053744294
 21
8.269109179221825
 31
0.0
 11
18.3592009865
 21
8.137263679421826
 31
0.0
 11
18.2012524854
 21
8.000063972021825
 31
0.0
 11
18.0248908177
 21
7.853185578521825
 31
0.0
 11
17.8229222446
 21
7.692961199221826
 31
0.0
 11
17.5874908893
 21
7.516596835121825
 31
0.0
 11
17.3117236686
 21
7.323425300921825
 31
0.0
 11
17.0046259436
 21
7.124169905021825
 31
0.0
 11
16.6858084836
 21
6.933819270421825
 31
0.0
 11
16.3603703508
 21
6.755799237821825
 31
0.0
 11
16.0235390613
 21
6.587812106221825
 31
0.0
 11
15.6775998684
 21
6.430591607421825
 31
0.0
 11
15.3284143841
 21
6.285419982221825
 31
0.0
 11
14.9778104081
 21
6.151338918621825
 31
0.0
 11
14.6257562689
 21
6.026677037821825
 31
0.0
 11
14.2713179162
 21
5.909918065821825
 31
0.0
 11
13.9138352001
 21
5.800800674121825
 31
0.0
 11
13.5553012084
 21
5.700071223521826
 31
0.0
 11
13.1936176946
 21
5.607299118521826
 31
0.0
 11
12.8156384568
 21
5.519861292921826
 31
0.0
 11
12.4062768231
 21
5.436099971921825
 31
0.0
 11
11.9507401976
 21
5.356136676721826
 31
0.0
 11
11.4415675665
 21
5.283166202421825
 31
0.0
 11
10.8762030117
 21
5.222398796021826
 31
0.0
 11
10.2525287467
 21
5.180197986521825
 31
0.0
 11
9.568779205
 21
5.164236957221826
 31
0.0
  0
ENDSEC
  0
SECTION
  2
OBJECTS
  0
DICTIONARY
  5
C
330
0
100
AcDbDictionary
281
     1
  3
ACAD_2007HEADERVARS_RT
350
585
  3
ACAD_COLOR
350
3FB
  3
ACAD_GROUP
350
D
  3
ACAD_LAYOUT
350
1A
  3
ACAD_MATERIAL
350
3D1
  3
ACAD_MLEADERSTYLE
350
420
  3
ACAD_MLINESTYLE
350
17
  3
ACAD_PLOTSETTINGS
350
19
  3
ACAD_PLOTSTYLENAME
350
E
  3
ACAD_SCALELIST
350
3FE
  3
ACAD_TABLESTYLE
350
3FC
  3
ACAD_VISUALSTYLE
350
3EA
  3
ACDB_RECOMPOSE_DATA
350
425
  3
AcDbVariableDictionary
350
426
  3
AcmDictionary
350
488
  3
AMG
350
467
  3
AMGSNAPSETTINGS
350
4CA
  0
DICTIONARY
  5
507
330
8
100
AcDbDictionary
280
     1
281
     1
  0
DICTIONARY
  5
4D5
330
10
100
AcDbDictionary
280
     1
281
     1
  3
ADSK_XREC_LAYER_RECONCILED
360
4D6
  0
DICTIONARY
  5
4D7
330
1FA
100
AcDbDictionary
280
     1
281
     1
  3
ADSK_XREC_LAYER_RECONCILED
360
4D8
  0
DICTIONARY
  5
4D9
330
1FB
100
AcDbDictionary
280
     1
281
     1
  3
ADSK_XREC_LAYER_RECONCILED
360
4DA
  0
DICTIONARY
  5
4DB
330
1FC
100
AcDbDictionary
280
     1
281
     1
  3
ADSK_XREC_LAYER_RECONCILED
360
4DC
  0
DICTIONARY
  5
4DD
330
1FD
100
AcDbDictionary
280
     1
281
     1
  3
ADSK_XREC_LAYER_RECONCILED
360
4DE
  0
DICTIONARY
  5
4DF
330
1FE
100
AcDbDictionary
280
     1
281
     1
  3
ADSK_XREC_LAYER_RECONCILED
360
4E0
  0
DICTIONARY
  5
4E1
330
1FF
100
AcDbDictionary
280
     1
281
     1
  3
ADSK_XREC_LAYER_RECONCILED
360
4E2
  0
DICTIONARY
  5
4E3
330
200
100
AcDbDictionary
280
     1
281
     1
  3
ADSK_XREC_LAYER_RECONCILED
360
4E4
  0
DICTIONARY
  5
4E5
330
201
100
AcDbDictionary
280
     1
281
     1
  3
ADSK_XREC_LAYER_RECONCILED
360
4E6
  0
DICTIONARY
  5
4E7
330
202
100
AcDbDictionary
280
     1
281
     1
  3
ADSK_XREC_LAYER_RECONCILED
360
4E8
  0
DICTIONARY
  5
4E9
330
203
100
AcDbDictionary
280
     1
281
     1
  3
ADSK_XREC_LAYER_RECONCILED
360
4EA
  0
DICTIONARY
  5
585
102
{ACAD_REACTORS
330
C
102
}
330
C
100
AcDbDictionary
281
     1
  3
DIMARCSYM
350
586
  3
DIMLTEX1
350
588
  3
DIMLTEX2
350
589
  3
DIMLTYPE
350
587
  0
DICTIONARY
  5
3FB
102
{ACAD_REACTORS
330
C
102
}
330
C
100
AcDbDictionary
281
     1
  0
DICTIONARY
  5
D
102
{ACAD_REACTORS
330
C
102
}
330
C
100
AcDbDictionary
281
     1
  0
DICTIONARY
  5
1A
102
{ACAD_REACTORS
330
C
102
}
330
C
100
AcDbDictionary
281
     1
  3
Layout1
350
3CE
  3
Model
350
3CD
  0
DICTIONARY
  5
3D1
102
{ACAD_REACTORS
330
C
102
}
330
C
100
AcDbDictionary
281
     1
  3
ByBlock
350
3DA
  3
ByLayer
350
3D2
  3
Global
350
3E2
  0
DICTIONARY
  5
420
102
{ACAD_REACTORS
330
C
102
}
330
C
100
AcDbDictionary
281
     1
  3
Standard
350
421
  0
DICTIONARY
  5
17
102
{ACAD_REACTORS
330
C
102
}
330
C
100
AcDbDictionary
281
     1
  3
Standard
350
18
  0
DICTIONARY
  5
19
102
{ACAD_REACTORS
330
C
102
}
330
C
100
AcDbDictionary
281
     1
  0
ACDBDICTIONARYWDFLT
  5
E
102
{ACAD_REACTORS
330
C
102
}
330
C
100
AcDbDictionary
281
     1
  3
Normal
350
F
100
AcDbDictionaryWithDefault
340
F
  0
DICTIONARY
  5
3FE
102
{ACAD_REACTORS
330
C
102
}
330
C
100
AcDbDictionary
281
     1
  3
A0
350
3FF
  3
A1
350
400
  3
A2
350
401
  3
A3
350
402
  3
A4
350
403
  3
A5
350
404
  3
A6
350
405
  3
A7
350
406
  3
A8
350
407
  3
A9
350
408
  3
B0
350
409
  3
B1
350
40A
  3
B2
350
40B
  3
B3
350
40C
  3
B4
350
40D
  3
B5
350
40E
  3
B6
350
40F
  3
B7
350
410
  3
B8
350
411
  3
B9
350
412
  3
C0
350
413
  3
C1
350
414
  3
C2
350
415
  3
C3
350
416
  3
C4
350
417
  3
C5
350
418
  3
C6
350
419
  3
C7
350
41A
  3
C8
350
41B
  3
C9
350
41C
  3
D0
350
41D
  3
D1
350
41E
  3
D2
350
41F
  0
DICTIONARY
  5
3FC
102
{ACAD_REACTORS
330
C
102
}
330
C
100
AcDbDictionary
281
     1
  3
Standard
350
3FD
  0
DICTIONARY
  5
3EA
102
{ACAD_REACTORS
330
C
102
}
330
C
100
AcDbDictionary
281
     1
  3
2dWireframe
350
3F0
  3
3D Hidden
350
3F2
  3
3dWireframe
350
3F1
  3
Basic
350
3EF
  3
Brighten
350
3F6
  3
ColorChange
350
3FA
  3
Conceptual
350
3F3
  3
Dim
350
3F5
  3
Facepattern
350
3F9
  3
Flat
350
3EB
  3
FlatWithEdges
350
3EC
  3
Gouraud
350
3ED
  3
GouraudWithEdges
350
3EE
  3
Linepattern
350
3F8
  3
Realistic
350
3F4
  3
Thicken
350
3F7
  0
XRECORD
  5
425
102
{ACAD_REACTORS
330
C
102
}
330
C
100
AcDbXrecord
280
     1
 90
        1
330
3FD
  0
DICTIONARY
  5
426
102
{ACAD_REACTORS
330
C
102
}
330
C
100
AcDbDictionary
281
     1
  3
CANNOSCALE
350
429
  3
CMLEADERSTYLE
350
428
  3
CTABLESTYLE
350
427
  3
LIGHTINGUNITS
350
514
  3
MSLTSCALE
350
513
  0
DICTIONARY
  5
488
102
{ACAD_REACTORS
330
C
102
}
330
C
100
AcDbDictionary
281
     1
  3
AcmStdDictionary
350
493
  0
DICTIONARY
  5
467
102
{ACAD_REACTORS
330
C
102
}
330
C
100
AcDbDictionary
281
     1
  0
DICTIONARY
  5
4CA
102
{ACAD_REACTORS
330
C
102
}
330
C
100
AcDbDictionary
281
     1
  0
XRECORD
  5
4D6
102
{ACAD_REACTORS
330
4D5
102
}
330
4D5
100
AcDbXrecord
280
     1
290
     1
  0
XRECORD
  5
4D8
102
{ACAD_REACTORS
330
4D7
102
}
330
4D7
100
AcDbXrecord
280
     1
290
     1
  0
XRECORD
  5
4DA
102
{ACAD_REACTORS
330
4D9
102
}
330
4D9
100
AcDbXrecord
280
     1
290
     1
  0
XRECORD
  5
4DC
102
{ACAD_REACTORS
330
4DB
102
}
330
4DB
100
AcDbXrecord
280
     1
290
     1
  0
XRECORD
  5
4DE
102
{ACAD_REACTORS
330
4DD
102
}
330
4DD
100
AcDbXrecord
280
     1
290
     1
  0
XRECORD
  5
4E0
102
{ACAD_REACTORS
330
4DF
102
}
330
4DF
100
AcDbXrecord
280
     1
290
     1
  0
XRECORD
  5
4E2
102
{ACAD_REACTORS
330
4E1
102
}
330
4E1
100
AcDbXrecord
280
     1
290
     1
  0
XRECORD
  5
4E4
102
{ACAD_REACTORS
330
4E3
102
}
330
4E3
100
AcDbXrecord
280
     1
290
     1
  0
XRECORD
  5
4E6
102
{ACAD_REACTORS
330
4E5
102
}
330
4E5
100
AcDbXrecord
280
     1
290
     1
  0
XRECORD
  5
4E8
102
{ACAD_REACTORS
330
4E7
102
}
330
4E7
100
AcDbXrecord
280
     1
290
     1
  0
XRECORD
  5
4EA
102
{ACAD_REACTORS
330
4E9
102
}
330
4E9
100
AcDbXrecord
280
     1
290
     1
  0
XRECORD
  5
586
102
{ACAD_REACTORS
330
585
102
}
330
585
100
AcDbXrecord
280
     1
 70
     1
  0
XRECORD
  5
588
102
{ACAD_REACTORS
330
585
102
}
330
585
100
AcDbXrecord
280
     1
340
14
  0
XRECORD
  5
589
102
{ACAD_REACTORS
330
585
102
}
330
585
100
AcDbXrecord
280
     1
340
14
  0
XRECORD
  5
587
102
{ACAD_REACTORS
330
585
102
}
330
585
100
AcDbXrecord
280
     1
340
14
  0
LAYOUT
  5
3CE
102
{ACAD_REACTORS
330
1A
102
}
330
1A
100
AcDbPlotSettings
  1

  2
none_device
  4
ANSI_C_(22.00_x_17.00_Inches)
  6

 40
0.0
 41
0.0
 42
0.0
 43
0.0
 44
558.8
 45
431.8
 46
0.0
 47
0.0
 48
0.0
 49
0.0
140
0.0
141
0.0
142
1.0
143
1.0
 70
     0
 72
     0
 73
     0
 74
     0
  7

 75
     0
147
1.0
 76
     0
 77
     2
 78
   300
148
0.0
149
0.0
100
AcDbLayout
  1
Layout1
 70
     1
 71
     1
 10
0.0
 20
0.0
 11
12.0
 21
9.0
 12
0.0
 22
0.0
 32
0.0
 14
1.000000000000000E+20
 24
1.000000000000000E+20
 34
1.000000000000000E+20
 15
-1.000000000000000E+20
 25
-1.000000000000000E+20
 35
-1.000000000000000E+20
146
0.0
 13
0.0
 23
0.0
 33
0.0
 16
1.0
 26
0.0
 36
0.0
 17
0.0
 27
1.0
 37
0.0
 76
     0
330
207
  0
LAYOUT
  5
3CD
102
{ACAD_REACTORS
330
1A
102
}
330
1A
100
AcDbPlotSettings
  1

  2
none_device
  4
ANSI_C_(22.00_x_17.00_Inches)
  6

 40
0.0
 41
0.0
 42
0.0
 43
0.0
 44
558.8
 45
431.8
 46
0.0
 47
0.0
 48
0.0
 49
0.0
140
0.0
141
0.0
142
1.0
143
1.0
 70
  1024
 72
     0
 73
     0
 74
     0
  7

 75
     0
147
1.0
 76
     0
 77
     2
 78
   300
148
0.0
149
0.0
100
AcDbLayout
  1
Model
 70
     0
 71
     0
 10
0.0
 20
0.0
 11
22.0
 21
17.0
 12
0.0
 22
0.0
 32
0.0
 14
0.0
 24
0.0
 34
0.0
 15
0.0
 25
0.0
 35
0.0
146
0.0
 13
0.0
 23
0.0
 33
0.0
 16
1.0
 26
0.0
 36
0.0
 17
0.0
 27
1.0
 37
0.0
 76
     0
330
206
331
1F4
  0
MATERIAL
  5
3DA
102
{ACAD_XDICTIONARY
360
3DB
102
}
102
{ACAD_REACTORS
330
3D1
102
}
330
3D1
100
AcDbMaterial
  1
ByBlock
 72
     0
 43
0.0208333333333333
 43
0.0
 43
0.0
 43
0.0
 43
0.0
 43
0.0208333333333333
 43
0.0
 43
0.0
 43
0.0
 43
0.0
 43
1.0
 43
0.0
 43
0.0
 43
0.0
 43
0.0
 43
1.0
 77
     0
 47
0.0208333333333333
 47
0.0
 47
0.0
 47
0.0
 47
0.0
 47
0.0208333333333333
 47
0.0
 47
0.0
 47
0.0
 47
0.0
 47
1.0
 47
0.0
 47
0.0
 47
0.0
 47
0.0
 47
1.0
171
     0
 49
0.0208333333333333
 49
0.0
 49
0.0
 49
0.0
 49
0.0
 49
0.0208333333333333
 49
0.0
 49
0.0
 49
0.0
 49
0.0
 49
1.0
 49
0.0
 49
0.0
 49
0.0
 49
0.0
 49
1.0
175
     0
142
0.0208333333333333
142
0.0
142
0.0
142
0.0
142
0.0
142
0.0208333333333333
142
0.0
142
0.0
142
0.0
142
0.0
142
1.0
142
0.0
142
0.0
142
0.0
142
0.0
142
1.0
179
     0
144
0.0208333333333333
144
0.0
144
0.0
144
0.0
144
0.0
144
0.0208333333333333
144
0.0
144
0.0
144
0.0
144
0.0
144
1.0
144
0.0
144
0.0
144
0.0
144
0.0
144
1.0
147
0.0208333333333333
147
0.0
147
0.0
147
0.0
147
0.0
147
0.0208333333333333
147
0.0
147
0.0
147
0.0
147
0.0
147
1.0
147
0.0
147
0.0
147
0.0
147
0.0
147
1.0
  0
MATERIAL
  5
3D2
102
{ACAD_XDICTIONARY
360
3D3
102
}
102
{ACAD_REACTORS
330
3D1
102
}
330
3D1
100
AcDbMaterial
  1
ByLayer
 72
     0
 43
0.0208333333333333
 43
0.0
 43
0.0
 43
0.0
 43
0.0
 43
0.0208333333333333
 43
0.0
 43
0.0
 43
0.0
 43
0.0
 43
1.0
 43
0.0
 43
0.0
 43
0.0
 43
0.0
 43
1.0
 77
     0
 47
0.0208333333333333
 47
0.0
 47
0.0
 47
0.0
 47
0.0
 47
0.0208333333333333
 47
0.0
 47
0.0
 47
0.0
 47
0.0
 47
1.0
 47
0.0
 47
0.0
 47
0.0
 47
0.0
 47
1.0
171
     0
 49
0.0208333333333333
 49
0.0
 49
0.0
 49
0.0
 49
0.0
 49
0.0208333333333333
 49
0.0
 49
0.0
 49
0.0
 49
0.0
 49
1.0
 49
0.0
 49
0.0
 49
0.0
 49
0.0
 49
1.0
175
     0
142
0.0208333333333333
142
0.0
142
0.0
142
0.0
142
0.0
142
0.0208333333333333
142
0.0
142
0.0
142
0.0
142
0.0
142
1.0
142
0.0
142
0.0
142
0.0
142
0.0
142
1.0
179
     0
144
0.0208333333333333
144
0.0
144
0.0
144
0.0
144
0.0
144
0.0208333333333333
144
0.0
144
0.0
144
0.0
144
0.0
144
1.0
144
0.0
144
0.0
144
0.0
144
0.0
144
1.0
147
0.0208333333333333
147
0.0
147
0.0
147
0.0
147
0.0
147
0.0208333333333333
147
0.0
147
0.0
147
0.0
147
0.0
147
1.0
147
0.0
147
0.0
147
0.0
147
0.0
147
1.0
  0
MATERIAL
  5
3E2
102
{ACAD_XDICTIONARY
360
3E3
102
}
102
{ACAD_REACTORS
330
3D1
102
}
330
3D1
100
AcDbMaterial
  1
Global
 72
     0
 43
0.0208333333333333
 43
0.0
 43
0.0
 43
0.0
 43
0.0
 43
0.0208333333333333
 43
0.0
 43
0.0
 43
0.0
 43
0.0
 43
1.0
 43
0.0
 43
0.0
 43
0.0
 43
0.0
 43
1.0
 77
     0
 47
0.0208333333333333
 47
0.0
 47
0.0
 47
0.0
 47
0.0
 47
0.0208333333333333
 47
0.0
 47
0.0
 47
0.0
 47
0.0
 47
1.0
 47
0.0
 47
0.0
 47
0.0
 47
0.0
 47
1.0
171
     0
 49
0.0208333333333333
 49
0.0
 49
0.0
 49
0.0
 49
0.0
 49
0.0208333333333333
 49
0.0
 49
0.0
 49
0.0
 49
0.0
 49
1.0
 49
0.0
 49
0.0
 49
0.0
 49
0.0
 49
1.0
175
     0
142
0.0208333333333333
142
0.0
142
0.0
142
0.0
142
0.0
142
0.0208333333333333
142
0.0
142
0.0
142
0.0
142
0.0
142
1.0
142
0.0
142
0.0
142
0.0
142
0.0
142
1.0
179
     0
144
0.0208333333333333
144
0.0
144
0.0
144
0.0
144
0.0
144
0.0208333333333333
144
0.0
144
0.0
144
0.0
144
0.0
144
1.0
144
0.0
144
0.0
144
0.0
144
0.0
144
1.0
147
0.0208333333333333
147
0.0
147
0.0
147
0.0
147
0.0
147
0.0208333333333333
147
0.0
147
0.0
147
0.0
147
0.0
147
1.0
147
0.0
147
0.0
147
0.0
147
0.0
147
1.0
  0
MLEADERSTYLE
  5
421
102
{ACAD_REACTORS
330
420
102
}
330
420
100
AcDbMLeaderStyle
170
     2
171
     1
172
     0
 90
        2
 40
0.0
 41
0.0
173
     1
 91
-1056964608
340
14
 92
       -2
290
     1
 42
0.09
291
     1
 43
0.36
  3
Standard
 44
0.18
300

342
11
174
     1
178
     6
175
     1
176
     0
 93
-1056964608
 45
0.18
292
     0
297
     0
 46
0.18
 94
-1056964608
 47
1.0
 49
1.0
140
1.0
293
     1
141
0.0
294
     1
177
     0
142
1.0
295
     0
296
     0
143
0.125
1001
ACAD_MLEADERVER
1070
     2
  0
MLINESTYLE
  5
18
102
{ACAD_REACTORS
330
17
102
}
330
17
100
AcDbMlineStyle
  2
STANDARD
 70
     0
  3

 62
   256
 51
90.0
 52
90.0
 71
     2
 49
0.5
 62
   256
  6
BYLAYER
 49
-0.5
 62
   256
  6
BYLAYER
  0
ACDBPLACEHOLDER
  5
F
102
{ACAD_REACTORS
330
E
102
}
330
E
  0
SCALE
  5
3FF
102
{ACAD_REACTORS
330
3FE
102
}
330
3FE
100
AcDbScale
 70
     0
300
1:1
140
1.0
141
1.0
290
     1
  0
SCALE
  5
400
102
{ACAD_REACTORS
330
3FE
102
}
330
3FE
100
AcDbScale
 70
     0
300
1:2
140
1.0
141
2.0
290
     0
  0
SCALE
  5
401
102
{ACAD_REACTORS
330
3FE
102
}
330
3FE
100
AcDbScale
 70
     0
300
1:4
140
1.0
141
4.0
290
     0
  0
SCALE
  5
402
102
{ACAD_REACTORS
330
3FE
102
}
330
3FE
100
AcDbScale
 70
     0
300
1:5
140
1.0
141
5.0
290
     0
  0
SCALE
  5
403
102
{ACAD_REACTORS
330
3FE
102
}
330
3FE
100
AcDbScale
 70
     0
300
1:8
140
1.0
141
8.0
290
     0
  0
SCALE
  5
404
102
{ACAD_REACTORS
330
3FE
102
}
330
3FE
100
AcDbScale
 70
     0
300
1:10
140
1.0
141
10.0
290
     0
  0
SCALE
  5
405
102
{ACAD_REACTORS
330
3FE
102
}
330
3FE
100
AcDbScale
 70
     0
300
1:16
140
1.0
141
16.0
290
     0
  0
SCALE
  5
406
102
{ACAD_REACTORS
330
3FE
102
}
330
3FE
100
AcDbScale
 70
     0
300
1:20
140
1.0
141
20.0
290
     0
  0
SCALE
  5
407
102
{ACAD_REACTORS
330
3FE
102
}
330
3FE
100
AcDbScale
 70
     0
300
1:30
140
1.0
141
30.0
290
     0
  0
SCALE
  5
408
102
{ACAD_REACTORS
330
3FE
102
}
330
3FE
100
AcDbScale
 70
     0
300
1:40
140
1.0
141
40.0
290
     0
  0
SCALE
  5
409
102
{ACAD_REACTORS
330
3FE
102
}
330
3FE
100
AcDbScale
 70
     0
300
1:50
140
1.0
141
50.0
290
     0
  0
SCALE
  5
40A
102
{ACAD_REACTORS
330
3FE
102
}
330
3FE
100
AcDbScale
 70
     0
300
1:100
140
1.0
141
100.0
290
     0
  0
SCALE
  5
40B
102
{ACAD_REACTORS
330
3FE
102
}
330
3FE
100
AcDbScale
 70
     0
300
2:1
140
2.0
141
1.0
290
     0
  0
SCALE
  5
40C
102
{ACAD_REACTORS
330
3FE
102
}
330
3FE
100
AcDbScale
 70
     0
300
4:1
140
4.0
141
1.0
290
     0
  0
SCALE
  5
40D
102
{ACAD_REACTORS
330
3FE
102
}
330
3FE
100
AcDbScale
 70
     0
300
8:1
140
8.0
141
1.0
290
     0
  0
SCALE
  5
40E
102
{ACAD_REACTORS
330
3FE
102
}
330
3FE
100
AcDbScale
 70
     0
300
10:1
140
10.0
141
1.0
290
     0
  0
SCALE
  5
40F
102
{ACAD_REACTORS
330
3FE
102
}
330
3FE
100
AcDbScale
 70
     0
300
100:1
140
100.0
141
1.0
290
     0
  0
SCALE
  5
410
102
{ACAD_REACTORS
330
3FE
102
}
330
3FE
100
AcDbScale
 70
     0
300
1/128" = 1'-0"
140
0.0078125
141
12.0
290
     0
  0
SCALE
  5
411
102
{ACAD_REACTORS
330
3FE
102
}
330
3FE
100
AcDbScale
 70
     0
300
1/64" = 1'-0"
140
0.015625
141
12.0
290
     0
  0
SCALE
  5
412
102
{ACAD_REACTORS
330
3FE
102
}
330
3FE
100
AcDbScale
 70
     0
300
1/32" = 1'-0"
140
0.03125
141
12.0
290
     0
  0
SCALE
  5
413
102
{ACAD_REACTORS
330
3FE
102
}
330
3FE
100
AcDbScale
 70
     0
300
1/16" = 1'-0"
140
0.0625
141
12.0
290
     0
  0
SCALE
  5
414
102
{ACAD_REACTORS
330
3FE
102
}
330
3FE
100
AcDbScale
 70
     0
300
3/32" = 1'-0"
140
0.09375
141
12.0
290
     0
  0
SCALE
  5
415
102
{ACAD_REACTORS
330
3FE
102
}
330
3FE
100
AcDbScale
 70
     0
300
1/8" = 1'-0"
140
0.125
141
12.0
290
     0
  0
SCALE
  5
416
102
{ACAD_REACTORS
330
3FE
102
}
330
3FE
100
AcDbScale
 70
     0
300
3/16" = 1'-0"
140
0.1875
141
12.0
290
     0
  0
SCALE
  5
417
102
{ACAD_REACTORS
330
3FE
102
}
330
3FE
100
AcDbScale
 70
     0
300
1/4" = 1'-0"
140
0.25
141
12.0
290
     0
  0
SCALE
  5
418
102
{ACAD_REACTORS
330
3FE
102
}
330
3FE
100
AcDbScale
 70
     0
300
3/8" = 1'-0"
140
0.375
141
12.0
290
     0
  0
SCALE
  5
419
102
{ACAD_REACTORS
330
3FE
102
}
330
3FE
100
AcDbScale
 70
     0
300
1/2" = 1'-0"
140
0.5
141
12.0
290
     0
  0
SCALE
  5
41A
102
{ACAD_REACTORS
330
3FE
102
}
330
3FE
100
AcDbScale
 70
     0
300
3/4" = 1'-0"
140
0.75
141
12.0
290
     0
  0
SCALE
  5
41B
102
{ACAD_REACTORS
330
3FE
102
}
330
3FE
100
AcDbScale
 70
     0
300
1" = 1'-0"
140
1.0
141
12.0
290
     0
  0
SCALE
  5
41C
102
{ACAD_REACTORS
330
3FE
102
}
330
3FE
100
AcDbScale
 70
     0
300
1-1/2" = 1'-0"
140
1.5
141
12.0
290
     0
  0
SCALE
  5
41D
102
{ACAD_REACTORS
330
3FE
102
}
330
3FE
100
AcDbScale
 70
     0
300
3" = 1'-0"
140
3.0
141
12.0
290
     0
  0
SCALE
  5
41E
102
{ACAD_REACTORS
330
3FE
102
}
330
3FE
100
AcDbScale
 70
     0
300
6" = 1'-0"
140
6.0
141
12.0
290
     0
  0
SCALE
  5
41F
102
{ACAD_REACTORS
330
3FE
102
}
330
3FE
100
AcDbScale
 70
     0
300
1'-0" = 1'-0"
140
12.0
141
12.0
290
     0
  0
TABLESTYLE
  5
3FD
102
{ACAD_XDICTIONARY
360
423
102
}
102
{ACAD_REACTORS
330
3FC
102
}
330
3FC
100
AcDbTableStyle
  3
Standard
 70
     0
 71
     0
 40
0.06
 41
0.06
280
     0
281
     0
  7
STANDARD
140
0.18
170
     2
 62
     0
 63
     7
283
     0
274
    -2
284
     1
 64
     0
275
    -2
285
     1
 65
     0
276
    -2
286
     1
 66
     0
277
    -2
287
     1
 67
     0
278
    -2
288
     1
 68
     0
279
    -2
289
     1
 69
     0
  7
STANDARD
140
0.25
170
     5
 62
     0
 63
     7
283
     0
274
    -2
284
     1
 64
     0
275
    -2
285
     1
 65
     0
276
    -2
286
     1
 66
     0
277
    -2
287
     1
 67
     0
278
    -2
288
     1
 68
     0
279
    -2
289
     1
 69
     0
  7
STANDARD
140
0.18
170
     5
 62
     0
 63
     7
283
     0
274
    -2
284
     1
 64
     0
275
    -2
285
     1
 65
     0
276
    -2
286
     1
 66
     0
277
    -2
287
     1
 67
     0
278
    -2
288
     1
 68
     0
279
    -2
289
     1
 69
     0
  0
VISUALSTYLE
  5
3F0
102
{ACAD_REACTORS
330
3EA
102
}
330
3EA
100
AcDbVisualStyle
  2
2dWireframe
 70
     4
 71
     0
 72
     2
 73
     0
 90
        0
 40
-0.6
 41
-30.0
 62
     5
 63
     7
421
 16777215
 74
     1
 91
        4
 64
     7
 65
   257
 75
     1
175
     1
 42
1.0
 92
        0
 66
   257
 43
1.0
 76
     1
 77
     6
 78
     2
 67
     7
 79
     5
170
     0
171
     0
290
     0
174
     0
 93
        1
 44
0.0
173
     0
291
     0
 45
0.0
1001
ACAD
1000
AcDbSavedByObjectVersion
1070
     0
  0
VISUALSTYLE
  5
3F2
102
{ACAD_REACTORS
330
3EA
102
}
330
3EA
100
AcDbVisualStyle
  2
3D Hidden
 70
     6
 71
     1
 72
     2
 73
     2
 90
        0
 40
-0.6
 41
-30.0
 62
     5
 63
     7
421
 16777215
 74
     2
 91
        2
 64
     7
 65
   257
 75
     2
175
     1
 42
40.0
 92
        0
 66
   257
 43
1.0
 76
     1
 77
     6
 78
     2
 67
     7
 79
     3
170
     0
171
     0
290
     0
174
     0
 93
        1
 44
0.0
173
     0
291
     0
 45
0.0
1001
ACAD
1000
AcDbSavedByObjectVersion
1070
     0
  0
VISUALSTYLE
  5
3F1
102
{ACAD_REACTORS
330
3EA
102
}
330
3EA
100
AcDbVisualStyle
  2
3dWireframe
 70
     5
 71
     0
 72
     2
 73
     0
 90
        0
 40
-0.6
 41
-30.0
 62
     5
 63
     7
421
 16777215
 74
     1
 91
        4
 64
     7
 65
   257
 75
     1
175
     1
 42
1.0
 92
        0
 66
   257
 43
1.0
 76
     1
 77
     6
 78
     2
 67
     7
 79
     5
170
     0
171
     0
290
     0
174
     0
 93
        1
 44
0.0
173
     0
291
     0
 45
0.0
1001
ACAD
1000
AcDbSavedByObjectVersion
1070
     0
  0
VISUALSTYLE
  5
3EF
102
{ACAD_REACTORS
330
3EA
102
}
330
3EA
100
AcDbVisualStyle
  2
Basic
 70
     7
 71
     1
 72
     0
 73
     1
 90
        0
 40
-0.6
 41
-30.0
 62
     5
 63
     7
421
 16777215
 74
     0
 91
        4
 64
     7
 65
   257
 75
     1
175
     1
 42
1.0
 92
        8
 66
     7
 43
1.0
 76
     1
 77
     6
 78
     2
 67
     7
 79
     5
170
     0
171
     0
290
     0
174
     0
 93
        1
 44
0.0
173
     0
291
     1
 45
0.0
1001
ACAD
1000
AcDbSavedByObjectVersion
1070
     0
  0
VISUALSTYLE
  5
3F6
102
{ACAD_REACTORS
330
3EA
102
}
330
3EA
100
AcDbVisualStyle
  2
Brighten
 70
    12
 71
     2
 72
     2
 73
     0
 90
        0
 40
-0.6
 41
-30.0
 62
     5
 63
     7
421
 16777215
 74
     1
 91
        4
 64
     7
 65
   257
 75
     1
175
     1
 42
1.0
 92
        8
 66
     7
 43
1.0
 76
     1
 77
     6
 78
     2
 67
     7
 79
     5
170
     0
171
     0
290
     0
174
     0
 93
        1
 44
50.0
173
     0
291
     1
 45
0.0
1001
ACAD
1000
AcDbSavedByObjectVersion
1070
     0
  0
VISUALSTYLE
  5
3FA
102
{ACAD_REACTORS
330
3EA
102
}
330
3EA
100
AcDbVisualStyle
  2
ColorChange
 70
    16
 71
     2
 72
     2
 73
     3
 90
        0
 40
-0.6
 41
-30.0
 62
     5
 63
     8
421
  8421504
 74
     1
 91
        4
 64
     7
 65
   257
 75
     1
175
     1
 42
1.0
 92
        8
 66
     8
424
  8421504
 43
1.0
 76
     1
 77
     6
 78
     2
 67
     7
 79
     5
170
     0
171
     0
290
     0
174
     0
 93
        1
 44
0.0
173
     0
291
     1
 45
0.0
1001
ACAD
1000
AcDbSavedByObjectVersion
1070
     0
  0
VISUALSTYLE
  5
3F3
102
{ACAD_REACTORS
330
3EA
102
}
330
3EA
100
AcDbVisualStyle
  2
Conceptual
 70
     9
 71
     3
 72
     2
 73
     0
 90
        0
 40
-0.6
 41
-30.0
 62
     5
 63
     7
421
 16777215
 74
     2
 91
        2
 64
     7
 65
   257
 75
     1
175
     1
 42
40.0
 92
        8
 66
     7
 43
1.0
 76
     1
 77
     6
 78
     2
 67
     7
 79
     3
170
     0
171
     0
290
     0
174
     0
 93
        1
 44
0.0
173
     0
291
     0
 45
0.0
1001
ACAD
1000
AcDbSavedByObjectVersion
1070
     0
  0
VISUALSTYLE
  5
3F5
102
{ACAD_REACTORS
330
3EA
102
}
330
3EA
100
AcDbVisualStyle
  2
Dim
 70
    11
 71
     2
 72
     2
 73
     0
 90
        0
 40
-0.6
 41
-30.0
 62
     5
 63
     7
421
 16777215
 74
     1
 91
        4
 64
     7
 65
   257
 75
     1
175
     1
 42
1.0
 92
        8
 66
     7
 43
1.0
 76
     1
 77
     6
 78
     2
 67
     7
 79
     5
170
     0
171
     0
290
     0
174
     0
 93
        1
 44
-50.0
173
     0
291
     1
 45
0.0
1001
ACAD
1000
AcDbSavedByObjectVersion
1070
     0
  0
VISUALSTYLE
  5
3F9
102
{ACAD_REACTORS
330
3EA
102
}
330
3EA
100
AcDbVisualStyle
  2
Facepattern
 70
    15
 71
     2
 72
     2
 73
     0
 90
        0
 40
-0.6
 41
-30.0
 62
     5
 63
     7
421
 16777215
 74
     1
 91
        4
 64
     7
 65
   257
 75
     1
175
     1
 42
1.0
 92
        8
 66
     7
 43
1.0
 76
     1
 77
     6
 78
     2
 67
     7
 79
     5
170
     0
171
     0
290
     0
174
     0
 93
        1
 44
0.0
173
     0
291
     1
 45
0.0
1001
ACAD
1000
AcDbSavedByObjectVersion
1070
     0
  0
VISUALSTYLE
  5
3EB
102
{ACAD_REACTORS
330
3EA
102
}
330
3EA
100
AcDbVisualStyle
  2
Flat
 70
     0
 71
     2
 72
     1
 73
     1
 90
        2
 40
-0.6
 41
30.0
 62
     5
 63
     7
421
 16777215
 74
     0
 91
        4
 64
     7
 65
   257
 75
     1
175
     1
 42
1.0
 92
        8
 66
     7
 43
1.0
 76
     1
 77
     6
 78
     2
 67
     7
 79
     5
170
     0
171
     0
290
     0
174
     0
 93
       13
 44
0.0
173
     0
291
     1
 45
0.0
1001
ACAD
1000
AcDbSavedByObjectVersion
1070
     0
  0
VISUALSTYLE
  5
3EC
102
{ACAD_REACTORS
330
3EA
102
}
330
3EA
100
AcDbVisualStyle
  2
FlatWithEdges
 70
     1
 71
     2
 72
     1
 73
     1
 90
        2
 40
-0.6
 41
30.0
 62
     5
 63
     7
421
 16777215
 74
     1
 91
        4
 64
     7
 65
   257
 75
     1
175
     1
 42
1.0
 92
        0
 66
   257
 43
1.0
 76
     1
 77
     6
 78
     2
 67
     7
 79
     5
170
     0
171
     0
290
     0
174
     0
 93
       13
 44
0.0
173
     0
291
     1
 45
0.0
1001
ACAD
1000
AcDbSavedByObjectVersion
1070
     0
  0
VISUALSTYLE
  5
3ED
102
{ACAD_REACTORS
330
3EA
102
}
330
3EA
100
AcDbVisualStyle
  2
Gouraud
 70
     2
 71
     2
 72
     2
 73
     1
 90
        2
 40
-0.6
 41
30.0
 62
     5
 63
     7
421
 16777215
 74
     0
 91
        4
 64
     7
 65
   257
 75
     1
175
     1
 42
1.0
 92
        0
 66
     7
 43
1.0
 76
     1
 77
     6
 78
     2
 67
     7
 79
     5
170
     0
171
     0
290
     0
174
     0
 93
       13
 44
0.0
173
     0
291
     1
 45
0.0
1001
ACAD
1000
AcDbSavedByObjectVersion
1070
     0
  0
VISUALSTYLE
  5
3EE
102
{ACAD_REACTORS
330
3EA
102
}
330
3EA
100
AcDbVisualStyle
  2
GouraudWithEdges
 70
     3
 71
     2
 72
     2
 73
     1
 90
        2
 40
-0.6
 41
30.0
 62
     5
 63
     7
421
 16777215
 74
     1
 91
        4
 64
     7
 65
   257
 75
     1
175
     1
 42
1.0
 92
        0
 66
   257
 43
1.0
 76
     1
 77
     6
 78
     2
 67
     7
 79
     5
170
     0
171
     0
290
     0
174
     0
 93
       13
 44
0.0
173
     0
291
     1
 45
0.0
1001
ACAD
1000
AcDbSavedByObjectVersion
1070
     0
  0
VISUALSTYLE
  5
3F8
102
{ACAD_REACTORS
330
3EA
102
}
330
3EA
100
AcDbVisualStyle
  2
Linepattern
 70
    14
 71
     2
 72
     2
 73
     0
 90
        0
 40
-0.6
 41
-30.0
 62
     5
 63
     7
421
 16777215
 74
     1
 91
        4
 64
     7
 65
   257
 75
     7
175
     7
 42
1.0
 92
        8
 66
     7
 43
1.0
 76
     1
 77
     6
 78
     2
 67
     7
 79
     5
170
     0
171
     0
290
     0
174
     0
 93
        1
 44
0.0
173
     0
291
     1
 45
0.0
1001
ACAD
1000
AcDbSavedByObjectVersion
1070
     0
  0
VISUALSTYLE
  5
3F4
102
{ACAD_REACTORS
330
3EA
102
}
330
3EA
100
AcDbVisualStyle
  2
Realistic
 70
     8
 71
     2
 72
     2
 73
     0
 90
        0
 40
-0.6
 41
-30.0
 62
     5
 63
     7
421
 16777215
 74
     1
 91
        0
 64
     7
 65
   257
 75
     1
175
     1
 42
1.0
 92
        8
 66
     8
424
  7895160
 43
1.0
 76
     1
 77
     6
 78
     2
 67
     7
 79
     5
170
     0
171
     0
290
     0
174
     0
 93
       13
 44
0.0
173
     0
291
     0
 45
0.0
1001
ACAD
1000
AcDbSavedByObjectVersion
1070
     0
  0
VISUALSTYLE
  5
3F7
102
{ACAD_REACTORS
330
3EA
102
}
330
3EA
100
AcDbVisualStyle
  2
Thicken
 70
    13
 71
     2
 72
     2
 73
     0
 90
        0
 40
-0.6
 41
-30.0
 62
     5
 63
     7
421
 16777215
 74
     1
 91
        4
 64
     7
 65
   257
 75
     1
175
     1
 42
1.0
 92
       12
 66
     7
 43
1.0
 76
     1
 77
     6
 78
     2
 67
     7
 79
     5
170
     0
171
     0
290
     0
174
     0
 93
        1
 44
0.0
173
     0
291
     1
 45
0.0
1001
ACAD
1000
AcDbSavedByObjectVersion
1070
     0
  0
DICTIONARYVAR
  5
429
102
{ACAD_REACTORS
330
426
102
}
330
426
100
DictionaryVariables
280
     0
  1
1:1
  0
DICTIONARYVAR
  5
428
102
{ACAD_REACTORS
330
426
102
}
330
426
100
DictionaryVariables
280
     0
  1
STANDARD
  0
DICTIONARYVAR
  5
427
102
{ACAD_REACTORS
330
426
102
}
330
426
100
DictionaryVariables
280
     0
  1
STANDARD
  0
DICTIONARYVAR
  5
514
102
{ACAD_REACTORS
330
426
102
}
330
426
100
DictionaryVariables
280
     0
  1
2
  0
DICTIONARYVAR
  5
513
102
{ACAD_REACTORS
330
426
102
}
330
426
100
DictionaryVariables
280
     0
  1
1
  0
DICTIONARY
  5
493
102
{ACAD_REACTORS
330
488
102
}
330
488
100
AcDbDictionary
281
     1
  0
DICTIONARY
  5
3DB
330
3DA
100
AcDbDictionary
280
     1
281
     1
  3
ACAD_XREC_ROUNDTRIP
360
58B
  3
BUMPTILE
360
3DD
  3
DIFFUSETILE
360
3DC
  3
OPACITYTILE
360
3E0
  3
REFLECTIONTILE
360
3DF
  3
REFRACTIONTILE
360
3E1
  3
SPECULARTILE
360
3DE
  0
DICTIONARY
  5
3D3
330
3D2
100
AcDbDictionary
280
     1
281
     1
  3
ACAD_XREC_ROUNDTRIP
360
58A
  3
BUMPTILE
360
3D5
  3
DIFFUSETILE
360
3D4
  3
OPACITYTILE
360
3D8
  3
REFLECTIONTILE
360
3D7
  3
REFRACTIONTILE
360
3D9
  3
SPECULARTILE
360
3D6
  0
DICTIONARY
  5
3E3
330
3E2
100
AcDbDictionary
280
     1
281
     1
  3
ACAD_XREC_ROUNDTRIP
360
58C
  3
BUMPTILE
360
3E5
  3
DIFFUSETILE
360
3E4
  3
OPACITYTILE
360
3E8
  3
REFLECTIONTILE
360
3E7
  3
REFRACTIONTILE
360
3E9
  3
SPECULARTILE
360
3E6
  0
DICTIONARY
  5
423
330
3FD
100
AcDbDictionary
280
     1
281
     1
  3
ACAD_ROUNDTRIP_2008_TABLESTYLE_CELLSTYLEMAP
360
584
  3
ACAD_XREC_ROUNDTRIP
360
58D
  0
XRECORD
  5
58B
102
{ACAD_REACTORS
330
3DB
102
}
330
3DB
100
AcDbXrecord
280
     1
102
MATERIAL
148
0.0
149
0.0
149
0.0
 93
        0
 94
      127
282
     0
 72
     0
 77
     0
171
     0
175
     0
179
     0
273
     0
  0
XRECORD
  5
3DD
102
{ACAD_REACTORS
330
3DB
102
}
330
3DB
100
AcDbXrecord
280
     1
270
     1
271
     1
  0
XRECORD
  5
3DC
102
{ACAD_REACTORS
330
3DB
102
}
330
3DB
100
AcDbXrecord
280
     1
270
     1
271
     1
  0
XRECORD
  5
3E0
102
{ACAD_REACTORS
330
3DB
102
}
330
3DB
100
AcDbXrecord
280
     1
270
     1
271
     1
  0
XRECORD
  5
3DF
102
{ACAD_REACTORS
330
3DB
102
}
330
3DB
100
AcDbXrecord
280
     1
270
     1
271
     1
  0
XRECORD
  5
3E1
102
{ACAD_REACTORS
330
3DB
102
}
330
3DB
100
AcDbXrecord
280
     1
270
     1
271
     1
  0
XRECORD
  5
3DE
102
{ACAD_REACTORS
330
3DB
102
}
330
3DB
100
AcDbXrecord
280
     1
270
     1
271
     1
  0
XRECORD
  5
58A
102
{ACAD_REACTORS
330
3D3
102
}
330
3D3
100
AcDbXrecord
280
     1
102
MATERIAL
148
0.0
149
0.0
149
0.0
 93
        0
 94
      127
282
     0
 72
     0
 77
     0
171
     0
175
     0
179
     0
273
     0
  0
XRECORD
  5
3D5
102
{ACAD_REACTORS
330
3D3
102
}
330
3D3
100
AcDbXrecord
280
     1
270
     1
271
     1
  0
XRECORD
  5
3D4
102
{ACAD_REACTORS
330
3D3
102
}
330
3D3
100
AcDbXrecord
280
     1
270
     1
271
     1
  0
XRECORD
  5
3D8
102
{ACAD_REACTORS
330
3D3
102
}
330
3D3
100
AcDbXrecord
280
     1
270
     1
271
     1
  0
XRECORD
  5
3D7
102
{ACAD_REACTORS
330
3D3
102
}
330
3D3
100
AcDbXrecord
280
     1
270
     1
271
     1
  0
XRECORD
  5
3D9
102
{ACAD_REACTORS
330
3D3
102
}
330
3D3
100
AcDbXrecord
280
     1
270
     1
271
     1
  0
XRECORD
  5
3D6
102
{ACAD_REACTORS
330
3D3
102
}
330
3D3
100
AcDbXrecord
280
     1
270
     1
271
     1
  0
XRECORD
  5
58C
102
{ACAD_REACTORS
330
3E3
102
}
330
3E3
100
AcDbXrecord
280
     1
102
MATERIAL
148
0.0
149
0.0
149
0.0
 93
        0
 94
      127
282
     0
 72
     0
 77
     0
171
     0
175
     0
179
     0
273
     0
  0
XRECORD
  5
3E5
102
{ACAD_REACTORS
330
3E3
102
}
330
3E3
100
AcDbXrecord
280
     1
270
     1
271
     1
  0
XRECORD
  5
3E4
102
{ACAD_REACTORS
330
3E3
102
}
330
3E3
100
AcDbXrecord
280
     1
270
     1
271
     1
  0
XRECORD
  5
3E8
102
{ACAD_REACTORS
330
3E3
102
}
330
3E3
100
AcDbXrecord
280
     1
270
     1
271
     1
  0
XRECORD
  5
3E7
102
{ACAD_REACTORS
330
3E3
102
}
330
3E3
100
AcDbXrecord
280
     1
270
     1
271
     1
  0
XRECORD
  5
3E9
102
{ACAD_REACTORS
330
3E3
102
}
330
3E3
100
AcDbXrecord
280
     1
270
     1
271
     1
  0
XRECORD
  5
3E6
102
{ACAD_REACTORS
330
3E3
102
}
330
3E3
100
AcDbXrecord
280
     1
270
     1
271
     1
  0
CELLSTYLEMAP
  5
584
102
{ACAD_REACTORS
330
423
102
}
330
423
100
AcDbCellStyleMap
 90
        3
300
CELLSTYLE
  1
TABLEFORMAT_BEGIN
 90
        5
170
     1
 91
        0
 92
    32768
 62
   257
 93
        1
300
CONTENTFORMAT
  1
CONTENTFORMAT_BEGIN
 90
        0
 91
        0
 92
      512
 93
        0
300

 40
0.0
140
1.0
 94
        5
 62
     0
340
11
144
0.25
309
CONTENTFORMAT_END
171
     0
 94
        0
309
TABLEFORMAT_END
  1
CELLSTYLE_BEGIN
 90
        1
 91
        1
300
_TITLE
309
CELLSTYLE_END
300
CELLSTYLE
  1
TABLEFORMAT_BEGIN
 90
        5
170
     1
 91
        0
 92
        0
 62
   257
 93
        1
300
CONTENTFORMAT
  1
CONTENTFORMAT_BEGIN
 90
        0
 91
        0
 92
      512
 93
        0
300

 40
0.0
140
1.0
 94
        5
 62
     0
340
11
144
0.18
309
CONTENTFORMAT_END
171
     0
 94
        0
309
TABLEFORMAT_END
  1
CELLSTYLE_BEGIN
 90
        2
 91
        1
300
_HEADER
309
CELLSTYLE_END
300
CELLSTYLE
  1
TABLEFORMAT_BEGIN
 90
        5
170
     1
 91
        0
 92
        0
 62
   257
 93
        1
300
CONTENTFORMAT
  1
CONTENTFORMAT_BEGIN
 90
        0
 91
        0
 92
      512
 93
        0
300

 40
0.0
140
1.0
 94
        2
 62
     0
340
11
144
0.18
309
CONTENTFORMAT_END
171
     0
 94
        0
309
TABLEFORMAT_END
  1
CELLSTYLE_BEGIN
 90
        3
 91
        2
300
_DATA
309
CELLSTYLE_END
  0
XRECORD
  5
58D
102
{ACAD_REACTORS
330
423
102
}
330
423
100
AcDbXrecord
280
     1
102
ACAD_ROUNDTRIP_PRE2007_TABLESTYLE
 90
      512
 91
        0
  1

 92
      512
 93
        0
  2

 94
      512
 95
        0
  3

  0
ENDSEC
  0
EOF
