  0
SECTION
  2
HEADER
  9
$ACADVER
  1
AC1009
  9
$INSBASE
 10
0.0
 20
0.0
 30
0.0
  9
$EXTMIN
 10
-9.103537
 20
-8.624545
 30
0.0
  9
$EXTMAX
 10
9.097824
 20
0.126759
 30
0.0
  9
$LIMMIN
 10
0.0
 20
0.0
  9
$LIMMAX
 10
12.0
 20
9.0
  9
$ORTHOMODE
 70
     0
  9
$REGENMODE
 70
     1
  9
$FILLMODE
 70
     0
  9
$QTEXTMODE
 70
     0
  9
$MIRRTEXT
 70
     1
  9
$DRAGMODE
 70
     2
  9
$LTSCALE
 40
1.0
  9
$OSMODE
 70
     0
  9
$ATTMODE
 70
     1
  9
$TEXTSIZE
 40
0.001
  9
$TRACEWID
 40
0.05
  9
$TEXTSTYLE
  7
STANDARD
  9
$CLAYER
  8
0
  9
$CELTYPE
  6
BYLAYER
  9
$CECOLOR
 62
   256
  9
$DIMSCALE
 40
1.0
  9
$DIMASZ
 40
0.18
  9
$DIMEXO
 40
0.0625
  9
$DIMDLI
 40
0.38
  9
$DIMRND
 40
0.0
  9
$DIMDLE
 40
0.0
  9
$DIMEXE
 40
0.18
  9
$DIMTP
 40
0.0
  9
$DIMTM
 40
0.0
  9
$DIMTXT
 40
0.18
  9
$DIMCEN
 40
0.09
  9
$DIMTSZ
 40
0.0
  9
$DIMTOL
 70
     0
  9
$DIMLIM
 70
     0
  9
$DIMTIH
 70
     1
  9
$DIMTOH
 70
     1
  9
$DIMSE1
 70
     0
  9
$DIMSE2
 70
     0
  9
$DIMTAD
 70
     0
  9
$DIMZIN
 70
     0
  9
$DIMBLK
  1

  9
$DIMASO
 70
     1
  9
$DIMSHO
 70
     1
  9
$DIMPOST
  1

  9
$DIMAPOST
  1

  9
$DIMALT
 70
     0
  9
$DIMALTD
 70
     2
  9
$DIMALTF
 40
25.4
  9
$DIMLFAC
 40
1.0
  9
$DIMTOFL
 70
     0
  9
$DIMTVP
 40
0.0
  9
$DIMTIX
 70
     0
  9
$DIMSOXD
 70
     0
  9
$DIMSAH
 70
     0
  9
$DIMBLK1
  1

  9
$DIMBLK2
  1

  9
$DIMSTYLE
  2
*UNNAMED
  9
$DIMCLRD
 70
     0
  9
$DIMCLRE
 70
     0
  9
$DIMCLRT
 70
     0
  9
$DIMTFAC
 40
1.0
  9
$DIMGAP
 40
0.09
  9
$LUNITS
 70
     2
  9
$LUPREC
 70
     4
  9
$SKETCHINC
 40
0.1
  9
$FILLETRAD
 40
0.0
  9
$AUNITS
 70
     0
  9
$AUPREC
 70
     0
  9
$MENU
  1
acad
  9
$ELEVATION
 40
0.0
  9
$PELEVATION
 40
0.0
  9
$THICKNESS
 40
0.0
  9
$LIMCHECK
 70
     0
  9
$BLIPMODE
 70
     0
  9
$CHAMFERA
 40
0.0
  9
$CHAMFERB
 40
0.0
  9
$SKPOLY
 70
     0
  9
$TDCREATE
 40
2450913.342506829
  9
$TDUPDATE
 40
2450913.343932060
  9
$TDINDWG
 40
0.0000400463
  9
$TDUSRTIMER
 40
0.0000400463
  9
$USRTIMER
 70
     1
  9
$ANGBASE
 50
0.0
  9
$ANGDIR
 70
     0
  9
$PDMODE
 70
     0
  9
$PDSIZE
 40
0.0
  9
$PLINEWID
 40
0.0
  9
$COORDS
 70
     1
  9
$SPLFRAME
 70
     0
  9
$SPLINETYPE
 70
     6
  9
$SPLINESEGS
 70
     8
  9
$ATTDIA
 70
     0
  9
$ATTREQ
 70
     1
  9
$HANDLING
 70
     0
  9
$HANDSEED
  5
0
  9
$SURFTAB1
 70
     6
  9
$SURFTAB2
 70
     6
  9
$SURFTYPE
 70
     6
  9
$SURFU
 70
     6
  9
$SURFV
 70
     6
  9
$UCSNAME
  2

  9
$UCSORG
 10
0.0
 20
0.0
 30
0.0
  9
$UCSXDIR
 10
1.0
 20
0.0
 30
0.0
  9
$UCSYDIR
 10
0.0
 20
1.0
 30
0.0
  9
$PUCSNAME
  2

  9
$PUCSORG
 10
0.0
 20
0.0
 30
0.0
  9
$PUCSXDIR
 10
1.0
 20
0.0
 30
0.0
  9
$PUCSYDIR
 10
0.0
 20
1.0
 30
0.0
  9
$USERI1
 70
     0
  9
$USERI2
 70
     0
  9
$USERI3
 70
     0
  9
$USERI4
 70
     0
  9
$USERI5
 70
     0
  9
$USERR1
 40
0.0
  9
$USERR2
 40
0.0
  9
$USERR3
 40
0.0
  9
$USERR4
 40
0.0
  9
$USERR5
 40
0.0
  9
$WORLDVIEW
 70
     1
  9
$SHADEDGE
 70
     3
  9
$SHADEDIF
 70
    70
  9
$TILEMODE
 70
     1
  9
$MAXACTVP
 70
    16
  9
$PINSBASE
 10
-7.231280E+99
 20
0.0
 30
0.0
  9
$PLIMCHECK
 70
     0
  9
$PEXTMIN
 10
1.000000E+20
 20
1.000000E+20
 30
1.000000E+20
  9
$PEXTMAX
 10
-1.000000E+20
 20
-1.000000E+20
 30
-1.000000E+20
  9
$PLIMMIN
 10
0.0
 20
0.0
  9
$PLIMMAX
 10
12.0
 20
9.0
  9
$UNITMODE
 70
     0
  9
$VISRETAIN
 70
     0
  9
$PLINEGEN
 70
     0
  9
$PSLTSCALE
 70
     1
  9
$TREEDEPTH
 70
  3020
  9
$DWGCODEPAGE
  3
iso8859-1
  0
ENDSEC
  0
SECTION
  2
TABLES
  0
TABLE
  2
VPORT
 70
     2
  0
VPORT
  2
*ACTIVE
 70
     0
 10
0.0
 20
0.0
 11
1.0
 21
1.0
 12
0.819453
 22
-2.415715
 13
0.0
 23
0.0
 14
1.0
 24
1.0
 15
0.0
 25
0.0
 16
0.0
 26
0.0
 36
1.0
 17
0.0
 27
0.0
 37
0.0
 40
13.759569
 41
1.573846
 42
50.0
 43
0.0
 44
0.0
 50
0.0
 51
0.0
 71
     0
 72
 10000
 73
     1
 74
     1
 75
     0
 76
     0
 77
     0
 78
     0
  0
ENDTAB
  0
TABLE
  2
LTYPE
 70
     2
  0
LTYPE
  2
CONTINUOUS
 70
    64
  3
Solid line
 72
    65
 73
     0
 40
0.0
  0
LTYPE
  2
HIDDEN
 70
    64
  3
__ __ __ __ __ __ __ __ __ __ __ __ __ __ __ __
 72
    65
 73
     2
 40
0.375
 49
0.25
 49
-0.125
  0
ENDTAB
  0
TABLE
  2
LAYER
 70
     1
  0
LAYER
  2
0
 70
    64
 62
     7
  6
CONTINUOUS
  0
ENDTAB
  0
TABLE
  2
STYLE
 70
     1
  0
STYLE
  2
STANDARD
 70
    64
 40
0.0
 41
1.0
 50
0.0
 71
     0
 42
0.001
  3
txt
  4

  0
ENDTAB
  0
TABLE
  2
VIEW
 70
     0
  0
ENDTAB
  0
TABLE
  2
UCS
 70
     0
  0
ENDTAB
  0
TABLE
  2
APPID
 70
     1
  0
APPID
  2
ACAD
 70
    64
  0
ENDTAB
  0
TABLE
  2
DIMSTYLE
 70
     0
  0
ENDTAB
  0
ENDSEC
  0
SECTION
  2
BLOCKS
  0
ENDSEC
  0
SECTION
  2
ENTITIES
  0
LINE
  8
0
  6
HIDDEN
 10
8.943814
 20
-0.60334
 30
0.0
 11
-8.944885
 21
-0.598678
 31
0.0
  0
LINE
  8
0
 10
-8.326703
 20
0.0
 30
0.0
 11
8.326703
 21
0.0
 31
0.0
  0
ARC
  8
0
  6
HIDDEN
 10
-21.196683
 20
-0.319919
 30
0.0
 40
25.864678
 50
348.184585
 51
359.374597
  0
ARC
  8
0
  6
HIDDEN
 10
0.245753
 20
1.61126
 30
0.0
 40
8.414028
 50
205.633471
 51
248.705576
  0
ARC
  8
0
  6
HIDDEN
 10
0.395398
 20
1.695123
 30
0.0
 40
9.532264
 50
202.55499
 51
247.389643
  0
ARC
  8
0
  6
HIDDEN
 10
-0.931251
 20
-2.6411
 30
0.0
 40
5.038736
 50
242.352252
 51
263.540045
  0
LINE
  8
0
  6
HIDDEN
 10
2.642093
 20
-8.5215
 30
0.0
 11
2.797017
 21
-7.139431
 31
0.0
  0
ARC
  8
0
  6
HIDDEN
 10
-1.69905
 20
-9.422115
 30
0.0
 40
1.785609
 50
29.229954
 51
83.540045
  0
LINE
  8
0
  6
HIDDEN
 10
-0.054738
 20
-8.607521
 30
0.0
 11
2.5675
 21
-8.607521
 31
0.0
  0
ARC
  8
0
  6
HIDDEN
 10
-0.041727
 20
-8.494732
 30
0.0
 40
0.113538
 50
209.229954
 51
263.419407
  0
ARC
  8
0
  6
HIDDEN
 10
2.5675
 20
-8.532169
 30
0.0
 40
0.075352
 50
270.0
 51
8.139906
  0
LINE
  8
0
  6
HIDDEN
 10
2.347922
 20
-7.113313
 30
0.0
 11
0.18923
 21
-7.113313
 31
0.0
  0
ARC
  8
0
  6
HIDDEN
 10
0.378828
 20
1.379739
 30
0.0
 40
8.249266
 50
247.260273
 51
261.450347
  0
ARC
  8
0
  6
HIDDEN
 10
0.18923
 20
-6.188428
 30
0.0
 40
0.924885
 50
229.980099
 51
270.0
  0
ARC
  8
0
  6
HIDDEN
 10
-1.14806
 20
-8.77669
 30
0.0
 40
2.021295
 50
68.447217
 51
81.450347
  0
LINE
  8
0
  6
HIDDEN
 10
3.266171
 20
-6.7752
 30
0.0
 11
2.347922
 21
-7.113313
 31
0.0
  0
ARC
  8
0
  6
HIDDEN
 10
3.147756
 20
-7.178748
 30
0.0
 40
0.352935
 50
122.585543
 51
173.60407
  0
ARC
  8
0
  6
HIDDEN
 10
2.503621
 20
-5.319515
 30
0.0
 40
1.643321
 50
297.647485
 51
349.607467
  0
ARC
  8
0
  6
HIDDEN
 10
-8.934513
 20
-0.526198
 30
0.0
 40
0.073218
 50
172.986253
 51
261.8557
  0
ARC
  8
0
  6
HIDDEN
 10
-8.36802
 20
-0.651877
 30
0.0
 40
0.653186
 50
86.37333
 51
168.106271
  0
LINE
  8
0
  6
HIDDEN
 10
-8.477383
 20
-0.5988
 30
0.0
 11
-8.407761
 21
-1.961167
 31
0.0
  0
LINE
  8
0
  6
HIDDEN
 10
-7.340166
 20
-2.028754
 30
0.0
 11
-7.817027
 21
-0.598973
 31
0.0
  0
ARC
  8
0
  6
HIDDEN
 10
8.326703
 20
-0.689571
 30
0.0
 40
0.689571
 50
12.01538
 51
90.0
  0
ARC
  8
0
  6
HIDDEN
 10
8.953901
 20
-0.55608
 30
0.0
 40
0.048324
 50
257.951943
 51
12.01538
  0
ATTDEF
  8
0
 10
0.0
 20
0.0
 30
0.0
 40
0.001
  1
K-2907-8U
  3

  2
MODELNUMBER
 70
     8
  0
ATTDEF
  8
0
 10
0.0
 20
-0.001667
 30
0.0
 40
0.001
  1
THOREAU
  3

  2
TRADENAME
 70
     8
  0
ATTDEF
  8
0
 10
0.0
 20
-0.003333
 30
0.0
 40
0.001
  1
LAVATORY
  3

  2
PRODUCT
 70
     8
  0
ATTDEF
  8
0
 10
0.0
 20
-0.005
 30
0.0
 40
0.001
  1
CAST IRON
  3

  2
MATERIAL
 70
     8
  0
ENDSEC
  0
EOF
