  0
SECTION
  2
HEADER
  9
$ACADVER
  1
AC1009
  9
$INSBASE
 10
3261.5927430641058891
 20
253.1077890437528026
 30
0.0
  9
$EXTMIN
 10
3234.5770002980411846
 20
253.0997627632235947
 30
-0.0015258207003583
  9
$EXTMAX
 10
3261.7006015204037794
 20
282.9064217781460115
 30
0.0000000349246037
  9
$LIMMIN
 10
0.0
 20
0.0
  9
$LIMMAX
 10
11.6929133858000007
 20
8.2677165353999982
  9
$ORTHOMODE
 70
     0
  9
$REGENMODE
 70
     1
  9
$FILLMODE
 70
     1
  9
$QTEXTMODE
 70
     0
  9
$MIRRTEXT
 70
     0
  9
$DRAGMODE
 70
     2
  9
$LTSCALE
 40
0.6431102362
  9
$OSMODE
 70
  4095
  9
$ATTMODE
 70
     1
  9
$TEXTSIZE
 40
0.2
  9
$TRACEWID
 40
0.05
  9
$TEXTSTYLE
  7
STANDARD
  9
$CLAYER
  8
0
  9
$CELTYPE
  6
BYLAYER
  9
$CECOLOR
 62
   256
  9
$DIMSCALE
 40
1.0
  9
$DIMASZ
 40
0.1875
  9
$DIMEXO
 40
0.0625
  9
$DIMDLI
 40
0.4443307087
  9
$DIMRND
 40
0.0
  9
$DIMDLE
 40
0.0
  9
$DIMEXE
 40
0.125
  9
$DIMTP
 40
0.01
  9
$DIMTM
 40
0.01
  9
$DIMTXT
 40
2.0
  9
$DIMCEN
 40
0.1052362205
  9
$DIMTSZ
 40
0.0
  9
$DIMTOL
 70
     1
  9
$DIMLIM
 70
     0
  9
$DIMTIH
 70
     1
  9
$DIMTOH
 70
     1
  9
$DIMSE1
 70
     0
  9
$DIMSE2
 70
     0
  9
$DIMTAD
 70
     0
  9
$DIMZIN
 70
     0
  9
$DIMBLK
  1

  9
$DIMASO
 70
     1
  9
$DIMSHO
 70
     1
  9
$DIMPOST
  1
\X
  9
$DIMAPOST
  1

  9
$DIMALT
 70
     1
  9
$DIMALTD
 70
     2
  9
$DIMALTF
 40
25.3999999999999986
  9
$DIMLFAC
 40
1.0
  9
$DIMTOFL
 70
     0
  9
$DIMTVP
 40
0.0
  9
$DIMTIX
 70
     0
  9
$DIMSOXD
 70
     0
  9
$DIMSAH
 70
     0
  9
$DIMBLK1
  1

  9
$DIMBLK2
  1

  9
$DIMSTYLE
  2
STANDARD
  9
$DIMCLRD
 70
     0
  9
$DIMCLRE
 70
     0
  9
$DIMCLRT
 70
     0
  9
$DIMTFAC
 40
1.0
  9
$DIMGAP
 40
0.09
  9
$LUNITS
 70
     2
  9
$LUPREC
 70
     4
  9
$SKETCHINC
 40
0.1
  9
$FILLETRAD
 40
0.0
  9
$AUNITS
 70
     0
  9
$AUPREC
 70
     0
  9
$MENU
  1
.
  9
$ELEVATION
 40
0.0
  9
$PELEVATION
 40
0.0
  9
$THICKNESS
 40
0.0
  9
$LIMCHECK
 70
     0
  9
$BLIPMODE
 70
     0
  9
$CHAMFERA
 40
0.0
  9
$CHAMFERB
 40
0.0
  9
$SKPOLY
 70
     0
  9
$TDCREATE
 40
2458060.468368056230247
  9
$TDUPDATE
 40
2459415.8372453697957098
  9
$TDINDWG
 40
0.7091042824
  9
$TDUSRTIMER
 40
0.7091042824
  9
$USRTIMER
 70
     1
  9
$ANGBASE
 50
0.0
  9
$ANGDIR
 70
     0
  9
$PDMODE
 70
     0
  9
$PDSIZE
 40
0.3125
  9
$PLINEWID
 40
0.0
  9
$COORDS
 70
     1
  9
$SPLFRAME
 70
     0
  9
$SPLINETYPE
 70
     6
  9
$SPLINESEGS
 70
     8
  9
$ATTDIA
 70
     1
  9
$ATTREQ
 70
     1
  9
$HANDLING
 70
     1
  9
$HANDSEED
  5
3BB99
  9
$SURFTAB1
 70
     6
  9
$SURFTAB2
 70
     6
  9
$SURFTYPE
 70
     6
  9
$SURFU
 70
     6
  9
$SURFV
 70
     6
  9
$UCSNAME
  2

  9
$UCSORG
 10
0.0
 20
0.0
 30
0.0
  9
$UCSXDIR
 10
1.0
 20
0.0
 30
0.0
  9
$UCSYDIR
 10
0.0
 20
1.0
 30
0.0
  9
$PUCSNAME
  2

  9
$PUCSORG
 10
0.0
 20
0.0
 30
0.0
  9
$PUCSXDIR
 10
1.0
 20
0.0
 30
0.0
  9
$PUCSYDIR
 10
0.0
 20
1.0
 30
0.0
  9
$USERI1
 70
     0
  9
$USERI2
 70
     0
  9
$USERI3
 70
     0
  9
$USERI4
 70
     0
  9
$USERI5
 70
     0
  9
$USERR1
 40
0.0
  9
$USERR2
 40
0.0
  9
$USERR3
 40
0.0
  9
$USERR4
 40
0.0
  9
$USERR5
 40
0.0
  9
$WORLDVIEW
 70
     1
  9
$SHADEDGE
 70
     3
  9
$SHADEDIF
 70
    70
  9
$TILEMODE
 70
     1
  9
$MAXACTVP
 70
    64
  9
$PLIMCHECK
 70
     0
  9
$PEXTMIN
 10
1.0000000000000000E+20
 20
1.0000000000000000E+20
 30
1.0000000000000000E+20
  9
$PEXTMAX
 10
-1.0000000000000000E+20
 20
-1.0000000000000000E+20
 30
-1.0000000000000000E+20
  9
$PLIMMIN
 10
0.0
 20
0.0
  9
$PLIMMAX
 10
12.0
 20
9.0
  9
$UNITMODE
 70
     0
  9
$VISRETAIN
 70
     1
  9
$PLINEGEN
 70
     0
  9
$PSLTSCALE
 70
     1
  0
ENDSEC
  0
SECTION
  2
TABLES
  0
TABLE
  2
VPORT
 70
     1
  0
VPORT
  2
*ACTIVE
 70
     0
 10
0.0
 20
0.0
 11
1.0
 21
1.0
 12
-41.8461222205010017
 22
61.0599093094036576
 13
0.0
 23
0.0
 14
1.0
 24
1.0
 15
0.0
 25
0.0
 16
0.0
 26
0.0
 36
96.5995694866707311
 17
3303.693115234375
 27
195.2615115758877096
 37
0.0
 40
11.7879493404556097
 41
2.8440779610194902
 42
50.0
 43
0.0
 44
0.0
 50
0.0
 51
0.0
 71
     0
 72
   100
 73
     1
 74
     1
 75
     0
 76
     0
 77
     0
 78
     0
  0
ENDTAB
  0
TABLE
  2
LTYPE
 70
     2
  0
LTYPE
  2
CONTINUOUS
 70
     0
  3
Solid line
 72
    65
 73
     0
 40
0.0
  0
LTYPE
  2
PHANTOM2
 70
     0
  3
___ _ _ ___ _ _ ___ _ _ ___ _ _
 72
    65
 73
     6
 40
1.25
 49
0.625
 49
-0.125
 49
0.125
 49
-0.125
 49
0.125
 49
-0.125
  0
ENDTAB
  0
TABLE
  2
LAYER
 70
     2
  0
LAYER
  2
0
 70
     0
 62
   255
  6
CONTINUOUS
  0
LAYER
  2
DEFPOINTS
 70
     0
 62
     7
  6
CONTINUOUS
  0
ENDTAB
  0
TABLE
  2
STYLE
 70
     1
  0
STYLE
  2
STANDARD
 70
     0
 40
0.0
 41
0.8
 50
0.0
 71
     0
 42
0.2
  3
txt
  4

  0
ENDTAB
  0
TABLE
  2
VIEW
 70
     0
  0
ENDTAB
  0
TABLE
  2
UCS
 70
     0
  0
ENDTAB
  0
TABLE
  2
APPID
 70
     9
  0
APPID
  2
ACAD
 70
     0
  0
APPID
  2
ACAD_MLEADERVER
 70
     0
  0
APPID
  2
ACAD_EXEMPT_FROM_CAD_STANDARDS
 70
     0
  0
APPID
  2
ACAD_NAV_VCDISPLAY
 70
     0
  0
APPID
  2
ACAECLAYERSTANDARD
 70
     0
  0
APPID
  2
ACCMTRANSPARENCY
 70
     0
  0
APPID
  2
ACAD_DSTYLE_DIMJAG
 70
     0
  0
APPID
  2
ACAD_DSTYLE_DIMTALN
 70
     0
  0
APPID
  2
ACDBATTR
 70
     0
  0
ENDTAB
  0
TABLE
  2
DIMSTYLE
 70
     1
  0
DIMSTYLE
  2
STANDARD
 70
     0
  3

  4

  5

  6

  7

 40
1.0
 41
0.1875
 42
0.0625
 43
0.38
 44
0.125
 45
0.0
 46
0.0
 47
0.01
 48
0.01
140
0.15625
141
0.09
142
0.0
143
25.3999999999999986
144
1.0
145
0.0
146
1.0
147
0.09
 71
     1
 72
     0
 73
     1
 74
     1
 75
     0
 76
     0
 77
     0
 78
     4
170
     0
171
     2
172
     0
173
     0
174
     0
175
     0
176
     0
177
     0
178
     0
  0
ENDTAB
  0
ENDSEC
  0
SECTION
  2
BLOCKS
  0
BLOCK
  8
0
  2
$MODEL_SPACE
 70
     0
 10
0.0
 20
0.0
 30
0.0
  3
$MODEL_SPACE
  1

  0
ENDBLK
  5
21
  8
0
  0
BLOCK
 67
     1
  8
0
  2
$PAPER_SPACE
 70
     0
 10
0.0
 20
0.0
 30
0.0
  3
$PAPER_SPACE
  1

  0
ENDBLK
  5
1D
 67
     1
  8
0
  0
ENDSEC
  0
SECTION
  2
ENTITIES
  0
ATTDEF
  5
340AC
  8
DEFPOINTS
 10
3261.5893179406439231
 20
253.1134442323698863
 30
0.0
 40
0.001
  1
K-29058T-L
  3

  2
MODELNUMBER
 70
     0
1001
ACDBATTR
1070
     0
1070
     1
  0
ATTDEF
  5
340AD
  8
DEFPOINTS
 10
3261.5893179406439231
 20
253.1117775657031927
 30
0.0
 40
0.001
  1
FLEXISPACE 
  3

  2
TRADENAME
 70
     0
1001
ACDBATTR
1070
     0
1070
     1
  0
ATTDEF
  5
340AE
  8
DEFPOINTS
 10
3261.5893179406439231
 20
253.1101108990364992
 30
0.0
 40
0.001
  1
BATH 
  3

  2
PRODUCT
 70
     0
1001
ACDBATTR
1070
     0
1070
     1
  0
LINE
  5
3B9C5
  8
0
 10
3235.017989520806168
 20
253.3636945555527973
 30
0.0
 11
3261.3958430641059749
 21
253.3636945555527973
 31
0.0
  0
LINE
  5
3B9C6
  8
0
 10
3234.8210895208057991
 20
281.5132512484527751
 30
0.0
 11
3234.8210895208057991
 21
253.5605945555527967
 31
0.0
  0
LINE
  5
3B9C7
  8
0
 10
3235.1672953906199837
 20
282.891252033107321
 30
0.0
 11
3261.246537194290795
 21
282.891252033107321
 31
0.0
  0
LINE
  5
3B9C8
  8
0
 10
3234.8979547537060171
 20
281.710151248452803
 30
0.0
 11
3261.5158778312061258
 21
281.7101512484529167
 31
0.0
  0
LINE
  5
3B9C9
  8
0
 10
3234.8979547537060171
 20
281.710151248452803
 30
0.0
 11
3234.931239277279019
 21
282.6632952942428005
 31
0.0
  0
ARC
  5
3B9CA
  8
0
 10
3235.1672953906199837
 20
282.6550520331073244
 30
0.0
 40
0.2362
 50
90.0
 51
177.9999999965340862
  0
ARC
  5
3B9CB
  8
0
 10
3235.017989520806168
 20
281.5132512484527751
 30
0.0
 40
0.1969
 50
90.0
 51
180.0
  0
ARC
  5
3B9CC
  8
0
 10
3235.017989520806168
 20
253.5605945555527967
 30
0.0
 40
0.1969
 50
180.0
 51
270.0
  0
LINE
  5
3B9CD
  8
0
 10
3261.5927430641058891
 20
281.5132512484527751
 30
0.0
 11
3261.5927430641058891
 21
253.5605945555527967
 31
0.0
  0
LINE
  5
3B9CE
  8
0
 10
3261.5158778312061258
 20
281.7101512484529167
 30
0.0
 11
3261.4825933076331239
 21
282.6632952942428005
 31
0.0
  0
ARC
  5
3B9CF
  8
0
 10
3261.246537194290795
 20
282.6550520331073244
 30
0.0
 40
0.2362
 50
2.0000000034659262
 51
90.0
  0
ARC
  5
3B9D0
  8
0
 10
3261.3958430641059749
 20
281.5132512484527751
 30
0.0
 40
0.1969
 50
0.0
 51
90.0
  0
ARC
  5
3B9D1
  8
0
 10
3261.3958430641059749
 20
253.5605945555527967
 30
0.0
 40
0.1969
 50
270.0
 51
0.0
  0
LINE
  5
3B9D2
  8
0
 10
3239.3486485760058713
 20
253.1668441618529073
 30
0.0
 11
3237.3801446390061756
 21
253.1668441618529073
 31
0.0
  0
LINE
  5
3B9D3
  8
0
 10
3239.3486485760058713
 20
253.1668441618529073
 30
0.0
 11
3239.3486485760058713
 21
253.3636945555527973
 31
0.0
  0
LINE
  5
3B9D4
  8
0
 10
3237.3801446390061756
 20
253.1668441618529073
 30
0.0
 11
3237.3801446390061756
 21
253.3636945555527973
 31
0.0
  0
LINE
  5
3B9D5
  8
0
 10
3239.3276591868061587
 20
253.139285106752908
 30
0.0
 11
3237.4011340047059093
 21
253.139285106752908
 31
0.0
  0
LINE
  5
3B9D6
  8
0
 10
3237.4011340047059093
 20
253.139285106752908
 30
0.0
 11
3237.4011340047059093
 21
253.1668441618529073
 31
0.0
  0
LINE
  5
3B9D7
  8
0
 10
3239.3276591868061587
 20
253.139285106752908
 30
0.0
 11
3239.3276591868061587
 21
253.1668441618529073
 31
0.0
  0
ARC
  5
3B9D8
  8
0
 10
3239.0869395484060078
 20
253.1582319571529069
 30
0.0
 40
0.0504429134000004
 50
222.2067817463492929
 51
337.9379955033126066
  0
ARC
  5
3B9D9
  8
0
 10
3239.1124281036059074
 20
253.1582319571529069
 30
0.0
 40
0.0504429134000004
 50
255.3657650016193941
 51
337.9379955033126066
  0
ARC
  5
3B9DA
  8
0
 10
3239.0122108859050059
 20
253.1582319571529069
 30
0.0
 40
0.0504429134000004
 50
202.0620044966873081
 51
337.9379955033126066
  0
ARC
  5
3B9DB
  8
0
 10
3238.9352627492057763
 20
253.1582319571529069
 30
0.0
 40
0.0504429134000004
 50
253.9218346589649116
 51
319.7050155197983941
  0
ARC
  5
3B9DC
  8
0
 10
3238.9073225715060289
 20
253.1582319571529069
 30
0.0
 40
0.0504429134000004
 50
262.030264492611991
 51
337.9379955033126066
  0
ARC
  5
3B9DD
  8
0
 10
3238.8933347509050691
 20
253.1582319571529069
 30
0.0
 40
0.0504429134000004
 50
202.0620044966873081
 51
337.9379955033126066
  0
ARC
  5
3B9DE
  8
0
 10
3238.8262370177058074
 20
253.1582319571529069
 30
0.0
 40
0.0504429134000004
 50
209.4791085284649057
 51
311.6889098768706958
  0
ARC
  5
3B9DF
  8
0
 10
3238.7384123555061706
 20
253.1582319571529069
 30
0.0
 40
0.0504429134000004
 50
202.0620044966873081
 51
337.9379955033126066
  0
ARC
  5
3B9E0
  8
0
 10
3238.6999433066062011
 20
253.1582319571529069
 30
0.0
 40
0.0504429134000004
 50
202.0620044966873081
 51
292.4150192053645014
  0
ARC
  5
3B9E1
  8
0
 10
3238.6712560025061975
 20
253.1582319571529069
 30
0.0
 40
0.0504429134000004
 50
202.0620044966873081
 51
286.5202472423844142
  0
ARC
  5
3B9E2
  8
0
 10
3238.5580014050060527
 20
253.1582319571529069
 30
0.0
 40
0.0504429134000004
 50
202.0620044966873081
 51
337.9379955033126066
  0
ARC
  5
3B9E3
  8
0
 10
3238.5408039468061361
 20
253.1582319571529069
 30
0.0
 40
0.0504429134000004
 50
202.0620044966873081
 51
279.8148307181155019
  0
ARC
  5
3B9E4
  8
0
 10
3238.3643966075060234
 20
253.1582319571529069
 30
0.0
 40
0.0504429134000002
 50
202.0620044966873081
 51
337.9379955033126066
  0
ARC
  5
3B9E5
  8
0
 10
3237.641853666606039
 20
253.1582319571529069
 30
0.0
 40
0.0504429134000004
 50
202.0620044966873081
 51
317.7932182536505934
  0
ARC
  5
3B9E6
  8
0
 10
3237.6163651114061395
 20
253.1582319571529069
 30
0.0
 40
0.0504429134000004
 50
202.0620044966873081
 51
284.6342349983805207
  0
ARC
  5
3B9E7
  8
0
 10
3237.7165823291061315
 20
253.1582319571529069
 30
0.0
 40
0.0504429134000004
 50
202.0620044966873081
 51
337.9379955033126066
  0
ARC
  5
3B9E8
  8
0
 10
3237.7935304658058158
 20
253.1582319571529069
 30
0.0
 40
0.0504429134000004
 50
220.2949844802004122
 51
286.0781653410099921
  0
ARC
  5
3B9E9
  8
0
 10
3237.821470643506018
 20
253.1582319571529069
 30
0.0
 40
0.0504429134000004
 50
202.0620044966873081
 51
277.969735507388009
  0
ARC
  5
3B9EA
  8
0
 10
3237.8354584641060683
 20
253.1582319571529069
 30
0.0
 40
0.0504429134000004
 50
202.0620044966873081
 51
337.9379955033126066
  0
ARC
  5
3B9EB
  8
0
 10
3237.9025561973057847
 20
253.1582319571529069
 30
0.0
 40
0.0504429134000004
 50
228.3110901231291905
 51
330.5208914715350943
  0
ARC
  5
3B9EC
  8
0
 10
3237.9903808595058763
 20
253.1582319571529069
 30
0.0
 40
0.0504429134000004
 50
202.0620044966873081
 51
337.9379955033126066
  0
ARC
  5
3B9ED
  8
0
 10
3238.0288499084058458
 20
253.1582319571529069
 30
0.0
 40
0.0504429134000004
 50
247.5849807946354133
 51
337.9379955033126066
  0
ARC
  5
3B9EE
  8
0
 10
3238.0575372125058493
 20
253.1582319571529069
 30
0.0
 40
0.0504429134000004
 50
253.4797527576156142
 51
337.9379955033126066
  0
ARC
  5
3B9EF
  8
0
 10
3238.1707918100059942
 20
253.1582319571529069
 30
0.0
 40
0.0504429134000004
 50
202.0620044966873081
 51
337.9379955033126066
  0
ARC
  5
3B9F0
  8
0
 10
3238.1879892682059108
 20
253.1582319571529069
 30
0.0
 40
0.0504429134000004
 50
260.1851692818844981
 51
337.9379955033126066
  0
LINE
  5
3B9F1
  8
0
 10
3237.4096791525062145
 20
253.139285106752908
 30
0.0
 11
3237.4096791525062145
 21
253.1668441618529073
 31
0.0
  0
LINE
  5
3B9F2
  8
0
 10
3237.4266920972049775
 20
253.139285106752908
 30
0.0
 11
3237.4266920972049775
 21
253.1668441618529073
 31
0.0
  0
LINE
  5
3B9F3
  8
0
 10
3237.4510180526058321
 20
253.139285106752908
 30
0.0
 11
3237.4510180526058321
 21
253.1668441618529073
 31
0.0
  0
LINE
  5
3B9F4
  8
0
 10
3237.4520187671050735
 20
253.139285106752908
 30
0.0
 11
3237.4520187671050735
 21
253.1668441618529073
 31
0.0
  0
LINE
  5
3B9F5
  8
0
 10
3237.4781421444058651
 20
253.139285106752908
 30
0.0
 11
3237.4781421444058651
 21
253.1668441618529073
 31
0.0
  0
LINE
  5
3B9F6
  8
0
 10
3237.4854297998058428
 20
253.139285106752908
 30
0.0
 11
3237.4854297998058428
 21
253.1668441618529073
 31
0.0
  0
LINE
  5
3B9F7
  8
0
 10
3237.5132922924058221
 20
253.139285106752908
 30
0.0
 11
3237.5132922924058221
 21
253.1668441618529073
 31
0.0
  0
LINE
  5
3B9F8
  8
0
 10
3237.5266226200060373
 20
253.139285106752908
 30
0.0
 11
3237.5266226200060373
 21
253.1668441618529073
 31
0.0
  0
LINE
  5
3B9F9
  8
0
 10
3237.5561501716060775
 20
253.139285106752908
 30
0.0
 11
3237.5561501716060775
 21
253.1668441618529073
 31
0.0
  0
LINE
  5
3B9FA
  8
0
 10
3237.5752241792060886
 20
253.139285106752908
 30
0.0
 11
3237.5752241792060886
 21
253.1668441618529073
 31
0.0
  0
LINE
  5
3B9FB
  8
0
 10
3237.6063276545060035
 20
253.139285106752908
 30
0.0
 11
3237.6063276545060035
 21
253.1668441618529073
 31
0.0
  0
LINE
  5
3B9FC
  8
0
 10
3237.6307943342058024
 20
253.139285106752908
 30
0.0
 11
3237.6307943342058024
 21
253.1668441618529073
 31
0.0
  0
LINE
  5
3B9FD
  8
0
 10
3237.6633703261059054
 20
253.139285106752908
 30
0.0
 11
3237.6633703261059054
 21
253.1668441618529073
 31
0.0
  0
LINE
  5
3B9FE
  8
0
 10
3237.6928298331049518
 20
253.139285106752908
 30
0.0
 11
3237.6928298331049518
 21
253.1668441618529073
 31
0.0
  0
LINE
  5
3B9FF
  8
0
 10
3237.7267615992050196
 20
253.139285106752908
 30
0.0
 11
3237.7267615992050196
 21
253.1668441618529073
 31
0.0
  0
LINE
  5
3BA00
  8
0
 10
3237.7607688729058282
 20
253.139285106752908
 30
0.0
 11
3237.7607688729058282
 21
253.1668441618529073
 31
0.0
  0
LINE
  5
3BA01
  8
0
 10
3237.7959273927058348
 20
253.139285106752908
 30
0.0
 11
3237.7959273927058348
 21
253.1668441618529073
 31
0.0
  0
LINE
  5
3BA02
  8
0
 10
3237.8339961874057735
 20
253.139285106752908
 30
0.0
 11
3237.8339961874057735
 21
253.1668441618529073
 31
0.0
  0
LINE
  5
3BA03
  8
0
 10
3237.8702413306059498
 20
253.139285106752908
 30
0.0
 11
3237.8702413306059498
 21
253.1668441618529073
 31
0.0
  0
LINE
  5
3BA04
  8
0
 10
3237.9118486186062
 20
253.139285106752908
 30
0.0
 11
3237.9118486186062
 21
253.1668441618529073
 31
0.0
  0
LINE
  5
3BA05
  8
0
 10
3237.9490304145060691
 20
253.139285106752908
 30
0.0
 11
3237.9490304145060691
 21
253.1668441618529073
 31
0.0
  0
LINE
  5
3BA06
  8
0
 10
3237.9936211232061396
 20
253.139285106752908
 30
0.0
 11
3237.9936211232061396
 21
253.1668441618529073
 31
0.0
  0
LINE
  5
3BA07
  8
0
 10
3238.0315811182058496
 20
253.139285106752908
 30
0.0
 11
3238.0315811182058496
 21
253.1668441618529073
 31
0.0
  0
LINE
  5
3BA08
  8
0
 10
3238.0785731566061258
 20
253.139285106752908
 30
0.0
 11
3238.0785731566061258
 21
253.1668441618529073
 31
0.0
  0
LINE
  5
3BA09
  8
0
 10
3238.1171458501062261
 20
253.139285106752908
 30
0.0
 11
3238.1171458501062261
 21
253.1668441618529073
 31
0.0
  0
LINE
  5
3BA0A
  8
0
 10
3238.1659353803061094
 20
253.139285106752908
 30
0.0
 11
3238.1659353803061094
 21
253.1668441618529073
 31
0.0
  0
LINE
  5
3BA0B
  8
0
 10
3238.2049497228058499
 20
253.139285106752908
 30
0.0
 11
3238.2049497228058499
 21
253.1668441618529073
 31
0.0
  0
LINE
  5
3BA0C
  8
0
 10
3238.2549166285061801
 20
253.139285106752908
 30
0.0
 11
3238.2549166285061801
 21
253.1668441618529073
 31
0.0
  0
LINE
  5
3BA0D
  8
0
 10
3238.2941975709049984
 20
253.139285106752908
 30
0.0
 11
3238.2941975709049984
 21
253.1668441618529073
 31
0.0
  0
LINE
  5
3BA0E
  8
0
 10
3238.3447115681060495
 20
253.139285106752908
 30
0.0
 11
3238.3447115681060495
 21
253.1668441618529073
 31
0.0
  0
LINE
  5
3BA0F
  8
0
 10
3239.3191140625058324
 20
253.139285106752908
 30
0.0
 11
3239.3191140625058324
 21
253.1668441618529073
 31
0.0
  0
LINE
  5
3BA10
  8
0
 10
3239.3021011178061599
 20
253.139285106752908
 30
0.0
 11
3239.3021011178061599
 21
253.1668441618529073
 31
0.0
  0
LINE
  5
3BA11
  8
0
 10
3239.2777751624062148
 20
253.139285106752908
 30
0.0
 11
3239.2777751624062148
 21
253.1668441618529073
 31
0.0
  0
LINE
  5
3BA12
  8
0
 10
3239.2767744479060639
 20
253.139285106752908
 30
0.0
 11
3239.2767744479060639
 21
253.1668441618529073
 31
0.0
  0
LINE
  5
3BA13
  8
0
 10
3239.2506510706061817
 20
253.139285106752908
 30
0.0
 11
3239.2506510706061817
 21
253.1668441618529073
 31
0.0
  0
LINE
  5
3BA14
  8
0
 10
3239.2433634152062041
 20
253.139285106752908
 30
0.0
 11
3239.2433634152062041
 21
253.1668441618529073
 31
0.0
  0
LINE
  5
3BA15
  8
0
 10
3239.2155009226062248
 20
253.139285106752908
 30
0.0
 11
3239.2155009226062248
 21
253.1668441618529073
 31
0.0
  0
LINE
  5
3BA16
  8
0
 10
3239.2021705950060095
 20
253.139285106752908
 30
0.0
 11
3239.2021705950060095
 21
253.1668441618529073
 31
0.0
  0
LINE
  5
3BA17
  8
0
 10
3239.1726430434059694
 20
253.139285106752908
 30
0.0
 11
3239.1726430434059694
 21
253.1668441618529073
 31
0.0
  0
LINE
  5
3BA18
  8
0
 10
3239.1535690358050488
 20
253.139285106752908
 30
0.0
 11
3239.1535690358050488
 21
253.1668441618529073
 31
0.0
  0
LINE
  5
3BA19
  8
0
 10
3239.1224655605060434
 20
253.139285106752908
 30
0.0
 11
3239.1224655605060434
 21
253.1668441618529073
 31
0.0
  0
LINE
  5
3BA1A
  8
0
 10
3239.0979988808057897
 20
253.139285106752908
 30
0.0
 11
3239.0979988808057897
 21
253.1668441618529073
 31
0.0
  0
LINE
  5
3BA1B
  8
0
 10
3239.0654228889061415
 20
253.139285106752908
 30
0.0
 11
3239.0654228889061415
 21
253.1668441618529073
 31
0.0
  0
LINE
  5
3BA1C
  8
0
 10
3239.0359633819061855
 20
253.139285106752908
 30
0.0
 11
3239.0359633819061855
 21
253.1668441618529073
 31
0.0
  0
LINE
  5
3BA1D
  8
0
 10
3239.0020316158061178
 20
253.139285106752908
 30
0.0
 11
3239.0020316158061178
 21
253.1668441618529073
 31
0.0
  0
LINE
  5
3BA1E
  8
0
 10
3238.9680243421062187
 20
253.139285106752908
 30
0.0
 11
3238.9680243421062187
 21
253.1668441618529073
 31
0.0
  0
LINE
  5
3BA1F
  8
0
 10
3238.9328658223062121
 20
253.139285106752908
 30
0.0
 11
3238.9328658223062121
 21
253.1668441618529073
 31
0.0
  0
LINE
  5
3BA20
  8
0
 10
3238.8947970276058186
 20
253.139285106752908
 30
0.0
 11
3238.8947970276058186
 21
253.1668441618529073
 31
0.0
  0
LINE
  5
3BA21
  8
0
 10
3238.8585518844060971
 20
253.139285106752908
 30
0.0
 11
3238.8585518844060971
 21
253.1668441618529073
 31
0.0
  0
LINE
  5
3BA22
  8
0
 10
3238.8169445964058468
 20
253.139285106752908
 30
0.0
 11
3238.8169445964058468
 21
253.1668441618529073
 31
0.0
  0
LINE
  5
3BA23
  8
0
 10
3238.7797628005050683
 20
253.139285106752908
 30
0.0
 11
3238.7797628005050683
 21
253.1668441618529073
 31
0.0
  0
LINE
  5
3BA24
  8
0
 10
3238.7351720918059073
 20
253.139285106752908
 30
0.0
 11
3238.7351720918059073
 21
253.1668441618529073
 31
0.0
  0
LINE
  5
3BA25
  8
0
 10
3238.6972120968061972
 20
253.139285106752908
 30
0.0
 11
3238.6972120968061972
 21
253.1668441618529073
 31
0.0
  0
LINE
  5
3BA26
  8
0
 10
3238.6502200584050115
 20
253.139285106752908
 30
0.0
 11
3238.6502200584050115
 21
253.1668441618529073
 31
0.0
  0
LINE
  5
3BA27
  8
0
 10
3238.6116473649058207
 20
253.139285106752908
 30
0.0
 11
3238.6116473649058207
 21
253.1668441618529073
 31
0.0
  0
LINE
  5
3BA28
  8
0
 10
3238.5628578347050279
 20
253.139285106752908
 30
0.0
 11
3238.5628578347050279
 21
253.1668441618529073
 31
0.0
  0
LINE
  5
3BA29
  8
0
 10
3238.523843492206197
 20
253.139285106752908
 30
0.0
 11
3238.523843492206197
 21
253.1668441618529073
 31
0.0
  0
LINE
  5
3BA2A
  8
0
 10
3238.4738765865049572
 20
253.139285106752908
 30
0.0
 11
3238.4738765865049572
 21
253.1668441618529073
 31
0.0
  0
LINE
  5
3BA2B
  8
0
 10
3238.4345956441061389
 20
253.139285106752908
 30
0.0
 11
3238.4345956441061389
 21
253.1668441618529073
 31
0.0
  0
LINE
  5
3BA2C
  8
0
 10
3238.3840816469059973
 20
253.139285106752908
 30
0.0
 11
3238.3840816469059973
 21
253.1668441618529073
 31
0.0
  0
LINE
  5
3BA2D
  8
0
 10
3259.0336879460060118
 20
253.1668441618529073
 30
0.0
 11
3257.0651840090058613
 21
253.1668441618529073
 31
0.0
  0
LINE
  5
3BA2E
  8
0
 10
3259.0336879460060118
 20
253.1668441618529073
 30
0.0
 11
3259.0336879460060118
 21
253.3636945555527973
 31
0.0
  0
LINE
  5
3BA2F
  8
0
 10
3257.0651840090058613
 20
253.1668441618529073
 30
0.0
 11
3257.0651840090058613
 21
253.3636945555527973
 31
0.0
  0
LINE
  5
3BA30
  8
0
 10
3259.0126985568058444
 20
253.139285106752908
 30
0.0
 11
3257.0861733747060498
 21
253.139285106752908
 31
0.0
  0
LINE
  5
3BA31
  8
0
 10
3257.0861733747060498
 20
253.139285106752908
 30
0.0
 11
3257.0861733747060498
 21
253.1668441618529073
 31
0.0
  0
LINE
  5
3BA32
  8
0
 10
3259.0126985568058444
 20
253.139285106752908
 30
0.0
 11
3259.0126985568058444
 21
253.1668441618529073
 31
0.0
  0
ARC
  5
3BA33
  8
0
 10
3258.7719789184061483
 20
253.1582319571529069
 30
0.0
 40
0.0504429134000004
 50
222.2067817463492929
 51
337.9379955033126066
  0
ARC
  5
3BA34
  8
0
 10
3258.7974674736060479
 20
253.1582319571529069
 30
0.0
 40
0.0504429134000004
 50
255.3657650016193941
 51
337.9379955033126066
  0
ARC
  5
3BA35
  8
0
 10
3258.6972502559060558
 20
253.1582319571529069
 30
0.0
 40
0.0504429134000004
 50
202.0620044966873081
 51
337.9379955033126066
  0
ARC
  5
3BA36
  8
0
 10
3258.6203021192059168
 20
253.1582319571529069
 30
0.0
 40
0.0504429134000004
 50
253.9218346589649116
 51
319.7050155197983941
  0
ARC
  5
3BA37
  8
0
 10
3258.5923619415061694
 20
253.1582319571529069
 30
0.0
 40
0.0504429134000004
 50
262.030264492611991
 51
337.9379955033126066
  0
ARC
  5
3BA38
  8
0
 10
3258.5783741209061191
 20
253.1582319571529069
 30
0.0
 40
0.0504429134000004
 50
202.0620044966873081
 51
337.9379955033126066
  0
ARC
  5
3BA39
  8
0
 10
3258.5112763877059479
 20
253.1582319571529069
 30
0.0
 40
0.0504429134000004
 50
209.4791085284649057
 51
311.6889098768706958
  0
ARC
  5
3BA3A
  8
0
 10
3258.4234517255058563
 20
253.1582319571529069
 30
0.0
 40
0.0504429134000004
 50
202.0620044966873081
 51
337.9379955033126066
  0
ARC
  5
3BA3B
  8
0
 10
3258.3849826766058868
 20
253.1582319571529069
 30
0.0
 40
0.0504429134000004
 50
202.0620044966873081
 51
292.4150192053645014
  0
ARC
  5
3BA3C
  8
0
 10
3258.3562953725058833
 20
253.1582319571529069
 30
0.0
 40
0.0504429134000004
 50
202.0620044966873081
 51
286.5202472423844142
  0
ARC
  5
3BA3D
  8
0
 10
3258.2430407750061931
 20
253.1582319571529069
 30
0.0
 40
0.0504429134000004
 50
202.0620044966873081
 51
337.9379955033126066
  0
ARC
  5
3BA3E
  8
0
 10
3258.2258433168058218
 20
253.1582319571529069
 30
0.0
 40
0.0504429134000004
 50
202.0620044966873081
 51
279.8148307181155019
  0
ARC
  5
3BA3F
  8
0
 10
3258.0494359775061639
 20
253.1582319571529069
 30
0.0
 40
0.0504429134000002
 50
202.0620044966873081
 51
337.9379955033126066
  0
ARC
  5
3BA40
  8
0
 10
3257.3268930366048153
 20
253.1582319571529069
 30
0.0
 40
0.0504429134000004
 50
202.0620044966873081
 51
317.7932182536505934
  0
ARC
  5
3BA41
  8
0
 10
3257.3014044814058252
 20
253.1582319571529069
 30
0.0
 40
0.0504429134000004
 50
202.0620044966873081
 51
284.6342349983805207
  0
ARC
  5
3BA42
  8
0
 10
3257.4016216991058172
 20
253.1582319571529069
 30
0.0
 40
0.0504429134000004
 50
202.0620044966873081
 51
337.9379955033126066
  0
ARC
  5
3BA43
  8
0
 10
3257.4785698358059562
 20
253.1582319571529069
 30
0.0
 40
0.0504429134000004
 50
220.2949844802016059
 51
286.0781653410099921
  0
ARC
  5
3BA44
  8
0
 10
3257.5065100135061584
 20
253.1582319571529069
 30
0.0
 40
0.0504429134000004
 50
202.0620044966873081
 51
277.969735507388009
  0
ARC
  5
3BA45
  8
0
 10
3257.5204978341062088
 20
253.1582319571529069
 30
0.0
 40
0.0504429134000004
 50
202.0620044966873081
 51
337.9379955033126066
  0
ARC
  5
3BA46
  8
0
 10
3257.5875955673059252
 20
253.1582319571529069
 30
0.0
 40
0.0504429134000004
 50
228.3110901231291905
 51
330.5208914715350943
  0
ARC
  5
3BA47
  8
0
 10
3257.6754202295060168
 20
253.1582319571529069
 30
0.0
 40
0.0504429134000004
 50
202.0620044966873081
 51
337.9379955033126066
  0
ARC
  5
3BA48
  8
0
 10
3257.7138892784059863
 20
253.1582319571529069
 30
0.0
 40
0.0504429134000004
 50
247.5849807946354133
 51
337.9379955033126066
  0
ARC
  5
3BA49
  8
0
 10
3257.7425765825059898
 20
253.1582319571529069
 30
0.0
 40
0.0504429134000004
 50
253.4797527576156142
 51
337.9379955033126066
  0
ARC
  5
3BA4A
  8
0
 10
3257.8558311800061347
 20
253.1582319571529069
 30
0.0
 40
0.0504429134000004
 50
202.0620044966873081
 51
337.9379955033126066
  0
ARC
  5
3BA4B
  8
0
 10
3257.8730286382060513
 20
253.1582319571529069
 30
0.0
 40
0.0504429134000004
 50
260.1851692818844981
 51
337.9379955033126066
  0
LINE
  5
3BA4C
  8
0
 10
3257.0947185225049907
 20
253.139285106752908
 30
0.0
 11
3257.0947185225049907
 21
253.1668441618529073
 31
0.0
  0
LINE
  5
3BA4D
  8
0
 10
3257.1117314672060274
 20
253.139285106752908
 30
0.0
 11
3257.1117314672060274
 21
253.1668441618529073
 31
0.0
  0
LINE
  5
3BA4E
  8
0
 10
3257.1360574226059725
 20
253.139285106752908
 30
0.0
 11
3257.1360574226059725
 21
253.1668441618529073
 31
0.0
  0
LINE
  5
3BA4F
  8
0
 10
3257.1370581371061235
 20
253.139285106752908
 30
0.0
 11
3257.1370581371061235
 21
253.1668441618529073
 31
0.0
  0
LINE
  5
3BA50
  8
0
 10
3257.1631815144060056
 20
253.139285106752908
 30
0.0
 11
3257.1631815144060056
 21
253.1668441618529073
 31
0.0
  0
LINE
  5
3BA51
  8
0
 10
3257.1704691698059833
 20
253.139285106752908
 30
0.0
 11
3257.1704691698059833
 21
253.1668441618529073
 31
0.0
  0
LINE
  5
3BA52
  8
0
 10
3257.1983316624059626
 20
253.139285106752908
 30
0.0
 11
3257.1983316624059626
 21
253.1668441618529073
 31
0.0
  0
LINE
  5
3BA53
  8
0
 10
3257.2116619900061778
 20
253.139285106752908
 30
0.0
 11
3257.2116619900061778
 21
253.1668441618529073
 31
0.0
  0
LINE
  5
3BA54
  8
0
 10
3257.241189541606218
 20
253.139285106752908
 30
0.0
 11
3257.241189541606218
 21
253.1668441618529073
 31
0.0
  0
LINE
  5
3BA55
  8
0
 10
3257.2602635492057743
 20
253.139285106752908
 30
0.0
 11
3257.2602635492057743
 21
253.1668441618529073
 31
0.0
  0
LINE
  5
3BA56
  8
0
 10
3257.2913670245061439
 20
253.139285106752908
 30
0.0
 11
3257.2913670245061439
 21
253.1668441618529073
 31
0.0
  0
LINE
  5
3BA57
  8
0
 10
3257.3158337042050334
 20
253.139285106752908
 30
0.0
 11
3257.3158337042050334
 21
253.1668441618529073
 31
0.0
  0
LINE
  5
3BA58
  8
0
 10
3257.3484096961051364
 20
253.139285106752908
 30
0.0
 11
3257.3484096961051364
 21
253.1668441618529073
 31
0.0
  0
LINE
  5
3BA59
  8
0
 10
3257.3778692031060018
 20
253.139285106752908
 30
0.0
 11
3257.3778692031060018
 21
253.1668441618529073
 31
0.0
  0
LINE
  5
3BA5A
  8
0
 10
3257.4118009692060696
 20
253.139285106752908
 30
0.0
 11
3257.4118009692060696
 21
253.1668441618529073
 31
0.0
  0
LINE
  5
3BA5B
  8
0
 10
3257.4458082429059687
 20
253.139285106752908
 30
0.0
 11
3257.4458082429059687
 21
253.1668441618529073
 31
0.0
  0
LINE
  5
3BA5C
  8
0
 10
3257.4809667627059753
 20
253.139285106752908
 30
0.0
 11
3257.4809667627059753
 21
253.1668441618529073
 31
0.0
  0
LINE
  5
3BA5D
  8
0
 10
3257.519035557405914
 20
253.139285106752908
 30
0.0
 11
3257.519035557405914
 21
253.1668441618529073
 31
0.0
  0
LINE
  5
3BA5E
  8
0
 10
3257.5552807006060902
 20
253.139285106752908
 30
0.0
 11
3257.5552807006060902
 21
253.1668441618529073
 31
0.0
  0
LINE
  5
3BA5F
  8
0
 10
3257.5968879886058858
 20
253.139285106752908
 30
0.0
 11
3257.5968879886058858
 21
253.1668441618529073
 31
0.0
  0
LINE
  5
3BA60
  8
0
 10
3257.6340697845062095
 20
253.139285106752908
 30
0.0
 11
3257.6340697845062095
 21
253.1668441618529073
 31
0.0
  0
LINE
  5
3BA61
  8
0
 10
3257.6786604932058253
 20
253.139285106752908
 30
0.0
 11
3257.6786604932058253
 21
253.1668441618529073
 31
0.0
  0
LINE
  5
3BA62
  8
0
 10
3257.7166204882050806
 20
253.139285106752908
 30
0.0
 11
3257.7166204882050806
 21
253.1668441618529073
 31
0.0
  0
LINE
  5
3BA63
  8
0
 10
3257.7636125266058116
 20
253.139285106752908
 30
0.0
 11
3257.7636125266058116
 21
253.1668441618529073
 31
0.0
  0
LINE
  5
3BA64
  8
0
 10
3257.8021852201059119
 20
253.139285106752908
 30
0.0
 11
3257.8021852201059119
 21
253.1668441618529073
 31
0.0
  0
LINE
  5
3BA65
  8
0
 10
3257.8509747503057952
 20
253.139285106752908
 30
0.0
 11
3257.8509747503057952
 21
253.1668441618529073
 31
0.0
  0
LINE
  5
3BA66
  8
0
 10
3257.8899890928059904
 20
253.139285106752908
 30
0.0
 11
3257.8899890928059904
 21
253.1668441618529073
 31
0.0
  0
LINE
  5
3BA67
  8
0
 10
3257.9399559985058659
 20
253.139285106752908
 30
0.0
 11
3257.9399559985058659
 21
253.1668441618529073
 31
0.0
  0
LINE
  5
3BA68
  8
0
 10
3257.9792369409060484
 20
253.139285106752908
 30
0.0
 11
3257.9792369409060484
 21
253.1668441618529073
 31
0.0
  0
LINE
  5
3BA69
  8
0
 10
3258.0297509381048258
 20
253.139285106752908
 30
0.0
 11
3258.0297509381048258
 21
253.1668441618529073
 31
0.0
  0
LINE
  5
3BA6A
  8
0
 10
3259.0041534325050634
 20
253.139285106752908
 30
0.0
 11
3259.0041534325050634
 21
253.1668441618529073
 31
0.0
  0
LINE
  5
3BA6B
  8
0
 10
3258.9871404878058456
 20
253.139285106752908
 30
0.0
 11
3258.9871404878058456
 21
253.1668441618529073
 31
0.0
  0
LINE
  5
3BA6C
  8
0
 10
3258.9628145324059005
 20
253.139285106752908
 30
0.0
 11
3258.9628145324059005
 21
253.1668441618529073
 31
0.0
  0
LINE
  5
3BA6D
  8
0
 10
3258.9618138179062043
 20
253.139285106752908
 30
0.0
 11
3258.9618138179062043
 21
253.1668441618529073
 31
0.0
  0
LINE
  5
3BA6E
  8
0
 10
3258.935690440604958
 20
253.139285106752908
 30
0.0
 11
3258.935690440604958
 21
253.1668441618529073
 31
0.0
  0
LINE
  5
3BA6F
  8
0
 10
3258.9284027852049803
 20
253.139285106752908
 30
0.0
 11
3258.9284027852049803
 21
253.1668441618529073
 31
0.0
  0
LINE
  5
3BA70
  8
0
 10
3258.9005402926059105
 20
253.139285106752908
 30
0.0
 11
3258.9005402926059105
 21
253.1668441618529073
 31
0.0
  0
LINE
  5
3BA71
  8
0
 10
3258.88720996500615
 20
253.139285106752908
 30
0.0
 11
3258.88720996500615
 21
253.1668441618529073
 31
0.0
  0
LINE
  5
3BA72
  8
0
 10
3258.8576824134061098
 20
253.139285106752908
 30
0.0
 11
3258.8576824134061098
 21
253.1668441618529073
 31
0.0
  0
LINE
  5
3BA73
  8
0
 10
3258.8386084058060987
 20
253.139285106752908
 30
0.0
 11
3258.8386084058060987
 21
253.1668441618529073
 31
0.0
  0
LINE
  5
3BA74
  8
0
 10
3258.8075049305061839
 20
253.139285106752908
 30
0.0
 11
3258.8075049305061839
 21
253.1668441618529073
 31
0.0
  0
LINE
  5
3BA75
  8
0
 10
3258.7830382508050207
 20
253.139285106752908
 30
0.0
 11
3258.7830382508050207
 21
253.1668441618529073
 31
0.0
  0
LINE
  5
3BA76
  8
0
 10
3258.7504622589058272
 20
253.139285106752908
 30
0.0
 11
3258.7504622589058272
 21
253.1668441618529073
 31
0.0
  0
LINE
  5
3BA77
  8
0
 10
3258.7210027519058713
 20
253.139285106752908
 30
0.0
 11
3258.7210027519058713
 21
253.1668441618529073
 31
0.0
  0
LINE
  5
3BA78
  8
0
 10
3258.6870709858058035
 20
253.139285106752908
 30
0.0
 11
3258.6870709858058035
 21
253.1668441618529073
 31
0.0
  0
LINE
  5
3BA79
  8
0
 10
3258.6530637121059044
 20
253.139285106752908
 30
0.0
 11
3258.6530637121059044
 21
253.1668441618529073
 31
0.0
  0
LINE
  5
3BA7A
  8
0
 10
3258.6179051923058978
 20
253.139285106752908
 30
0.0
 11
3258.6179051923058978
 21
253.1668441618529073
 31
0.0
  0
LINE
  5
3BA7B
  8
0
 10
3258.5798363976050496
 20
253.139285106752908
 30
0.0
 11
3258.5798363976050496
 21
253.1668441618529073
 31
0.0
  0
LINE
  5
3BA7C
  8
0
 10
3258.5435912544057828
 20
253.139285106752908
 30
0.0
 11
3258.5435912544057828
 21
253.1668441618529073
 31
0.0
  0
LINE
  5
3BA7D
  8
0
 10
3258.5019839664059873
 20
253.139285106752908
 30
0.0
 11
3258.5019839664059873
 21
253.1668441618529073
 31
0.0
  0
LINE
  5
3BA7E
  8
0
 10
3258.4648021705061183
 20
253.139285106752908
 30
0.0
 11
3258.4648021705061183
 21
253.1668441618529073
 31
0.0
  0
LINE
  5
3BA7F
  8
0
 10
3258.4202114618060477
 20
253.139285106752908
 30
0.0
 11
3258.4202114618060477
 21
253.1668441618529073
 31
0.0
  0
LINE
  5
3BA80
  8
0
 10
3258.382251466805883
 20
253.139285106752908
 30
0.0
 11
3258.382251466805883
 21
253.1668441618529073
 31
0.0
  0
LINE
  5
3BA81
  8
0
 10
3258.3352594284060615
 20
253.139285106752908
 30
0.0
 11
3258.3352594284060615
 21
253.1668441618529073
 31
0.0
  0
LINE
  5
3BA82
  8
0
 10
3258.2966867349059612
 20
253.139285106752908
 30
0.0
 11
3258.2966867349059612
 21
253.1668441618529073
 31
0.0
  0
LINE
  5
3BA83
  8
0
 10
3258.2478972047060779
 20
253.139285106752908
 30
0.0
 11
3258.2478972047060779
 21
253.1668441618529073
 31
0.0
  0
LINE
  5
3BA84
  8
0
 10
3258.2088828622058827
 20
253.139285106752908
 30
0.0
 11
3258.2088828622058827
 21
253.1668441618529073
 31
0.0
  0
LINE
  5
3BA85
  8
0
 10
3258.1589159565060072
 20
253.139285106752908
 30
0.0
 11
3258.1589159565060072
 21
253.1668441618529073
 31
0.0
  0
LINE
  5
3BA86
  8
0
 10
3258.1196350141058247
 20
253.139285106752908
 30
0.0
 11
3258.1196350141058247
 21
253.1668441618529073
 31
0.0
  0
LINE
  5
3BA87
  8
0
 10
3258.0691210169061378
 20
253.139285106752908
 30
0.0
 11
3258.0691210169061378
 21
253.1668441618529073
 31
0.0
  0
ARC
  5
3BA89
  8
0
 10
3234.8017055276018255
 20
274.6007289678054804
 30
0.0
 40
0.1409202274105424
 50
82.0937292656368243
 51
90.2962542699845443
  0
LINE
  5
3BA8A
  8
0
 10
3234.7620344027059218
 20
274.7101473114527721
 30
0.0
 11
3234.7620344027059218
 21
262.8833835319528021
 31
0.0
  0
LINE
  5
3BA8B
  8
0
 10
3234.7935344027059728
 20
274.741647311452823
 30
0.0
 11
3234.8009768869687832
 21
274.741647311452823
 31
0.0
  0
ARC
  5
3BA8C
  8
0
 10
3234.7935344027059728
 20
274.7101473114527721
 30
0.0
 40
0.0315
 50
90.0
 51
180.0000000000065086
  0
ARC
  5
3BA8D
  8
0
 10
3234.8017055276018255
 20
262.9928018756000938
 30
0.0
 40
0.1409202274105424
 50
269.7037457300153847
 51
277.9062707343632042
  0
LINE
  5
3BA8E
  8
0
 10
3234.7935344027059728
 20
262.851883531952808
 30
0.0
 11
3234.8009768869687832
 21
262.851883531952808
 31
0.0
  0
ARC
  5
3BA8F
  8
0
 10
3234.7935344027059728
 20
262.8833835319528021
 30
0.0
 40
0.0315
 50
179.9999999999934914
 51
270.0
  0
ENDSEC
  0
EOF
