  0
SECTION
  2
HEADER
  9
$ACADVER
  1
AC1009
  9
$INSBASE
 10
4786.7150023965386936
 20
248.3279153869962101
 30
0.0
  9
$EXTMIN
 10
4784.1743724753396236
 20
246.31042046929619
 30
0.0
  9
$EXTMAX
 10
4786.7352227861429128
 20
250.3454103046962018
 30
0.0
  9
$LIMMIN
 10
0.0
 20
0.0
  9
$LIMMAX
 10
11.6929133858000007
 20
8.2677165353999982
  9
$ORTHOMODE
 70
     1
  9
$REGENMODE
 70
     1
  9
$FILLMODE
 70
     1
  9
$QTEXTMODE
 70
     0
  9
$MIRRTEXT
 70
     0
  9
$DRAGMODE
 70
     2
  9
$LTSCALE
 40
0.6431102362
  9
$OSMODE
 70
  4095
  9
$ATTMODE
 70
     1
  9
$TEXTSIZE
 40
0.2
  9
$TRACEWID
 40
0.05
  9
$TEXTSTYLE
  7
STANDARD
  9
$CLAYER
  8
0
  9
$CELTYPE
  6
BYLAYER
  9
$CECOLOR
 62
   256
  9
$DIMSCALE
 40
1.0
  9
$DIMASZ
 40
0.1875
  9
$DIMEXO
 40
0.0625
  9
$DIMDLI
 40
0.4443307087
  9
$DIMRND
 40
0.0
  9
$DIMDLE
 40
0.0
  9
$DIMEXE
 40
0.125
  9
$DIMTP
 40
0.01
  9
$DIMTM
 40
0.01
  9
$DIMTXT
 40
2.0
  9
$DIMCEN
 40
0.1052362205
  9
$DIMTSZ
 40
0.0
  9
$DIMTOL
 70
     1
  9
$DIMLIM
 70
     0
  9
$DIMTIH
 70
     1
  9
$DIMTOH
 70
     1
  9
$DIMSE1
 70
     0
  9
$DIMSE2
 70
     0
  9
$DIMTAD
 70
     0
  9
$DIMZIN
 70
     0
  9
$DIMBLK
  1

  9
$DIMASO
 70
     1
  9
$DIMSHO
 70
     1
  9
$DIMPOST
  1
\X
  9
$DIMAPOST
  1

  9
$DIMALT
 70
     1
  9
$DIMALTD
 70
     2
  9
$DIMALTF
 40
25.3999999999999986
  9
$DIMLFAC
 40
1.0
  9
$DIMTOFL
 70
     0
  9
$DIMTVP
 40
0.0
  9
$DIMTIX
 70
     0
  9
$DIMSOXD
 70
     0
  9
$DIMSAH
 70
     0
  9
$DIMBLK1
  1

  9
$DIMBLK2
  1

  9
$DIMSTYLE
  2
STANDARD
  9
$DIMCLRD
 70
     0
  9
$DIMCLRE
 70
     0
  9
$DIMCLRT
 70
     0
  9
$DIMTFAC
 40
1.0
  9
$DIMGAP
 40
0.09
  9
$LUNITS
 70
     2
  9
$LUPREC
 70
     4
  9
$SKETCHINC
 40
0.1
  9
$FILLETRAD
 40
0.0
  9
$AUNITS
 70
     0
  9
$AUPREC
 70
     0
  9
$MENU
  1
.
  9
$ELEVATION
 40
0.0
  9
$PELEVATION
 40
0.0
  9
$THICKNESS
 40
0.0
  9
$LIMCHECK
 70
     0
  9
$BLIPMODE
 70
     0
  9
$CHAMFERA
 40
0.0
  9
$CHAMFERB
 40
0.0
  9
$SKPOLY
 70
     0
  9
$TDCREATE
 40
2458060.468368056230247
  9
$TDUPDATE
 40
2459271.7420023148879409
  9
$TDINDWG
 40
0.3564422454
  9
$TDUSRTIMER
 40
0.3564422454
  9
$USRTIMER
 70
     1
  9
$ANGBASE
 50
0.0
  9
$ANGDIR
 70
     0
  9
$PDMODE
 70
     0
  9
$PDSIZE
 40
0.3125
  9
$PLINEWID
 40
0.0
  9
$COORDS
 70
     1
  9
$SPLFRAME
 70
     0
  9
$SPLINETYPE
 70
     6
  9
$SPLINESEGS
 70
     8
  9
$ATTDIA
 70
     1
  9
$ATTREQ
 70
     1
  9
$HANDLING
 70
     1
  9
$HANDSEED
  5
CCC3
  9
$SURFTAB1
 70
     6
  9
$SURFTAB2
 70
     6
  9
$SURFTYPE
 70
     6
  9
$SURFU
 70
     6
  9
$SURFV
 70
     6
  9
$UCSNAME
  2

  9
$UCSORG
 10
0.0
 20
0.0
 30
0.0
  9
$UCSXDIR
 10
1.0
 20
0.0
 30
0.0
  9
$UCSYDIR
 10
0.0
 20
1.0
 30
0.0
  9
$PUCSNAME
  2

  9
$PUCSORG
 10
0.0
 20
0.0
 30
0.0
  9
$PUCSXDIR
 10
1.0
 20
0.0
 30
0.0
  9
$PUCSYDIR
 10
0.0
 20
1.0
 30
0.0
  9
$USERI1
 70
     0
  9
$USERI2
 70
     0
  9
$USERI3
 70
     0
  9
$USERI4
 70
     0
  9
$USERI5
 70
     0
  9
$USERR1
 40
0.0
  9
$USERR2
 40
0.0
  9
$USERR3
 40
0.0
  9
$USERR4
 40
0.0
  9
$USERR5
 40
0.0
  9
$WORLDVIEW
 70
     1
  9
$SHADEDGE
 70
     3
  9
$SHADEDIF
 70
    70
  9
$TILEMODE
 70
     1
  9
$MAXACTVP
 70
    64
  9
$PLIMCHECK
 70
     0
  9
$PEXTMIN
 10
1.0000000000000000E+20
 20
1.0000000000000000E+20
 30
1.0000000000000000E+20
  9
$PEXTMAX
 10
-1.0000000000000000E+20
 20
-1.0000000000000000E+20
 30
-1.0000000000000000E+20
  9
$PLIMMIN
 10
0.0
 20
0.0
  9
$PLIMMAX
 10
12.0
 20
9.0
  9
$UNITMODE
 70
     0
  9
$VISRETAIN
 70
     1
  9
$PLINEGEN
 70
     0
  9
$PSLTSCALE
 70
     1
  0
ENDSEC
  0
SECTION
  2
TABLES
  0
TABLE
  2
VPORT
 70
     1
  0
VPORT
  2
*ACTIVE
 70
     0
 10
0.0
 20
0.0
 11
1.0
 21
1.0
 12
0.0
 22
0.0
 13
0.0
 23
0.0
 14
1.0
 24
1.0
 15
0.0
 25
0.0
 16
0.0
 26
0.0
 36
13.6374429952027398
 17
4785.454769596353799
 27
248.3279190063475994
 37
0.0
 40
4.7797548821769
 41
2.1375838926174491
 42
50.0
 43
0.0
 44
0.0
 50
0.0
 51
0.0
 71
     0
 72
   100
 73
     1
 74
     1
 75
     0
 76
     0
 77
     0
 78
     0
  0
ENDTAB
  0
TABLE
  2
LTYPE
 70
     2
  0
LTYPE
  2
CONTINUOUS
 70
     0
  3
Solid line
 72
    65
 73
     0
 40
0.0
  0
LTYPE
  2
PHANTOM2
 70
     0
  3
___ _ _ ___ _ _ ___ _ _ ___ _ _
 72
    65
 73
     6
 40
1.25
 49
0.625
 49
-0.125
 49
0.125
 49
-0.125
 49
0.125
 49
-0.125
  0
ENDTAB
  0
TABLE
  2
LAYER
 70
     2
  0
LAYER
  2
0
 70
     0
 62
   255
  6
CONTINUOUS
  0
LAYER
  2
DEFPOINTS
 70
     0
 62
     7
  6
CONTINUOUS
  0
ENDTAB
  0
TABLE
  2
STYLE
 70
     1
  0
STYLE
  2
STANDARD
 70
     0
 40
0.0
 41
0.8
 50
0.0
 71
     0
 42
0.2
  3
txt
  4

  0
ENDTAB
  0
TABLE
  2
VIEW
 70
     0
  0
ENDTAB
  0
TABLE
  2
UCS
 70
     0
  0
ENDTAB
  0
TABLE
  2
APPID
 70
     9
  0
APPID
  2
ACAD
 70
     0
  0
APPID
  2
ACAD_MLEADERVER
 70
     0
  0
APPID
  2
ACAD_EXEMPT_FROM_CAD_STANDARDS
 70
     0
  0
APPID
  2
ACAD_NAV_VCDISPLAY
 70
     0
  0
APPID
  2
ACAECLAYERSTANDARD
 70
     0
  0
APPID
  2
ACCMTRANSPARENCY
 70
     0
  0
APPID
  2
ACAD_DSTYLE_DIMJAG
 70
     0
  0
APPID
  2
ACAD_DSTYLE_DIMTALN
 70
     0
  0
APPID
  2
ACDBATTR
 70
     0
  0
ENDTAB
  0
TABLE
  2
DIMSTYLE
 70
     1
  0
DIMSTYLE
  2
STANDARD
 70
     0
  3

  4

  5

  6

  7

 40
1.0
 41
0.1875
 42
0.0625
 43
0.38
 44
0.125
 45
0.0
 46
0.0
 47
0.01
 48
0.01
140
0.15625
141
0.09
142
0.0
143
25.3999999999999986
144
1.0
145
0.0
146
1.0
147
0.09
 71
     1
 72
     0
 73
     1
 74
     1
 75
     0
 76
     0
 77
     0
 78
     4
170
     0
171
     2
172
     0
173
     0
174
     0
175
     0
176
     0
177
     0
178
     0
  0
ENDTAB
  0
ENDSEC
  0
SECTION
  2
BLOCKS
  0
BLOCK
  8
0
  2
$MODEL_SPACE
 70
     0
 10
0.0
 20
0.0
 30
0.0
  3
$MODEL_SPACE
  1

  0
ENDBLK
  5
21
  8
0
  0
BLOCK
 67
     1
  8
0
  2
$PAPER_SPACE
 70
     0
 10
0.0
 20
0.0
 30
0.0
  3
$PAPER_SPACE
  1

  0
ENDBLK
  5
1D
 67
     1
  8
0
  0
ENDSEC
  0
SECTION
  2
ENTITIES
  0
ATTDEF
  5
3930
  8
DEFPOINTS
 10
4786.7245561194740731
 20
248.3291036918791974
 30
0.0
 40
0.001
  1
K-26348T-9
  3

  2
MODELNUMBER
 70
     0
1001
ACDBATTR
1070
     0
1070
     1
  0
ATTDEF
  5
3931
  8
DEFPOINTS
 10
4786.7245561194740731
 20
248.3274370252125891
 30
0.0
 40
0.001
  1

  3

  2
TRADENAME
 70
     0
1001
ACDBATTR
1070
     0
1070
     1
  0
ATTDEF
  5
3932
  8
DEFPOINTS
 10
4786.7245561194740731
 20
248.3257703585458955
 30
0.0
 40
0.001
  1
VALVE TRIM
  3

  2
PRODUCT
 70
     0
1001
ACDBATTR
1070
     0
1070
     1
  0
LINE
  5
CB89
  8
0
 10
4784.5602247070391968
 20
247.1862167024962105
 30
0.0
 11
4785.3573554789390982
 21
247.1862142693962028
 31
0.0
  0
ARC
  5
CB8A
  8
0
 10
4785.3434161247660086
 20
245.7667859249827984
 30
0.0
 40
1.4194967877741429
 50
79.0480007715154755
 51
89.4373506123630762
  0
ARC
  5
CB8B
  8
0
 10
4784.305243996347599
 20
247.2083718090204059
 30
0.0
 40
0.0616814966576021
 50
273.6147337400668107
 51
286.2669174210905112
  0
ARC
  5
CB8C
  8
0
 10
4785.6209712979907636
 20
247.1992409276394085
 30
0.0
 40
0.0396017936054484
 50
258.5375741817117046
 51
276.0844662729180072
  0
LINE
  5
CB8D
  8
0
 10
4786.1715578894400096
 20
250.3359244453961878
 30
0.0
 11
4786.7150023965386936
 21
250.3454103046962018
 31
0.0
  0
LINE
  5
CB8E
  8
0
 10
4784.2137425540386175
 20
249.5090177491962038
 30
0.0
 11
4784.2531126328385653
 21
249.5090177491962038
 31
0.0
  0
LINE
  5
CB8F
  8
0
 10
4784.2609866485399834
 20
249.5090177491962038
 30
0.0
 11
4785.3834667257387991
 21
249.5090177491962038
 31
0.0
  0
LINE
  5
CB90
  8
0
 10
4784.1743724753396236
 20
249.4696380193962
 30
0.0
 11
4784.1743724753396236
 21
247.1861927544962043
 31
0.0
  0
LINE
  5
CB91
  8
0
 10
4784.2531126328385653
 20
247.1468130247961881
 30
0.0
 11
4784.2531126328385653
 21
249.5090177491962038
 31
0.0
  0
LINE
  5
CB92
  8
0
 10
4786.1638212942398241
 20
250.3280516288961906
 30
0.0
 11
4786.1638212942398241
 21
248.3279153869461879
 31
0.0
  0
LINE
  5
CB93
  8
0
 10
4786.7150023965386936
 20
246.31042046929619
 30
0.0
 11
4786.7150023965386936
 21
250.3454103046962018
 31
0.0
  0
ARC
  5
CB94
  8
0
 10
4786.2139000343386215
 20
249.5083899725962056
 30
0.0
 40
0.1968503937
 50
235.4378080138048972
 51
255.2619647661967122
  0
ARC
  5
CB95
  8
0
 10
4784.2177345122918268
 20
249.4656566892907961
 30
0.0
 40
0.0435444283248527
 50
95.2600060574937544
 51
174.7540374450138074
  0
ARC
  5
CB96
  8
0
 10
4784.2609859089488964
 20
249.5011444729861125
 30
0.0
 40
0.007873276144849
 50
89.9946178212960461
 51
180.0053821787055881
  0
ARC
  5
CB97
  8
0
 10
4786.1718070851038647
 20
250.3279417877475055
 30
0.0
 40
0.0079865462382791
 50
91.7880293270567478
 51
179.211970666733805
  0
ARC
  5
CB98
  8
0
 10
4785.3728130206709466
 20
247.7933151419670139
 30
0.0
 40
1.715735684155498
 50
64.840997628746095
 51
89.6442247690684866
  0
LINE
  5
CB99
  8
0
 10
4786.1638216731398643
 20
249.0548874849461924
 30
0.0
 11
4786.1126398032392899
 21
249.0541728048461891
 31
0.0
  0
LINE
  5
CB9A
  8
0
 10
4786.1047665550386228
 20
249.0461888796461949
 30
0.0
 11
4786.1126398032392899
 21
249.0541728048461891
 31
0.0
  0
LINE
  5
CB9B
  8
0
 10
4786.1047665550386228
 20
249.0461888796461949
 30
0.0
 11
4786.1047665550386228
 21
247.6096418942462094
 31
0.0
  0
LINE
  5
CB9C
  8
0
 10
4786.1126398032392899
 20
249.0541728048461891
 30
0.0
 11
4786.1126398032392899
 21
247.6016579690461867
 31
0.0
  0
LINE
  5
CB9D
  8
0
 10
4786.1715578894400096
 20
246.3199063284961881
 30
0.0
 11
4786.7150023965386936
 21
246.31042046929619
 31
0.0
  0
LINE
  5
CB9E
  8
0
 10
4784.2137425540386175
 20
247.1468130247961881
 30
0.0
 11
4784.2531126328385653
 21
247.1468130247961881
 31
0.0
  0
LINE
  5
CB9F
  8
0
 10
4784.2609866485399834
 20
247.1468130246962005
 30
0.0
 11
4784.3091328396776589
 21
247.1468130246962005
 31
0.0
  0
LINE
  5
CBA0
  8
0
 10
4786.1638212942398241
 20
246.3277791449962137
 30
0.0
 11
4786.1638212942398241
 21
248.3279153869461879
 31
0.0
  0
ARC
  5
CBA1
  8
0
 10
4786.2139000343386215
 20
247.1474408012961987
 30
0.0
 40
0.1968503937
 50
104.738035233803302
 51
124.5621919861951028
  0
ARC
  5
CBA2
  8
0
 10
4784.2177345122918268
 20
247.1901740846014945
 30
0.0
 40
0.043544428324868
 50
185.2459625549959128
 51
264.7399939425060893
  0
ARC
  5
CBA3
  8
0
 10
4784.2609859089488964
 20
247.1546863009062918
 30
0.0
 40
0.007873276144849
 50
179.9946178212944119
 51
270.0053821787039965
  0
ARC
  5
CBA4
  8
0
 10
4786.1718070851038647
 20
246.3278889861448135
 30
0.0
 40
0.0079865462382791
 50
180.7880293332661097
 51
268.2119706729433233
  0
LINE
  5
CBA5
  8
0
 10
4786.1638216731398643
 20
247.6009432889462119
 30
0.0
 11
4786.1126398032392899
 21
247.6016579690461867
 31
0.0
  0
LINE
  5
CBA6
  8
0
 10
4786.1047665550386228
 20
247.6096418942462094
 30
0.0
 11
4786.1126398032392899
 21
247.6016579690461867
 31
0.0
  0
ARC
  5
CBA7
  8
0
 10
4784.5748743168933288
 20
246.3113449041514968
 30
0.0
 40
0.8749944426152954
 50
90.9593204184903215
 51
106.7624755400297971
  0
ARC
  5
CBA8
  8
0
 10
4785.5582201768784216
 20
248.2082737207954892
 30
0.0
 40
1.05054690424908
 50
273.6537908549248073
 51
301.1869214885772976
  0
LINE
  5
CBA9
  8
0
 10
4784.7964114190508553
 20
247.0850271175962121
 30
0.0
 11
4784.7964114190508553
 21
247.1862159815783002
 31
0.0
  0
LINE
  5
CBAA
  8
0
 10
4785.0952293753271078
 20
247.0656617570961942
 30
0.0
 11
4784.8125632461524219
 21
247.0656617570961942
 31
0.0
  0
ARC
  5
CBAB
  8
0
 10
4784.9882146032359742
 20
248.2196378176591054
 30
0.0
 40
1.1672678131082701
 50
261.3452112089462958
 51
268.3152309382373915
  0
ARC
  5
CBAC
  8
0
 10
4784.8170788454681315
 20
247.0858464850919916
 30
0.0
 40
0.0206836621975449
 50
182.2703226497199012
 51
257.3897864563717235
  0
LINE
  5
CBAD
  8
0
 10
4785.1113812026533196
 20
247.0850271175962121
 30
0.0
 11
4785.1113812026533196
 21
247.1862150201889108
 31
0.0
  0
ARC
  5
CBAE
  8
0
 10
4784.9195780184691102
 20
248.2196378176591054
 30
0.0
 40
1.1672678131082701
 50
271.6847690617626085
 51
278.6547887910537042
  0
ARC
  5
CBAF
  8
0
 10
4785.0907137762360435
 20
247.0858464850919916
 30
0.0
 40
0.0206836621975449
 50
282.6102135436282197
 51
357.7296773502799851
  0
ENDSEC
  0
EOF
