  0
SECTION
  2
HEADER
  9
$ACADVER
  1
AC1009
  9
$INSBASE
 10
2953.5897797269021794
 20
294.5378837377144805
 30
0.0
  9
$EXTMIN
 10
2946.6040810733102262
 20
272.5300998246240169
 30
-0.0015258207003583
  9
$EXTMAX
 10
2965.6091716218948022
 20
294.5525521645412255
 30
0.0000000349246037
  9
$LIMMIN
 10
0.0
 20
0.0
  9
$LIMMAX
 10
11.6929133858000007
 20
8.2677165353999982
  9
$ORTHOMODE
 70
     0
  9
$REGENMODE
 70
     1
  9
$FILLMODE
 70
     1
  9
$QTEXTMODE
 70
     0
  9
$MIRRTEXT
 70
     0
  9
$DRAGMODE
 70
     2
  9
$LTSCALE
 40
0.6431102362
  9
$OSMODE
 70
  4095
  9
$ATTMODE
 70
     1
  9
$TEXTSIZE
 40
0.2
  9
$TRACEWID
 40
0.05
  9
$TEXTSTYLE
  7
STANDARD
  9
$CLAYER
  8
0
  9
$CELTYPE
  6
BYLAYER
  9
$CECOLOR
 62
   256
  9
$DIMSCALE
 40
1.0
  9
$DIMASZ
 40
0.1875
  9
$DIMEXO
 40
0.0625
  9
$DIMDLI
 40
0.4443307087
  9
$DIMRND
 40
0.0
  9
$DIMDLE
 40
0.0
  9
$DIMEXE
 40
0.125
  9
$DIMTP
 40
0.01
  9
$DIMTM
 40
0.01
  9
$DIMTXT
 40
2.0
  9
$DIMCEN
 40
0.1052362205
  9
$DIMTSZ
 40
0.0
  9
$DIMTOL
 70
     1
  9
$DIMLIM
 70
     0
  9
$DIMTIH
 70
     1
  9
$DIMTOH
 70
     1
  9
$DIMSE1
 70
     0
  9
$DIMSE2
 70
     0
  9
$DIMTAD
 70
     0
  9
$DIMZIN
 70
     0
  9
$DIMBLK
  1

  9
$DIMASO
 70
     1
  9
$DIMSHO
 70
     1
  9
$DIMPOST
  1
\X
  9
$DIMAPOST
  1

  9
$DIMALT
 70
     1
  9
$DIMALTD
 70
     2
  9
$DIMALTF
 40
25.3999999999999986
  9
$DIMLFAC
 40
1.0
  9
$DIMTOFL
 70
     0
  9
$DIMTVP
 40
0.0
  9
$DIMTIX
 70
     0
  9
$DIMSOXD
 70
     0
  9
$DIMSAH
 70
     0
  9
$DIMBLK1
  1

  9
$DIMBLK2
  1

  9
$DIMSTYLE
  2
STANDARD
  9
$DIMCLRD
 70
     0
  9
$DIMCLRE
 70
     0
  9
$DIMCLRT
 70
     0
  9
$DIMTFAC
 40
1.0
  9
$DIMGAP
 40
0.09
  9
$LUNITS
 70
     2
  9
$LUPREC
 70
     4
  9
$SKETCHINC
 40
0.1
  9
$FILLETRAD
 40
0.0
  9
$AUNITS
 70
     0
  9
$AUPREC
 70
     0
  9
$MENU
  1
.
  9
$ELEVATION
 40
0.0
  9
$PELEVATION
 40
0.0
  9
$THICKNESS
 40
0.0
  9
$LIMCHECK
 70
     0
  9
$BLIPMODE
 70
     0
  9
$CHAMFERA
 40
0.0
  9
$CHAMFERB
 40
0.0
  9
$SKPOLY
 70
     0
  9
$TDCREATE
 40
2458060.468368056230247
  9
$TDUPDATE
 40
2459426.601712963078171
  9
$TDINDWG
 40
0.6989306713
  9
$TDUSRTIMER
 40
0.6989306713
  9
$USRTIMER
 70
     1
  9
$ANGBASE
 50
0.0
  9
$ANGDIR
 70
     0
  9
$PDMODE
 70
     0
  9
$PDSIZE
 40
0.3125
  9
$PLINEWID
 40
0.0
  9
$COORDS
 70
     1
  9
$SPLFRAME
 70
     0
  9
$SPLINETYPE
 70
     6
  9
$SPLINESEGS
 70
     8
  9
$ATTDIA
 70
     1
  9
$ATTREQ
 70
     1
  9
$HANDLING
 70
     1
  9
$HANDSEED
  5
3C157
  9
$SURFTAB1
 70
     6
  9
$SURFTAB2
 70
     6
  9
$SURFTYPE
 70
     6
  9
$SURFU
 70
     6
  9
$SURFV
 70
     6
  9
$UCSNAME
  2

  9
$UCSORG
 10
0.0
 20
0.0
 30
0.0
  9
$UCSXDIR
 10
1.0
 20
0.0
 30
0.0
  9
$UCSYDIR
 10
0.0
 20
1.0
 30
0.0
  9
$PUCSNAME
  2

  9
$PUCSORG
 10
0.0
 20
0.0
 30
0.0
  9
$PUCSXDIR
 10
1.0
 20
0.0
 30
0.0
  9
$PUCSYDIR
 10
0.0
 20
1.0
 30
0.0
  9
$USERI1
 70
     0
  9
$USERI2
 70
     0
  9
$USERI3
 70
     0
  9
$USERI4
 70
     0
  9
$USERI5
 70
     0
  9
$USERR1
 40
0.0
  9
$USERR2
 40
0.0
  9
$USERR3
 40
0.0
  9
$USERR4
 40
0.0
  9
$USERR5
 40
0.0
  9
$WORLDVIEW
 70
     1
  9
$SHADEDGE
 70
     3
  9
$SHADEDIF
 70
    70
  9
$TILEMODE
 70
     1
  9
$MAXACTVP
 70
    64
  9
$PLIMCHECK
 70
     0
  9
$PEXTMIN
 10
1.0000000000000000E+20
 20
1.0000000000000000E+20
 30
1.0000000000000000E+20
  9
$PEXTMAX
 10
-1.0000000000000000E+20
 20
-1.0000000000000000E+20
 30
-1.0000000000000000E+20
  9
$PLIMMIN
 10
0.0
 20
0.0
  9
$PLIMMAX
 10
12.0
 20
9.0
  9
$UNITMODE
 70
     0
  9
$VISRETAIN
 70
     1
  9
$PLINEGEN
 70
     0
  9
$PSLTSCALE
 70
     1
  0
ENDSEC
  0
SECTION
  2
TABLES
  0
TABLE
  2
VPORT
 70
     1
  0
VPORT
  2
*ACTIVE
 70
     0
 10
0.0
 20
0.0
 11
1.0
 21
1.0
 12
-347.5864888867727132
 22
88.2798144186948548
 13
0.0
 23
0.0
 14
1.0
 24
1.0
 15
0.0
 25
0.0
 16
0.0
 26
0.0
 36
96.5995694866707311
 17
3303.693115234375
 27
195.2615115758877096
 37
0.0
 40
22.2088200607063584
 41
2.6793785310734459
 42
50.0
 43
0.0
 44
0.0
 50
0.0
 51
0.0
 71
     0
 72
   100
 73
     1
 74
     1
 75
     0
 76
     0
 77
     0
 78
     0
  0
ENDTAB
  0
TABLE
  2
LTYPE
 70
     2
  0
LTYPE
  2
CONTINUOUS
 70
     0
  3
Solid line
 72
    65
 73
     0
 40
0.0
  0
LTYPE
  2
PHANTOM2
 70
     0
  3
___ _ _ ___ _ _ ___ _ _ ___ _ _
 72
    65
 73
     6
 40
1.25
 49
0.625
 49
-0.125
 49
0.125
 49
-0.125
 49
0.125
 49
-0.125
  0
ENDTAB
  0
TABLE
  2
LAYER
 70
     2
  0
LAYER
  2
0
 70
     0
 62
   255
  6
CONTINUOUS
  0
LAYER
  2
DEFPOINTS
 70
     0
 62
     7
  6
CONTINUOUS
  0
ENDTAB
  0
TABLE
  2
STYLE
 70
     1
  0
STYLE
  2
STANDARD
 70
     0
 40
0.0
 41
0.8
 50
0.0
 71
     0
 42
0.2
  3
txt
  4

  0
ENDTAB
  0
TABLE
  2
VIEW
 70
     0
  0
ENDTAB
  0
TABLE
  2
UCS
 70
     0
  0
ENDTAB
  0
TABLE
  2
APPID
 70
     9
  0
APPID
  2
ACAD
 70
     0
  0
APPID
  2
ACAD_MLEADERVER
 70
     0
  0
APPID
  2
ACAD_EXEMPT_FROM_CAD_STANDARDS
 70
     0
  0
APPID
  2
ACAD_NAV_VCDISPLAY
 70
     0
  0
APPID
  2
ACAECLAYERSTANDARD
 70
     0
  0
APPID
  2
ACCMTRANSPARENCY
 70
     0
  0
APPID
  2
ACAD_DSTYLE_DIMJAG
 70
     0
  0
APPID
  2
ACAD_DSTYLE_DIMTALN
 70
     0
  0
APPID
  2
ACDBATTR
 70
     0
  0
ENDTAB
  0
TABLE
  2
DIMSTYLE
 70
     1
  0
DIMSTYLE
  2
STANDARD
 70
     0
  3

  4

  5

  6

  7

 40
1.0
 41
0.1875
 42
0.0625
 43
0.38
 44
0.125
 45
0.0
 46
0.0
 47
0.01
 48
0.01
140
0.15625
141
0.09
142
0.0
143
25.3999999999999986
144
1.0
145
0.0
146
1.0
147
0.09
 71
     1
 72
     0
 73
     1
 74
     1
 75
     0
 76
     0
 77
     0
 78
     4
170
     0
171
     2
172
     0
173
     0
174
     0
175
     0
176
     0
177
     0
178
     0
  0
ENDTAB
  0
ENDSEC
  0
SECTION
  2
BLOCKS
  0
BLOCK
  8
0
  2
$MODEL_SPACE
 70
     0
 10
0.0
 20
0.0
 30
0.0
  3
$MODEL_SPACE
  1

  0
ENDBLK
  5
21
  8
0
  0
BLOCK
 67
     1
  8
0
  2
$PAPER_SPACE
 70
     0
 10
0.0
 20
0.0
 30
0.0
  3
$PAPER_SPACE
  1

  0
ENDBLK
  5
1D
 67
     1
  8
0
  0
BLOCK
  8
0
  2
_FILLED
 70
     0
 10
0.0
 20
0.0
 30
0.0
  3
_FILLED
  1

  0
SOLID
  5
3A30F
  8
0
  6
BYBLOCK
 62
     0
 10
0.0
 20
0.0
 30
0.0
 11
-1.0
 21
0.1666666667
 31
0.0
 12
-1.0
 22
-0.1666666667
 32
0.0
 13
-1.0
 23
-0.1666666667
 33
0.0
  0
ENDBLK
  5
3A310
  8
0
  6
BYBLOCK
 62
     0
  0
ENDSEC
  0
SECTION
  2
ENTITIES
  0
ATTDEF
  5
3B5AC
  8
DEFPOINTS
 10
2953.5903646245919845
 20
294.5425627225565108
 30
0.0
 40
0.001
  1
K-26332T-9
  3

  2
MODELNUMBER
 70
     0
1001
ACDBATTR
1070
     0
1070
     1
  0
ATTDEF
  5
3B5AD
  8
DEFPOINTS
 10
2953.5903646245919845
 20
294.5408960558897888
 30
0.0
 40
0.001
  1

  3

  2
TRADENAME
 70
     0
1001
ACDBATTR
1070
     0
1070
     1
  0
ATTDEF
  5
3B5AE
  8
DEFPOINTS
 10
2953.5903646245919845
 20
294.5392293892231237
 30
0.0
 40
0.001
  1
BATH AND SHOWER FAUCET
  3

  2
PRODUCT
 70
     0
1001
ACDBATTR
1070
     0
1070
     1
  0
LINE
  5
3BEA3
  8
0
 10
2956.5977468616501938
 20
293.0667133415283274
 30
0.0
 11
2956.5955011718488095
 21
292.9443566726283166
 31
0.0
  0
LINE
  5
3BEA4
  8
0
 10
2956.7704153041499922
 20
293.0472492738282995
 30
0.0
 11
2956.769705593848812
 21
292.9598042638284028
 31
0.0
  0
LINE
  5
3BEA5
  8
0
 10
2956.6909508256489971
 20
293.1475815585283158
 30
0.0
 11
2956.6897979423488323
 21
293.0219405172283018
 31
0.0
  0
LINE
  5
3BEA6
  8
0
 10
2957.1187243260487776
 20
293.0555757439282729
 30
0.0
 11
2957.1195068259057734
 21
292.9660910181195845
 31
0.0
  0
LINE
  5
3BEA7
  8
0
 10
2956.8152647290498862
 20
292.9607826355282896
 30
0.0
 11
2957.1277853518499796
 21
292.966235460928317
 31
0.0
  0
LINE
  5
3BEA8
  8
0
 10
2956.7951258420489467
 20
293.045309052728328
 30
0.0
 11
2957.1095823224500236
 21
293.0505962732282796
 31
0.0
  0
ARC
  5
3BEA9
  8
0
 10
2957.3859773070321353
 20
290.7833923347615723
 30
0.0
 40
2.533476420689547
 50
90.0009172358805785
 51
90.2115718988430189
  0
ARC
  5
3BEAA
  8
0
 10
2957.5759542373648401
 20
302.9811090326443264
 30
0.0
 40
12.6976378885206405
 50
265.9589192022646102
 51
269.1425486692527898
  0
ARC
  5
3BEAB
  8
0
 10
2957.1526348334459726
 20
296.1008609956567739
 30
0.0
 40
5.805001128563358
 50
255.9207146292910124
 51
265.3410815060229879
  0
ARC
  5
3BEAC
  8
0
 10
2956.2894035124290895
 20
292.8096179409167803
 30
0.0
 40
2.4029131502870662
 50
240.5765427078725907
 51
256.7948274736742178
  0
ARC
  5
3BEAD
  8
0
 10
2955.4378678382340695
 20
291.3155839896185739
 30
0.0
 40
0.6833085898620213
 50
214.1474121587806962
 51
241.2254530957040117
  0
ARC
  5
3BEAE
  8
0
 10
2955.1438909850148775
 20
291.1006261237322974
 30
0.0
 40
0.3196131830751811
 50
186.3252023130418138
 51
211.8374768701187065
  0
ARC
  5
3BEAF
  8
0
 10
2897.4856361679571819
 20
292.5878549258243879
 30
0.0
 40
57.3607947381403704
 50
358.4791059313059236
 51
359.1965762352219258
  0
ARC
  5
3BEB0
  8
0
 10
2955.6947058599298543
 20
291.7366336750068854
 30
0.0
 40
0.8552018692195856
 50
126.262263383843802
 51
176.8554564468556975
  0
ARC
  5
3BEB1
  8
0
 10
2956.3847754521038951
 20
290.7337426674861263
 30
0.0
 40
2.0723412282736251
 50
103.3438674759174063
 51
125.2454140659577035
  0
ARC
  5
3BEB2
  8
0
 10
2957.1359913727178537
 20
288.1458708816161902
 30
0.0
 40
4.7655984844829202
 50
96.9919178026943456
 51
104.9511363030293012
  0
ARC
  5
3BEB3
  8
0
 10
2956.5134995585272009
 20
292.9462568386090879
 30
0.0
 40
0.0820236259763817
 50
301.108773536192075
 51
358.6725625685311911
  0
ARC
  5
3BEB4
  8
0
 10
2956.6953110065987858
 20
293.0696208338410997
 30
0.0
 40
0.0976074581743703
 50
181.7069564860223068
 51
223.1319803619188917
  0
ARC
  5
3BEB5
  8
0
 10
2956.9340006475549671
 20
293.3342024142921218
 30
0.0
 40
0.4536743293831392
 50
226.910737204534513
 51
256.8556067548345254
  0
ARC
  5
3BEB6
  8
0
 10
2957.2792922817179715
 20
294.4240554923142099
 30
0.0
 40
1.595945144308156
 50
253.6801307702517079
 51
264.1237258885261099
  0
ARC
  5
3BEB7
  8
0
 10
2957.4046137800942233
 20
295.6462795813894786
 30
0.0
 40
2.8245773421351479
 50
264.1332413917294275
 51
269.621138770317998
  0
ARC
  5
3BEB8
  8
0
 10
2956.7150373548879543
 20
293.0577475230174969
 30
0.0
 40
0.1176326727814848
 50
130.2389961285902871
 51
175.6287464216692058
  0
ARC
  5
3BEB9
  8
0
 10
2956.8477202870631118
 20
292.9205712026529227
 30
0.0
 40
0.3083177940288064
 50
117.753497884963295
 51
132.5944645634675112
  0
ARC
  5
3BEBA
  8
0
 10
2956.7469060527569127
 20
293.0588957206828127
 30
0.0
 40
0.0692626025345171
 50
144.5175826051844012
 51
194.7295193791024985
  0
ARC
  5
3BEBB
  8
0
 10
2956.7497717363298761
 20
293.0647603852468137
 30
0.0
 40
0.0736912278467113
 50
198.575892562530214
 51
215.5259374885883972
  0
ARC
  5
3BEBC
  8
0
 10
2956.8627339423901503
 20
293.1618883861428912
 30
0.0
 40
0.2224685733399309
 50
218.981397480476204
 51
245.2812726977462034
  0
ARC
  5
3BEBD
  8
0
 10
2957.1736319613942214
 20
293.8268330896895009
 30
0.0
 40
0.9565016964292768
 50
245.0204025911278052
 51
261.5792542452406906
  0
ARC
  5
3BEBE
  8
0
 10
2957.3565637467531815
 20
294.7796920787779982
 30
0.0
 40
1.9263224221314561
 50
260.347124393428885
 51
266.0890536926206096
  0
ARC
  5
3BEBF
  8
0
 10
2957.3942932204768113
 20
295.4038982796711252
 30
0.0
 40
2.5516531538652099
 50
266.1998196597775177
 51
269.8123603147993776
  0
ARC
  5
3BEC0
  8
0
 10
2956.7842879063268811
 20
293.1455309111382803
 30
0.0
 40
0.0933596046698338
 50
149.1393617269577874
 51
178.7413947296298034
  0
ARC
  5
3BEC1
  8
0
 10
2956.8685420606989283
 20
293.0866347096924187
 30
0.0
 40
0.1960331825096723
 50
118.8308286141194969
 51
146.9937821701311123
  0
ARC
  5
3BEC2
  8
0
 10
2957.1032869236510123
 20
292.6685298574341232
 30
0.0
 40
0.6755246967545333
 50
103.4463184873233956
 51
119.1723836297197039
  0
ARC
  5
3BEC3
  8
0
 10
2957.319096062466997
 20
291.8397557794019122
 30
0.0
 40
1.5318598939332939
 50
95.4915158627591296
 51
104.0887273588897983
  0
ARC
  5
3BEC4
  8
0
 10
2957.3831182209491999
 20
291.2697990955419982
 30
0.0
 40
2.1053475417258989
 50
90.6922095296549884
 51
95.7414647096475164
  0
ARC
  5
3BEC5
  8
0
 10
2957.3577087585240406
 20
293.3565433604589998
 30
0.0
 40
0.0184496492055265
 50
359.300616333751293
 51
90.078658608843682
  0
ARC
  5
3BEC6
  8
0
 10
2926.4848684615999446
 20
293.0048509155053011
 30
0.0
 40
30.8933292168407192
 50
0.1693495229571831
 51
0.6516127673946139
  0
ARC
  5
3BEC7
  8
0
 10
2957.3983469818290359
 20
288.8314992385803066
 30
0.0
 40
4.2647114053102531
 50
90.1667299123595853
 51
90.2725169654004844
  0
ARC
  5
3BEC8
  8
0
 10
2957.3845514020467817
 20
292.283702035036697
 30
0.0
 40
0.8124862798708015
 50
90.4575797675265534
 51
93.8151731251651171
  0
ARC
  5
3BEC9
  8
0
 10
2957.371666769586227
 20
292.4286234975069192
 30
0.0
 40
0.6670364005419654
 50
93.5391645306919912
 51
102.0975622344823961
  0
ARC
  5
3BECA
  8
0
 10
2957.2841550313391963
 20
292.806521823152309
 30
0.0
 40
0.2792625866911651
 50
100.7906288362108995
 51
120.5916136247753059
  0
ARC
  5
3BECB
  8
0
 10
2957.1886265696170994
 20
292.9737843963276873
 30
0.0
 40
0.0867124658870795
 50
122.5015684218904966
 51
143.4272032635973915
  0
ARC
  5
3BECC
  8
0
 10
2957.0988931477309052
 20
293.0554079146839968
 30
0.0
 40
0.0198318884673371
 50
0.4848767765354411
 51
60.6001499040669316
  0
ARC
  5
3BECD
  8
0
 10
2957.1416980636140579
 20
293.1244936395589207
 30
0.0
 40
0.0614625326698044
 50
218.4192360674875886
 51
237.4495640954137059
  0
ARC
  5
3BECE
  8
0
 10
2957.1092359845360988
 20
293.0985742533887901
 30
0.0
 40
0.0199228552504548
 50
157.3545106918058991
 51
218.030532836535798
  0
ARC
  5
3BECF
  8
0
 10
2957.1481610332839409
 20
293.0812319197739271
 30
0.0
 40
0.0625325455450941
 50
120.3043947299144065
 51
156.4216456101505912
  0
ARC
  5
3BED0
  8
0
 10
2957.2964639086849274
 20
292.8060775293387792
 30
0.0
 40
0.3750772956195036
 50
97.0928007444942693
 51
118.6539437098832934
  0
ARC
  5
3BED1
  8
0
 10
2957.3759926113061738
 20
292.3744732025455733
 30
0.0
 40
0.8136024039693825
 50
91.1280070353553526
 51
98.8978117169045419
  0
ARC
  5
3BED2
  8
0
 10
2957.359787660389884
 20
293.2285316860073863
 30
0.0
 40
0.040614184810835
 50
270.2655570309843256
 51
288.3594194203656116
  0
ARC
  5
3BED3
  8
0
 10
2957.3701259162457973
 20
293.1980319032737157
 30
0.0
 40
0.0084130548519539
 50
286.9610855217978838
 51
332.9307327540158781
  0
ARC
  5
3BED4
  8
0
 10
2956.7952128078568421
 20
293.1582978964416952
 30
0.0
 40
0.1048112629065504
 50
185.8684130097163063
 51
229.1489782894794871
  0
ARC
  5
3BED5
  8
0
 10
2956.897080140342041
 20
293.2677460551440731
 30
0.0
 40
0.2542888344134617
 50
227.9176731063606951
 51
240.1246965113084002
  0
ARC
  5
3BED6
  8
0
 10
2956.7874687523121793
 20
293.1061148818529887
 30
0.0
 40
0.0612860496263377
 50
253.8436243070449052
 51
277.177300951529503
  0
ARC
  5
3BED7
  8
0
 10
2957.106861764047153
 20
293.0664728670436148
 30
0.0
 40
0.0161080001695033
 50
279.7235701895413058
 51
317.4289629518459037
  0
ARC
  5
3BED8
  8
0
 10
2956.8153344982688395
 20
292.9415028283070228
 30
0.0
 40
0.0192799334603073
 50
90.2073394364318375
 51
161.6049144805286915
  0
ARC
  5
3BED9
  8
0
 10
2957.1282475711668667
 20
292.9495398477051822
 30
0.0
 40
0.0167020102859609
 50
68.8481077252121594
 51
91.5858329190108833
  0
ARC
  5
3BEDA
  8
0
 10
2957.2733566750721366
 20
293.2893225294639024
 30
0.0
 40
0.3527795068513307
 50
246.7809695500598934
 51
256.2908690481198732
  0
ARC
  5
3BEDB
  8
0
 10
2957.3564460115621841
 20
293.6267937687445055
 30
0.0
 40
0.7003286348942306
 50
256.2300067716503236
 51
264.5471713954510733
  0
ARC
  5
3BEDC
  8
0
 10
2957.4151563012201223
 20
294.5019169888745978
 30
0.0
 40
1.5772643868442979
 50
265.4450076329811736
 51
268.9385084698321862
  0
LINE
  5
3BEDD
  8
0
 10
2958.1741266366489072
 20
293.0667133415283274
 30
0.0
 11
2958.1763723264498367
 21
292.9443566726283166
 31
0.0
  0
LINE
  5
3BEDE
  8
0
 10
2958.0014581941500182
 20
293.0472492738282995
 30
0.0
 11
2958.0021679044498342
 21
292.9598042638284028
 31
0.0
  0
LINE
  5
3BEDF
  8
0
 10
2958.0809226726501038
 20
293.1475815585283158
 30
0.0
 11
2958.0820755559498139
 21
293.0219405172283018
 31
0.0
  0
LINE
  5
3BEE0
  8
0
 10
2957.6531491722498686
 20
293.0555757439282729
 30
0.0
 11
2957.6523666723928727
 21
292.9660910181195845
 31
0.0
  0
LINE
  5
3BEE1
  8
0
 10
2957.9566087692492147
 20
292.9607826355282896
 30
0.0
 11
2957.6440881464500308
 21
292.966235460928317
 31
0.0
  0
LINE
  5
3BEE2
  8
0
 10
2957.9767476562501543
 20
293.045309052728328
 30
0.0
 11
2957.6622911758499868
 21
293.0505962732282796
 31
0.0
  0
ARC
  5
3BEE3
  8
0
 10
2957.3858961912678751
 20
290.7833923347615723
 30
0.0
 40
2.533476420689547
 50
89.7884281011569954
 51
89.9990827641194073
  0
ARC
  5
3BEE4
  8
0
 10
2957.1959192609338061
 20
302.9811090326439853
 30
0.0
 40
12.6976378885203403
 50
270.8574513307472102
 51
274.0410807977353898
  0
ARC
  5
3BEE5
  8
0
 10
2957.6192386648531283
 20
296.1008609956567739
 30
0.0
 40
5.805001128563358
 50
274.6589184939770121
 51
284.0792853707089876
  0
ARC
  5
3BEE6
  8
0
 10
2958.4824699858700114
 20
292.8096179409167803
 30
0.0
 40
2.4029131502870662
 50
283.2051725263257822
 51
299.4234572921274093
  0
ARC
  5
3BEE7
  8
0
 10
2959.3340056600641219
 20
291.3155839896185739
 30
0.0
 40
0.6833085898620213
 50
298.774546904295903
 51
325.8525878412194174
  0
ARC
  5
3BEE8
  8
0
 10
2959.6269350950838088
 20
291.101124341987088
 30
0.0
 40
0.3207658568881071
 50
328.1856126803551774
 51
353.4570325329351022
  0
ARC
  5
3BEE9
  8
0
 10
2869.0190619870190858
 20
289.5866542084580146
 30
0.0
 40
90.9385599670774809
 50
0.9312031436925231
 51
1.3842847940730769
  0
ARC
  5
3BEEA
  8
0
 10
2959.0771676383687918
 20
291.7366336750068854
 30
0.0
 40
0.8552018692195856
 50
3.1445435531442372
 51
53.737736616156198
  0
ARC
  5
3BEEB
  8
0
 10
2958.3870980461961153
 20
290.7337426674861263
 30
0.0
 40
2.0723412282736251
 50
54.7545859340422467
 51
76.6561325240825937
  0
ARC
  5
3BEEC
  8
0
 10
2957.6358821255807925
 20
288.1458708816161902
 30
0.0
 40
4.7655984844829202
 50
75.0488636969707414
 51
83.0080821973056544
  0
ARC
  5
3BEED
  8
0
 10
2958.2583739397719
 20
292.9462568386090879
 30
0.0
 40
0.0820236259763817
 50
181.3274374314686952
 51
238.8912264638078966
  0
ARC
  5
3BEEE
  8
0
 10
2958.0765624916998604
 20
293.0696208338410997
 30
0.0
 40
0.0976074581743703
 50
316.8680196380810798
 51
358.2930435139776932
  0
ARC
  5
3BEEF
  8
0
 10
2957.8378728507441338
 20
293.3342024142921218
 30
0.0
 40
0.4536743293831392
 50
283.1443932451654746
 51
313.0892627954655154
  0
ARC
  5
3BEF0
  8
0
 10
2957.4925812165811294
 20
294.4240554923142099
 30
0.0
 40
1.595945144308156
 50
275.8762741114737764
 51
286.3198692297482921
  0
ARC
  5
3BEF1
  8
0
 10
2957.3672597182048776
 20
295.6462795813894786
 30
0.0
 40
2.8245773421351479
 50
270.378861229682002
 51
275.8667586082705725
  0
ARC
  5
3BEF2
  8
0
 10
2958.0568361434111466
 20
293.0577475230174969
 30
0.0
 40
0.1176326727814848
 50
4.3712535783307924
 51
49.7610038714096632
  0
ARC
  5
3BEF3
  8
0
 10
2957.9241532112359891
 20
292.9205712026529227
 30
0.0
 40
0.3083177940288064
 50
47.4055354365324888
 51
62.2465021150366766
  0
ARC
  5
3BEF4
  8
0
 10
2958.0249674455421882
 20
293.0588957206828127
 30
0.0
 40
0.0692626025345171
 50
345.2704806208973878
 51
35.4824173948155277
  0
ARC
  5
3BEF5
  8
0
 10
2958.0221017619692248
 20
293.0647603852468137
 30
0.0
 40
0.0736912278467113
 50
324.4740625114116028
 51
341.4241074374696723
  0
ARC
  5
3BEF6
  8
0
 10
2957.9091395559089506
 20
293.1618883861428912
 30
0.0
 40
0.2224685733399309
 50
294.7187273022537966
 51
321.0186025195238244
  0
ARC
  5
3BEF7
  8
0
 10
2957.5982415369048795
 20
293.8268330896895009
 30
0.0
 40
0.9565016964292768
 50
278.4207457547593094
 51
294.9795974088722232
  0
ARC
  5
3BEF8
  8
0
 10
2957.4153097515459194
 20
294.7796920787779982
 30
0.0
 40
1.9263224221314561
 50
273.9109463073793904
 51
279.6528756065973198
  0
ARC
  5
3BEF9
  8
0
 10
2957.3775802778231991
 20
295.4038982796711252
 30
0.0
 40
2.5516531538652099
 50
270.1876396852006224
 51
273.8001803402224823
  0
ARC
  5
3BEFA
  8
0
 10
2957.9875855919722198
 20
293.1455309111382803
 30
0.0
 40
0.0933596046698338
 50
1.2586052703702371
 51
30.8606382730421593
  0
ARC
  5
3BEFB
  8
0
 10
2957.9033314376001726
 20
293.0866347096924187
 30
0.0
 40
0.1960331825096723
 50
33.006217829868902
 51
61.1691713858805173
  0
ARC
  5
3BEFC
  8
0
 10
2957.6685865746480886
 20
292.6685298574341232
 30
0.0
 40
0.6755246967545333
 50
60.8276163702802393
 51
76.5536815126765475
  0
ARC
  5
3BEFD
  8
0
 10
2957.4527774358330134
 20
291.8397557794019122
 30
0.0
 40
1.5318598939332939
 50
75.9112726411101448
 51
84.5084841372408846
  0
ARC
  5
3BEFE
  8
0
 10
2957.388755277349901
 20
291.2697990955419982
 30
0.0
 40
2.1053475417258989
 50
84.2585352903524836
 51
89.3077904703449832
  0
ARC
  5
3BEFF
  8
0
 10
2957.4141647397750603
 20
293.3565433604589998
 30
0.0
 40
0.0184496492055265
 50
89.921341391156318
 51
180.69938366624541
  0
ARC
  5
3BF00
  8
0
 10
2988.2870050366991563
 20
293.0048509155053011
 30
0.0
 40
30.8933292168407192
 50
179.3483872326054041
 51
179.8306504770428091
  0
ARC
  5
3BF01
  8
0
 10
2957.3735265164709745
 20
288.8314992385803066
 30
0.0
 40
4.2647114053102531
 50
89.7274830345995156
 51
89.8332700876404147
  0
ARC
  5
3BF02
  8
0
 10
2957.3873220962518644
 20
292.283702035036697
 30
0.0
 40
0.8124862798708015
 50
86.1848268748348545
 51
89.5424202324734608
  0
ARC
  5
3BF03
  8
0
 10
2957.4002067287128739
 20
292.4286234975069192
 30
0.0
 40
0.6670364005419654
 50
77.9024377655175755
 51
86.4608354693080088
  0
ARC
  5
3BF04
  8
0
 10
2957.4877184669608141
 20
292.806521823152309
 30
0.0
 40
0.2792625866911651
 50
59.408386375224687
 51
79.2093711637890436
  0
ARC
  5
3BF05
  8
0
 10
2957.5832469286820015
 20
292.9737843963276873
 30
0.0
 40
0.0867124658870795
 50
36.5727967364025872
 51
57.4984315781094892
  0
ARC
  5
3BF06
  8
0
 10
2957.6729803505691052
 20
293.0554079146839968
 30
0.0
 40
0.0198318884673371
 50
119.3998500959331039
 51
179.5151232234645136
  0
ARC
  5
3BF07
  8
0
 10
2957.630175434685043
 20
293.1244936395589207
 30
0.0
 40
0.0614625326698044
 50
302.5504359045863225
 51
321.5807639325097966
  0
ARC
  5
3BF08
  8
0
 10
2957.6626375137630021
 20
293.0985742533887901
 30
0.0
 40
0.0199228552504548
 50
321.9694671634641736
 51
22.6454893081941293
  0
ARC
  5
3BF09
  8
0
 10
2957.62371246501516
 20
293.0812319197739271
 30
0.0
 40
0.0625325455450941
 50
23.5783543898493697
 51
59.6956052700856219
  0
ARC
  5
3BF0A
  8
0
 10
2957.4754095896141735
 20
292.8060775293387792
 30
0.0
 40
0.3750772956195036
 50
61.3460562901166426
 51
82.9071992555057449
  0
ARC
  5
3BF0B
  8
0
 10
2957.3958808869929271
 20
292.3744732025455733
 30
0.0
 40
0.8136024039693825
 50
81.1021882830954581
 51
88.8719929646446616
  0
ARC
  5
3BF0C
  8
0
 10
2957.4120858379078527
 20
293.2285316860073863
 30
0.0
 40
0.040614184810835
 50
251.6405805796345021
 51
269.7344429690156744
  0
ARC
  5
3BF0D
  8
0
 10
2957.4017475820528489
 20
293.1980319032737157
 30
0.0
 40
0.0084130548519539
 50
207.0692672459840082
 51
253.0389144782020878
  0
ARC
  5
3BF0E
  8
0
 10
2957.9766606904431683
 20
293.1582978964416952
 30
0.0
 40
0.1048112629065504
 50
310.8510217105205129
 51
354.1315869902837221
  0
ARC
  5
3BF0F
  8
0
 10
2957.8747933579570599
 20
293.2677460551440731
 30
0.0
 40
0.2542888344134617
 50
299.8753034886915998
 51
312.0823268936392765
  0
ARC
  5
3BF10
  8
0
 10
2957.9844047459869216
 20
293.1061148818529887
 30
0.0
 40
0.0612860496263377
 50
262.822699048470497
 51
286.1563756929551232
  0
ARC
  5
3BF11
  8
0
 10
2957.6650117342528574
 20
293.0664728670436148
 30
0.0
 40
0.0161080001695033
 50
222.5710370481540963
 51
260.2764298104585805
  0
ARC
  5
3BF12
  8
0
 10
2957.9565390000298066
 20
292.9415028283070228
 30
0.0
 40
0.0192799334603073
 50
18.3950855194712908
 51
89.7926605635681625
  0
ARC
  5
3BF13
  8
0
 10
2957.6436259271317795
 20
292.9495398477051822
 30
0.0
 40
0.0167020102859609
 50
88.4141670809891451
 51
111.151892274787798
  0
ARC
  5
3BF14
  8
0
 10
2957.4985168232269643
 20
293.2893225294639024
 30
0.0
 40
0.3527795068513307
 50
283.7091309518801268
 51
293.2190304499400781
  0
ARC
  5
3BF15
  8
0
 10
2957.4154274867369168
 20
293.6267937687445055
 30
0.0
 40
0.7003286348942306
 50
275.4528286045489267
 51
283.7699932283496764
  0
ARC
  5
3BF16
  8
0
 10
2957.3567171970789786
 20
294.5019169888745978
 30
0.0
 40
1.5772643868442979
 50
271.0614915301678138
 51
274.5549923670188264
  0
ARC
  5
3BF17
  8
0
 10
2956.3225640436271533
 20
1515.9555011770939927
 30
0.0
 40
1243.4275909884729572
 50
269.8117021284563748
 51
269.8740757897770095
  0
ARC
  5
3BF18
  8
0
 10
2952.4737334599590213
 20
315.6032562302480073
 30
0.0
 40
43.0692865050580167
 50
268.1140399913842884
 51
269.6839356076897047
  0
ARC
  5
3BF19
  8
0
 10
2951.3680528197401145
 20
282.0246265095499894
 30
0.0
 40
9.4724577321232069
 50
262.5108863372265091
 51
268.1140399913842884
  0
ARC
  5
3BF1A
  8
0
 10
2950.7395048611151651
 20
277.2433108912952093
 30
0.0
 40
4.6500048730837626
 50
244.9801741947823075
 51
262.5108863372265091
  0
ARC
  5
3BF1B
  8
0
 10
2950.2146911808831646
 20
276.1188603243735997
 30
0.0
 40
3.4091106485788401
 50
218.888518271537805
 51
244.9801741947823075
  0
ARC
  5
3BF1C
  8
0
 10
2951.0257999376558473
 20
276.7730742586836072
 30
0.0
 40
4.4511726847161359
 50
197.4849019380432935
 51
218.888518271537805
  0
ARC
  5
3BF1D
  8
0
 10
2951.7305711638391585
 20
276.6186325289393722
 30
0.0
 40
5.0896589875968612
 50
180.5124706085256037
 51
193.4395253262221104
  0
ARC
  5
3BF1E
  8
0
 10
2950.8933794119670893
 20
276.4548581748651941
 30
0.0
 40
4.2539075646101336
 50
146.2165658837272133
 51
178.407067802687294
  0
ARC
  5
3BF1F
  8
0
 10
2950.5507722550742074
 20
276.5118784331071993
 30
0.0
 40
3.940044932224982
 50
111.6488205952547048
 51
144.1349218695389993
  0
ARC
  5
3BF20
  8
0
 10
2951.0047992459990382
 20
274.7838799737572799
 30
0.0
 40
5.7177147967295481
 50
89.7903229811137891
 51
109.4889744361138071
  0
ARC
  5
3BF21
  8
0
 10
2952.8764677473768643
 20
219.618629037736298
 30
0.0
 40
60.9110507930380365
 50
90.2177299045981158
 51
91.7411644790040555
  0
ARC
  5
3BF22
  8
0
 10
2954.4434238579829071
 20
208.0416357928839943
 30
0.0
 40
64.4949271621522229
 50
89.5558347498254079
 51
90.7583873639663352
  0
ARC
  5
3BF23
  8
0
 10
2954.7058082750918402
 20
315.6032562302480073
 30
0.0
 40
43.0692865050580167
 50
270.3160643923104089
 51
271.8859600086155979
  0
ARC
  5
3BF24
  8
0
 10
2955.8114889153121112
 20
282.0246265095499894
 30
0.0
 40
9.4724577321232069
 50
271.8859600086155979
 51
277.4891136627736046
  0
ARC
  5
3BF25
  8
0
 10
2956.4400368739347869
 20
277.2433108912952093
 30
0.0
 40
4.6500048730837626
 50
277.4891136627736046
 51
295.0198258051885887
  0
ARC
  5
3BF26
  8
0
 10
2956.9648505541681516
 20
276.1188603243735997
 30
0.0
 40
3.4091106485788401
 50
295.0198258052178062
 51
321.1114817284595802
  0
ARC
  5
3BF27
  8
0
 10
2956.1537417973950141
 20
276.7730742586836072
 30
0.0
 40
4.4511726847161359
 50
321.1114817284595802
 51
342.5150980619566212
  0
ARC
  5
3BF28
  8
0
 10
2955.448959871023817
 20
276.6186344557035
 30
0.0
 40
5.0896698425847626
 50
346.5604815736422779
 51
359.487508793504503
  0
ARC
  5
3BF29
  8
0
 10
2956.2861607222430393
 20
276.4548574031996964
 30
0.0
 40
4.2539093242306638
 50
1.5929419357872709
 51
33.7834307653038479
  0
ARC
  5
3BF2A
  8
0
 10
2956.6287694799771089
 20
276.5118784331071993
 30
0.0
 40
3.940044932224982
 50
35.865078130461022
 51
68.3511794047452668
  0
ARC
  5
3BF2B
  8
0
 10
2956.1747424890518232
 20
274.7838799737572799
 30
0.0
 40
5.7177147967295481
 50
70.5110255638861503
 51
90.2096770188861967
  0
ARC
  5
3BF2C
  8
0
 10
2954.3030739876739972
 20
219.618629037736298
 30
0.0
 40
60.9110507930380365
 50
88.2588355209959445
 51
89.7822613457481964
  0
LINE
  5
3BF2D
  8
0
 10
2947.3496134561751205
 20
294.4788286196144895
 30
0.0
 11
2947.3496134561751205
 21
289.006386887314477
 31
0.0
  0
LINE
  5
3BF2E
  8
0
 10
2959.8299284167751466
 20
289.006386887314477
 30
0.0
 11
2959.8299284167751466
 21
290.8494110820042806
 31
0.0
  0
LINE
  5
3BF2F
  8
0
 10
2959.8299284167751466
 20
292.6784170463383248
 30
0.0
 11
2959.8299284167751466
 21
294.4788286196144895
 31
0.0
  0
LINE
  5
3BF30
  8
0
 10
2947.7433134561761108
 20
288.6126868873146236
 30
0.0
 11
2952.6449999940641646
 21
288.6126868873146236
 31
0.0
  0
LINE
  5
3BF31
  8
0
 10
2954.5345510426759574
 20
288.6126868873146236
 30
0.0
 11
2959.4362284167750659
 21
288.6126868873146236
 31
0.0
  0
LINE
  5
3BF32
  8
0
 10
2947.4086685742759073
 20
294.5378837377144805
 30
0.0
 11
2959.7708732986748146
 21
294.5378837377144805
 31
0.0
  0
LINE
  5
3BF33
  8
0
 10
2947.3496134561751205
 20
294.4788286196144895
 30
0.0
 11
2952.8417394418761432
 21
294.4788286196144895
 31
0.0
  0
LINE
  5
3BF34
  8
0
 10
2954.3378024320759323
 20
294.4788286196144895
 30
0.0
 11
2959.8299284167751466
 21
294.4788286196144895
 31
0.0
  0
LINE
  5
3BF35
  8
0
 10
2947.4086685742759073
 20
294.5378837377144805
 30
0.0
 11
2947.4086685742759073
 21
294.4788286196144895
 31
0.0
  0
ARC
  5
3BF36
  8
0
 10
2947.7433134561761108
 20
289.006386887314477
 30
0.0
 40
0.3937
 50
180.0
 51
270.0
  0
LINE
  5
3BF37
  8
0
 10
2950.8748797150119572
 20
292.7662301944145042
 30
0.0
 11
2952.6449999940641646
 21
292.7662301944145042
 31
0.0
  0
LINE
  5
3BF38
  8
0
 10
2954.5345510426759574
 20
292.7662301944145042
 30
0.0
 11
2955.9684260700710183
 21
292.7662301944145042
 31
0.0
  0
LINE
  5
3BF39
  8
0
 10
2950.8748797150119572
 20
294.3016632652144722
 30
0.0
 11
2952.8417486046641898
 21
294.3016632652144722
 31
0.0
  0
LINE
  5
3BF3A
  8
0
 10
2950.8403646444480728
 20
294.2997180112341198
 30
0.0
 11
2950.2081605358939669
 21
294.2953043222204883
 31
0.0
  0
LINE
  5
3BF3B
  8
0
 10
2950.8404840051498468
 20
292.768174615082728
 30
0.0
 11
2950.2081605384810246
 21
292.7725891374075218
 31
0.0
  0
ARC
  5
3BF3C
  8
0
 10
2975.1239377786750993
 20
293.5339467740014925
 30
0.0
 40
24.9577450116193909
 50
178.3220856300000889
 51
181.6779147313403087
  0
ARC
  5
3BF3D
  8
0
 10
2950.2083804455937752
 20
294.2638050898532924
 30
0.0
 40
0.0315
 50
90.4000000010610023
 51
178.3220986989848029
  0
ARC
  5
3BF3E
  8
0
 10
2950.2083804481831066
 20
292.8040883697747176
 30
0.0
 40
0.0315
 50
181.677901504266714
 51
269.5999999970107979
  0
ARC
  5
3BF3F
  8
0
 10
2956.7002915074758675
 20
294.2622632652144716
 30
0.0
 40
0.0394
 50
0.0
 51
90.0
  0
LINE
  5
3BF40
  8
0
 10
2956.7515081112760527
 20
294.2228526439565144
 30
0.0
 11
2956.7515081112760527
 21
293.2438990200977855
 31
0.0
  0
ARC
  5
3BF41
  8
0
 10
2956.7633190057231332
 20
294.2228567444935265
 30
0.0
 40
0.0118108951588665
 50
109.4994906692457022
 51
180.0198920965478067
  0
ARC
  5
3BF42
  8
0
 10
2956.7357927347761688
 20
294.199063789214506
 30
0.0
 40
0.0157158214999822
 50
0.4311719374018601
 51
75.6361057130946506
  0
LINE
  5
3BF43
  8
0
 10
2954.3378024320759323
 20
294.3016632652144722
 30
0.0
 11
2956.7002915074758675
 21
294.3016632652144722
 31
0.0
  0
ARC
  5
3BF44
  8
0
 10
2949.1060606915521021
 20
293.8830674301146928
 30
0.0
 40
2.0655319073720362
 50
327.4528343783301239
 51
339.7445085742349988
  0
ARC
  5
3BF45
  8
0
 10
2950.8405391571059226
 20
292.7760744225652161
 30
0.0
 40
0.0079
 50
269.599999997036889
 51
327.4528343783466084
  0
ARC
  5
3BF46
  8
0
 10
2950.0550569429219649
 20
293.5328608914105075
 30
0.0
 40
1.05397938532207
 50
339.7445085742349988
 51
13.7164976221989505
  0
ARC
  5
3BF47
  8
0
 10
2949.3006052298142095
 20
293.2883605344238163
 30
0.0
 40
1.845821704974828
 50
15.5368323552462506
 51
33.0912561455952172
  0
ARC
  5
3BF48
  8
0
 10
2950.8404197964050582
 20
294.291818203751518
 30
0.0
 40
0.0079
 50
33.0912561456339986
 51
90.4000000010610023
  0
LINE
  5
3BF49
  8
0
 10
2950.8669797150128034
 20
294.2937632652145794
 30
0.0
 11
2950.8669797150128034
 21
294.264848495780484
 31
0.0
  0
LINE
  5
3BF4A
  8
0
 10
2950.8669797150128034
 20
292.8034442304818867
 30
0.0
 11
2950.8669797150128034
 21
292.7741301944145107
 31
0.0
  0
ARC
  5
3BF4B
  8
0
 10
2950.8748797150119572
 20
294.2937632652145794
 30
0.0
 40
0.0079
 50
90.0000000000521254
 51
180.0
  0
ARC
  5
3BF4C
  8
0
 10
2950.8748797150119572
 20
292.7741301944145107
 30
0.0
 40
0.0079
 50
179.9999999998956923
 51
269.9999999999478746
  0
ARC
  5
3BF4D
  8
0
 10
2948.6291922902701117
 20
292.8570695462731237
 30
0.0
 40
2.6592821212466902
 50
21.8520878786630988
 51
32.701082866673417
  0
ARC
  5
3BF4E
  8
0
 10
2950.1049983282428002
 20
293.5455333716247992
 30
0.0
 40
1.0371464395749519
 50
340.850344949026919
 51
16.8914287134981009
  0
ARC
  5
3BF4F
  8
0
 10
2949.1902428328271526
 20
293.8915772461652978
 30
0.0
 40
2.0149775397135601
 50
326.3188647226273815
 51
340.0876361571919233
  0
LINE
  5
3BF50
  8
0
 10
2956.7396915074759818
 20
294.2622632652144716
 30
0.0
 11
2956.7396915074759818
 21
293.2343728008503945
 31
0.0
  0
LINE
  5
3BF51
  8
0
 10
2956.7593765468759557
 20
293.2494594597662854
 30
0.0
 11
2956.7593765468759557
 21
294.2622632652144716
 31
0.0
  0
ARC
  5
3BF52
  8
0
 10
2952.8312493497178366
 20
293.2377724513427211
 30
0.0
 40
5.200539182959413
 50
359.9663242043260993
 51
4.097954704495093
  0
ARC
  5
3BF53
  8
0
 10
2935.167282478413199
 20
291.9722373536004056
 30
0.0
 40
22.9097826652250305
 50
4.097954704495093
 51
4.663213717929767
  0
ARC
  5
3BF54
  8
0
 10
2950.4058765355612195
 20
293.2152284155504276
 30
0.0
 40
7.6205781202327536
 50
4.663213717929767
 51
7.9384821492368669
  0
LINE
  5
3BF55
  8
0
 10
2957.9144036690458961
 20
294.3016632652144722
 30
0.0
 11
2956.7987765468760699
 21
294.3016632652144722
 31
0.0
  0
ARC
  5
3BF56
  8
0
 10
2957.9144036690458961
 20
294.2622632652144716
 30
0.0
 40
0.0394
 50
7.9384821491949333
 51
90.0
  0
ARC
  5
3BF57
  8
0
 10
2956.7987765468760699
 20
294.2622632652144716
 30
0.0
 40
0.0394
 50
90.0000000000260485
 51
179.9999999999575948
  0
ARC
  5
3BF58
  8
0
 10
2959.4362284167750659
 20
289.006386887314477
 30
0.0
 40
0.3937
 50
270.0
 51
359.9999999999968168
  0
LINE
  5
3BF59
  8
0
 10
2959.7708732986748146
 20
294.4788286196144895
 30
0.0
 11
2959.7708732986748146
 21
294.5378837377144805
 31
0.0
  0
LINE
  5
3BF5A
  8
0
 10
2961.5426370782761296
 20
289.8331892495145894
 30
0.0
 11
2961.5426370782761296
 21
291.8016333440144763
 31
0.0
  0
LINE
  5
3BF5B
  8
0
 10
2961.4638969207758237
 20
289.7937892495144752
 30
0.0
 11
2961.4638969207758237
 21
291.8410333440144768
 31
0.0
  0
LINE
  5
3BF5C
  8
0
 10
2961.5032370782760154
 20
291.8410333440144768
 30
0.0
 11
2961.4638969207758237
 21
291.8410333440144768
 31
0.0
  0
LINE
  5
3BF5D
  8
0
 10
2961.4559969207762151
 20
291.8410333440144768
 30
0.0
 11
2960.5762451274108571
 21
291.8410333440144768
 31
0.0
  0
ARC
  5
3BF5E
  8
0
 10
2961.5032370782760154
 20
291.8016333440144763
 30
0.0
 40
0.0394
 50
359.9999999999968168
 51
90.0
  0
ARC
  5
3BF5F
  8
0
 10
2961.4559969207762151
 20
291.8331333440145272
 30
0.0
 40
0.0079
 50
0.0000000000065138
 51
89.9999999999739515
  0
ARC
  5
3BF60
  8
0
 10
2960.2754131814540415
 20
291.1856119347191907
 30
0.0
 40
0.6004480354141279
 50
118.2662351348006951
 51
124.7057654745061939
  0
ARC
  5
3BF61
  8
0
 10
2960.4420127837561267
 20
290.8757656020569016
 30
0.0
 40
0.9522436825607575
 50
102.5066835126839067
 51
118.2662351348006951
  0
ARC
  5
3BF62
  8
0
 10
2960.5452393751170348
 20
290.4103974431395159
 30
0.0
 40
1.4289230847781269
 50
92.9477029335470064
 51
102.5066835126839067
  0
ARC
  5
3BF63
  8
0
 10
2960.6301377093727751
 20
288.7616479055103014
 30
0.0
 40
3.0798569916900931
 50
91.0026358698195139
 51
92.9477029335470064
  0
LINE
  5
3BF64
  8
0
 10
2961.5032370782760154
 20
289.7937892495144752
 30
0.0
 11
2961.4638969207758237
 21
289.7937892495144752
 31
0.0
  0
LINE
  5
3BF65
  8
0
 10
2961.4559969207762151
 20
289.7937892495144752
 30
0.0
 11
2960.5762451274108571
 21
289.7937892495144752
 31
0.0
  0
ARC
  5
3BF66
  8
0
 10
2961.5032370782760154
 20
289.8331892495145894
 30
0.0
 40
0.0394
 50
270.0
 51
0.0
  0
ARC
  5
3BF67
  8
0
 10
2961.4559969207762151
 20
289.8016892495145953
 30
0.0
 40
0.0079
 50
270.0000000000259774
 51
359.9999999999935199
  0
ARC
  5
3BF68
  8
0
 10
2960.2754131814540415
 20
290.449210658809875
 30
0.0
 40
0.6004480354141279
 50
222.1047210589591998
 51
241.7337648651991913
  0
ARC
  5
3BF69
  8
0
 10
2960.4420127837561267
 20
290.7590569914721073
 30
0.0
 40
0.9522436825607575
 50
241.7337648651991913
 51
257.4933164873161218
  0
ARC
  5
3BF6A
  8
0
 10
2960.5452393751170348
 20
291.2244251503896066
 30
0.0
 40
1.4289230847781269
 50
257.4933164873161218
 51
267.0522970664529794
  0
ARC
  5
3BF6B
  8
0
 10
2960.6301377093727751
 20
292.8731746880188211
 30
0.0
 40
3.0798569916900931
 50
267.0522970664529794
 51
268.9973641301804719
  0
LINE
  5
3BF6C
  8
0
 10
2948.1391040758958297
 20
288.5406388455941737
 30
0.0
 11
2948.1380980300750707
 21
288.6126868873146236
 31
0.0
  0
LINE
  5
3BF6D
  8
0
 10
2948.1463781577758709
 20
288.5334656274146141
 30
0.0
 11
2949.584344817676083
 21
288.5334656274146141
 31
0.0
  0
LINE
  5
3BF6E
  8
0
 10
2948.1531574468758663
 20
288.5327656274145056
 30
0.0
 11
2949.5775655285751782
 21
288.5327656274145056
 31
0.0
  0
LINE
  5
3BF6F
  8
0
 10
2948.1531574468758663
 20
288.5327656274145056
 30
0.0
 11
2948.1531574468758663
 21
288.5334656274146141
 31
0.0
  0
LINE
  5
3BF70
  8
0
 10
2948.1391040758958297
 20
288.5406388455941737
 30
0.0
 11
2948.1463781577758709
 21
288.5334656274146141
 31
0.0
  0
LINE
  5
3BF71
  8
0
 10
2949.5916188995552147
 20
288.5406388455941737
 30
0.0
 11
2949.5926249453750643
 21
288.6126868873146236
 31
0.0
  0
LINE
  5
3BF72
  8
0
 10
2949.5775655285751782
 20
288.5327656274145056
 30
0.0
 11
2949.5775655285751782
 21
288.5334656274146141
 31
0.0
  0
LINE
  5
3BF73
  8
0
 10
2949.5916188995552147
 20
288.5406388455941737
 30
0.0
 11
2949.584344817676083
 21
288.5334656274146141
 31
0.0
  0
LINE
  5
3BF74
  8
0
 10
2950.040094996946209
 20
288.5406388455941737
 30
0.0
 11
2950.0390889511259047
 21
288.6126868873146236
 31
0.0
  0
LINE
  5
3BF75
  8
0
 10
2950.0473690788257954
 20
288.5334656274146141
 30
0.0
 11
2951.4853357387250981
 21
288.5334656274146141
 31
0.0
  0
LINE
  5
3BF76
  8
0
 10
2950.0541483679257908
 20
288.5327656274145056
 30
0.0
 11
2951.4785564496251027
 21
288.5327656274145056
 31
0.0
  0
LINE
  5
3BF77
  8
0
 10
2950.0541483679257908
 20
288.5327656274145056
 30
0.0
 11
2950.0541483679257908
 21
288.5334656274146141
 31
0.0
  0
LINE
  5
3BF78
  8
0
 10
2950.040094996946209
 20
288.5406388455941737
 30
0.0
 11
2950.0473690788257954
 21
288.5334656274146141
 31
0.0
  0
LINE
  5
3BF79
  8
0
 10
2951.4926098206051392
 20
288.5406388455941737
 30
0.0
 11
2951.4936158664249888
 21
288.6126868873146236
 31
0.0
  0
LINE
  5
3BF7A
  8
0
 10
2951.4785564496251027
 20
288.5327656274145056
 30
0.0
 11
2951.4785564496251027
 21
288.5334656274146141
 31
0.0
  0
LINE
  5
3BF7B
  8
0
 10
2951.4926098206051392
 20
288.5406388455941737
 30
0.0
 11
2951.4853357387250981
 21
288.5334656274146141
 31
0.0
  0
LINE
  5
3BF7C
  8
0
 10
2951.9080873556958977
 20
288.5406388455941737
 30
0.0
 11
2951.9070813098751387
 21
288.6126868873146236
 31
0.0
  0
LINE
  5
3BF7D
  8
0
 10
2951.9153614375759389
 20
288.5334656274146141
 30
0.0
 11
2952.6449999940641646
 21
288.5334656274146141
 31
0.0
  0
LINE
  5
3BF7E
  8
0
 10
2951.9221407266759343
 20
288.5327656274145056
 30
0.0
 11
2952.6449999940641646
 21
288.5327656274146193
 31
0.0
  0
LINE
  5
3BF7F
  8
0
 10
2951.9221407266759343
 20
288.5327656274145056
 30
0.0
 11
2951.9221407266759343
 21
288.5334656274146141
 31
0.0
  0
LINE
  5
3BF80
  8
0
 10
2951.9080873556958977
 20
288.5406388455941737
 30
0.0
 11
2951.9153614375759389
 21
288.5334656274146141
 31
0.0
  0
LINE
  5
3BF81
  8
0
 10
2953.589770784367829
 20
294.5329860188771249
 30
0.0
 11
2953.5897800994757745
 21
294.3476795744145988
 31
0.0
  0
ARC
  5
3BF82
  8
0
 10
2953.5818829443460345
 20
294.3476995753997016
 30
0.0
 40
0.0078971804581892
 50
286.6572762027057024
 51
359.8548883020927178
  0
ARC
  5
3BF83
  8
0
 10
2953.5897709262808348
 20
294.3212693316544915
 30
0.0
 40
0.019685027405772
 50
106.6015236832515996
 51
180.0000210728501884
  0
LINE
  5
3BF84
  8
0
 10
2953.5700858988761865
 20
294.3212693244145157
 30
0.0
 11
2953.5700859567959924
 21
294.1637890082146214
 31
0.0
  0
ARC
  5
3BF85
  8
0
 10
2953.5897710296139849
 20
294.1637890154544834
 30
0.0
 40
0.0196850728183082
 50
180.0000210728535137
 51
253.3982012991546924
  0
ARC
  5
3BF86
  8
0
 10
2953.5818968762700933
 20
294.1373787216020901
 30
0.0
 40
0.0078740620058791
 50
0.000228209718332
 51
73.3982012991815793
  0
LINE
  5
3BF87
  8
0
 10
2953.5897709382761605
 20
294.1373787529644801
 30
0.0
 11
2953.5897715701357811
 21
293.978739886520998
 31
0.0
  0
ARC
  5
3BF88
  8
0
 10
2953.6015178781490249
 20
293.9787158951257879
 30
0.0
 40
0.0117463325137177
 50
179.8829756740607024
 51
270.2089166623053984
  0
ARC
  5
3BF89
  8
0
 10
2952.8496134741021706
 20
293.8846800643386246
 30
0.0
 40
0.0078740468269967
 50
179.8896609355662974
 51
294.1469693979897784
  0
ARC
  5
3BF8A
  8
0
 10
2953.0712175566918631
 20
293.4863346324200961
 30
0.0
 40
0.447992813599934
 50
115.5882997215959023
 51
119.1744157103999981
  0
ARC
  5
3BF8B
  8
0
 10
2953.1216108414969312
 20
293.3715080497730128
 30
0.0
 40
0.5733371989135972
 50
102.0569997244868006
 51
115.1742669454121994
  0
ARC
  5
3BF8C
  8
0
 10
2953.3545099116618076
 20
292.0425448573471954
 30
0.0
 40
1.9222790714461431
 50
89.9503600053910901
 51
100.5713332777575033
  0
ARC
  5
3BF8D
  8
0
 10
2953.5615392648610396
 20
284.1859878146440792
 30
0.0
 40
9.7809915642506677
 50
89.8345796667254888
 51
91.2030836427094727
  0
ARC
  5
3BF8E
  8
0
 10
2953.620204567476776
 20
284.649629934866482
 30
0.0
 40
9.3173583588558486
 50
88.5138244533027461
 51
90.1871028931766006
  0
ARC
  5
3BF8F
  8
0
 10
2953.8157501949508514
 20
291.7344130728142773
 30
0.0
 40
2.2299176909144238
 50
82.7556908044854822
 51
88.8152358447825634
  0
ARC
  5
3BF90
  8
0
 10
2954.0263015131390603
 20
293.2923080651355008
 30
0.0
 40
0.6580252236128386
 50
63.5040965165170732
 51
83.8371361315541037
  0
ARC
  5
3BF91
  8
0
 10
2954.1296656249278385
 20
293.5189208461775934
 30
0.0
 40
0.4091904238649838
 50
18.9664560928566992
 51
62.300903766358509
  0
ARC
  5
3BF92
  8
0
 10
2954.159201657981157
 20
293.5377985979270079
 30
0.0
 40
0.3752131674212272
 50
2.9615615542859448
 51
17.706071752852889
  0
ARC
  5
3BF93
  8
0
 10
2953.8712755222659325
 20
293.5265198721205024
 30
0.0
 40
0.6633473172586652
 50
359.1570074209759014
 51
2.6495499848046098
  0
LINE
  5
3BF94
  8
0
 10
2954.5345510426759574
 20
293.5167603977641875
 30
0.0
 11
2954.5345510426759574
 21
275.9683261261449729
 31
0.0
  0
LINE
  5
3BF95
  8
0
 10
2954.3378024320759323
 20
294.5252705939004159
 30
0.0
 11
2954.3378024320759323
 21
293.8847103667700935
 31
0.0
  0
ARC
  5
3BF96
  8
0
 10
2954.3298351397461374
 20
293.8846960582250745
 30
0.0
 40
0.0079673051782135
 50
253.8365899913983981
 51
0.1028979884190864
  0
ARC
  5
3BF97
  8
0
 10
2953.5976429380280024
 20
294.3476777973747858
 30
0.0
 40
0.0078717371921939
 50
181.8499963768373959
 51
253.399509458365003
  0
ARC
  5
3BF98
  8
0
 10
2953.5897697114560287
 20
294.3212684098041905
 30
0.0
 40
0.0196862643413785
 50
0.0026569748607252
 51
73.399509458390952
  0
LINE
  5
3BF99
  8
0
 10
2953.6094559757761999
 20
294.3212693227144996
 30
0.0
 11
2953.6094632786039256
 21
294.1637890127839228
 31
0.0
  0
ARC
  5
3BF9A
  8
0
 10
2953.5896863107591344
 20
294.163788095667428
 30
0.0
 40
0.0197769678660546
 50
286.8756608427291894
 51
0.0026569748542114
  0
ARC
  5
3BF9B
  8
0
 10
2953.5977422944870341
 20
294.1372321790071283
 30
0.0
 40
0.0079739885767592
 50
106.8756608427292036
 51
178.5758745606503055
  0
ARC
  5
3BF9C
  8
0
 10
2954.105497409093914
 20
293.5050701770110209
 30
0.0
 40
0.5058191431722049
 50
54.2878407390782911
 51
62.6603112802957014
  0
ARC
  5
3BF9D
  8
0
 10
2954.1063244598158235
 20
293.5062206245983134
 30
0.0
 40
0.5044022654259843
 50
31.7464219244970884
 51
54.2878407390782911
  0
ARC
  5
3BF9E
  8
0
 10
2954.1620788514787819
 20
293.5407176740973796
 30
0.0
 40
0.4388385665229022
 50
356.8891423792039745
 51
31.7464219244970884
  0
ARC
  5
3BF9F
  8
0
 10
2954.0771524298011173
 20
293.5453332657169199
 30
0.0
 40
0.5238903200910752
 50
338.7133438852139875
 51
356.8891423792039745
  0
ARC
  5
3BFA0
  8
0
 10
2954.2557937192618738
 20
293.4757318619425064
 30
0.0
 40
0.3321689970525811
 50
327.0560870129688738
 51
338.7133438852170002
  0
ARC
  5
3BFA1
  8
0
 10
2954.112426632243114
 20
293.5008230718269147
 30
0.0
 40
0.4506972265824019
 50
38.4684523133040486
 51
59.996072417946813
  0
ARC
  5
3BFA2
  8
0
 10
2954.1573878533990865
 20
293.5365464398744848
 30
0.0
 40
0.3932718799794401
 50
18.83838631572468
 51
38.4684523133040486
  0
ARC
  5
3BFA3
  8
0
 10
2954.1545051749508275
 20
293.53556294046939
 30
0.0
 40
0.3963177142023609
 50
352.5517905561688963
 51
18.83838631572468
  0
ARC
  5
3BFA4
  8
0
 10
2954.0814125671431611
 20
293.5451185581217146
 30
0.0
 40
0.4700322931199173
 50
344.5919699329483024
 51
352.5517905561688963
  0
ARC
  5
3BFA5
  8
0
 10
2953.0498854118109193
 20
293.5189208461775934
 30
0.0
 40
0.4091904238649838
 50
117.6990962336414981
 51
161.0335439071432972
  0
ARC
  5
3BFA6
  8
0
 10
2953.0203493787580555
 20
293.5377985979270079
 30
0.0
 40
0.3752131674212272
 50
162.2939282471471074
 51
177.0384384457140072
  0
ARC
  5
3BFA7
  8
0
 10
2953.3082755144728253
 20
293.5265198721205024
 30
0.0
 40
0.6633473172586652
 50
177.3504500151954062
 51
180.8429925790242123
  0
LINE
  5
3BFA8
  8
0
 10
2952.6449999940641646
 20
293.5167603977641875
 30
0.0
 11
2952.6449999940641646
 21
275.9683261261449729
 31
0.0
  0
LINE
  5
3BFA9
  8
0
 10
2952.6449999940641646
 20
275.9529092888041077
 30
0.0
 11
2952.6449999940641646
 21
275.9487748658730766
 31
0.0
  0
LINE
  5
3BFAA
  8
0
 10
2952.8417486046641898
 20
294.5255221912619277
 30
0.0
 11
2952.8417486046641898
 21
293.8847103667700935
 31
0.0
  0
ARC
  5
3BFAB
  8
0
 10
2953.074053627646208
 20
293.5050701770110209
 30
0.0
 40
0.5058191431722049
 50
117.3396887197042986
 51
125.7121592609216947
  0
ARC
  5
3BFAC
  8
0
 10
2953.0732265769238438
 20
293.5062206245983134
 30
0.0
 40
0.5044022654259843
 50
125.7121592609216947
 51
148.2535780755029009
  0
ARC
  5
3BFAD
  8
0
 10
2953.0174721852608855
 20
293.5407176740973796
 30
0.0
 40
0.4388385665229022
 50
148.2535780755029009
 51
183.110857620795997
  0
ARC
  5
3BFAE
  8
0
 10
2953.1023986069390048
 20
293.5453332657169199
 30
0.0
 40
0.5238903200910752
 50
183.110857620795997
 51
201.2866561147828861
  0
ARC
  5
3BFAF
  8
0
 10
2952.9237573174777935
 20
293.4757318619425064
 30
0.0
 40
0.3321689970525811
 50
201.2866561147828861
 51
212.9439129870310978
  0
ARC
  5
3BFB0
  8
0
 10
2953.0671244044970081
 20
293.5008230718269147
 30
0.0
 40
0.4506972265824019
 50
120.0039275820531941
 51
141.5315476866958875
  0
ARC
  5
3BFB1
  8
0
 10
2953.0221631833410356
 20
293.5365464398744848
 30
0.0
 40
0.3932718799794401
 50
141.5315476866958875
 51
161.1616136842752951
  0
ARC
  5
3BFB2
  8
0
 10
2953.0250458617888398
 20
293.53556294046939
 30
0.0
 40
0.3963177142023609
 50
161.1616136842752951
 51
187.44820944383099
  0
ARC
  5
3BFB3
  8
0
 10
2953.0981384695969609
 20
293.5451185581217146
 30
0.0
 40
0.4700322931199173
 50
187.44820944383099
 51
195.4080300670516976
  0
LINE
  5
3BFB4
  8
0
 10
2958.9025527583457915
 20
292.7409558116551125
 30
0.0
 11
2965.2471250050762137
 21
292.3131014560145218
 31
0.0
  0
ARC
  5
3BFB5
  8
0
 10
2965.2275227417549104
 20
292.022423158138281
 30
0.0
 40
0.2913385000021585
 50
266.1420270143534026
 51
86.1420268879340796
  0
LINE
  5
3BFB6
  8
0
 10
2965.2079204790761651
 20
291.7317448602187824
 30
0.0
 11
2959.8546983908718175
 21
292.0927462363243876
 31
0.0
  0
LINE
  5
3BFB7
  8
0
 10
2952.6449999940641646
 20
275.9683261261449729
 30
0.0
 11
2954.5345510426759574
 21
275.9683261261449729
 31
0.0
  0
ARC
  5
3BFB8
  8
0
 10
2952.658265381181991
 20
275.8939937837836283
 30
0.0
 40
0.0122074904849578
 50
183.2690115911480007
 51
254.7659804495727087
  0
ARC
  5
3BFB9
  8
0
 10
2952.6739700218281541
 20
275.9805210831012232
 30
0.0
 40
0.1001084954835532
 50
259.110347573610909
 51
268.1496995426144281
  0
ARC
  5
3BFBA
  8
0
 10
2953.5597516770330913
 20
344.4419163026719843
 30
0.0
 40
68.567215053341954
 50
269.2571059475762922
 51
270.8021895576198972
  0
ARC
  5
3BFBB
  8
0
 10
2946.6361238693912128
 20
275.8042908183555824
 30
0.0
 40
6.0106129405952338
 50
0.8484830081929189
 51
1.3774175224944569
  0
ARC
  5
3BFBC
  8
0
 10
2952.6761660683991977
 20
275.9357097708042943
 30
0.0
 40
0.0355970168539972
 50
113.6137628526525987
 51
151.1071574076966897
  0
CIRCLE
  5
3BFBD
  8
0
 10
2952.0504008577759123
 20
276.5645701084450252
 30
0.0
 40
0.1332176238954719
  0
CIRCLE
  5
3BFBE
  8
0
 10
2955.1291410100830035
 20
276.5645701084450252
 30
0.0
 40
0.1332176238954719
  0
CIRCLE
  5
3BFBF
  8
0
 10
2953.5897562021750673
 20
277.4089485123449776
 30
0.0
 40
0.1124905040865352
  0
CIRCLE
  5
3BFC0
  8
0
 10
2953.5897562020559235
 20
276.5035707004352048
 30
0.0
 40
0.1124905040865352
  0
CIRCLE
  5
3BFC1
  8
0
 10
2953.5897888270760632
 20
275.4890874386449013
 30
0.0
 40
0.1308238606429608
  0
LINE
  5
3BFC2
  8
0
 10
2954.5345124100490466
 20
275.9529092888041077
 30
0.0
 11
2954.5345124100490466
 21
275.9487748658730766
 31
0.0
  0
ARC
  5
3BFC3
  8
0
 10
2954.521247022929856
 20
275.8939937837836283
 30
0.0
 40
0.0122074904849578
 50
285.2340195504273197
 51
356.7309884088519993
  0
ARC
  5
3BFC4
  8
0
 10
2954.5055423822841476
 20
275.9805210831012232
 30
0.0
 40
0.1001084954835532
 50
278.1414785892678765
 51
280.8896524263889773
  0
ARC
  5
3BFC5
  8
0
 10
2960.5433885347219984
 20
275.8042908183555824
 30
0.0
 40
6.0106129405952338
 50
178.6225824775054889
 51
179.1515169918071138
  0
ARC
  5
3BFC6
  8
0
 10
2954.5033463357131041
 20
275.9357097708042943
 30
0.0
 40
0.0355970168539972
 50
28.8928425923032606
 51
66.3862371473473587
  0
ARC
  5
3BFC9
  8
0
 10
2952.8496119720598472
 20
294.5251122838838
 30
0.0
 40
0.0078740436841655
 50
90.4961393770042406
 51
179.9997028505871128
  0
LINE
  5
3BFCA
  8
0
 10
2952.8495422497899199
 20
294.5329860188771249
 30
0.0
 11
2954.3300073716809493
 21
294.5329860188771249
 31
0.0
  0
ARC
  5
3BFCB
  8
0
 10
2954.3299305471209664
 20
294.5251145085048279
 30
0.0
 40
0.0078718852604887
 50
359.9840371261623773
 51
89.4408210006114786
  0
ARC
  5
3BFCC
  8
0
 10
2952.9836684720658013
 20
294.5132849248100229
 30
0.0
 40
0.024808689985594
 50
97.4580427595515744
 51
127.427718455125202
  0
ARC
  5
3BFCD
  8
0
 10
2954.1958909817399217
 20
294.5132849248100229
 30
0.0
 40
0.024808689985594
 50
52.5722815448747411
 51
82.5419572404484256
  0
ENDSEC
  0
EOF
