  0
SECTION
  2
HEADER
  9
$ACADVER
  1
AC1009
  9
$INSBASE
 10
2953.5908041201178094
 20
218.9242754707981931
 30
0.0
  9
$EXTMIN
 10
2946.6421401557117861
 20
206.8440626806278999
 30
0.0
  9
$EXTMAX
 10
2965.5199081297009798
 20
264.1249833724003793
 30
0.0
  9
$LIMMIN
 10
0.0
 20
0.0
  9
$LIMMAX
 10
11.6929133858000007
 20
8.2677165353999982
  9
$ORTHOMODE
 70
     0
  9
$REGENMODE
 70
     1
  9
$FILLMODE
 70
     1
  9
$QTEXTMODE
 70
     0
  9
$MIRRTEXT
 70
     0
  9
$DRAGMODE
 70
     2
  9
$LTSCALE
 40
0.6431102362
  9
$OSMODE
 70
  4095
  9
$ATTMODE
 70
     1
  9
$TEXTSIZE
 40
0.2
  9
$TRACEWID
 40
0.05
  9
$TEXTSTYLE
  7
STANDARD
  9
$CLAYER
  8
0
  9
$CELTYPE
  6
BYLAYER
  9
$CECOLOR
 62
   256
  9
$DIMSCALE
 40
1.0
  9
$DIMASZ
 40
0.1875
  9
$DIMEXO
 40
0.0625
  9
$DIMDLI
 40
0.4443307087
  9
$DIMRND
 40
0.0
  9
$DIMDLE
 40
0.0
  9
$DIMEXE
 40
0.125
  9
$DIMTP
 40
0.01
  9
$DIMTM
 40
0.01
  9
$DIMTXT
 40
2.0
  9
$DIMCEN
 40
0.1052362205
  9
$DIMTSZ
 40
0.0
  9
$DIMTOL
 70
     1
  9
$DIMLIM
 70
     0
  9
$DIMTIH
 70
     1
  9
$DIMTOH
 70
     1
  9
$DIMSE1
 70
     0
  9
$DIMSE2
 70
     0
  9
$DIMTAD
 70
     0
  9
$DIMZIN
 70
     0
  9
$DIMBLK
  1

  9
$DIMASO
 70
     1
  9
$DIMSHO
 70
     1
  9
$DIMPOST
  1
\X
  9
$DIMAPOST
  1

  9
$DIMALT
 70
     1
  9
$DIMALTD
 70
     2
  9
$DIMALTF
 40
25.3999999999999986
  9
$DIMLFAC
 40
1.0
  9
$DIMTOFL
 70
     0
  9
$DIMTVP
 40
0.0
  9
$DIMTIX
 70
     0
  9
$DIMSOXD
 70
     0
  9
$DIMSAH
 70
     0
  9
$DIMBLK1
  1

  9
$DIMBLK2
  1

  9
$DIMSTYLE
  2
STANDARD
  9
$DIMCLRD
 70
     0
  9
$DIMCLRE
 70
     0
  9
$DIMCLRT
 70
     0
  9
$DIMTFAC
 40
1.0
  9
$DIMGAP
 40
0.09
  9
$LUNITS
 70
     2
  9
$LUPREC
 70
     4
  9
$SKETCHINC
 40
0.1
  9
$FILLETRAD
 40
0.0
  9
$AUNITS
 70
     0
  9
$AUPREC
 70
     0
  9
$MENU
  1
.
  9
$ELEVATION
 40
0.0
  9
$PELEVATION
 40
0.0
  9
$THICKNESS
 40
0.0
  9
$LIMCHECK
 70
     0
  9
$BLIPMODE
 70
     0
  9
$CHAMFERA
 40
0.0
  9
$CHAMFERB
 40
0.0
  9
$SKPOLY
 70
     0
  9
$TDCREATE
 40
2458060.468368056230247
  9
$TDUPDATE
 40
2459426.5988078699447215
  9
$TDINDWG
 40
0.6982825231000001
  9
$TDUSRTIMER
 40
0.6982825231000001
  9
$USRTIMER
 70
     1
  9
$ANGBASE
 50
0.0
  9
$ANGDIR
 70
     0
  9
$PDMODE
 70
     0
  9
$PDSIZE
 40
0.3125
  9
$PLINEWID
 40
0.0
  9
$COORDS
 70
     1
  9
$SPLFRAME
 70
     0
  9
$SPLINETYPE
 70
     6
  9
$SPLINESEGS
 70
     8
  9
$ATTDIA
 70
     1
  9
$ATTREQ
 70
     1
  9
$HANDLING
 70
     1
  9
$HANDSEED
  5
3C7C1
  9
$SURFTAB1
 70
     6
  9
$SURFTAB2
 70
     6
  9
$SURFTYPE
 70
     6
  9
$SURFU
 70
     6
  9
$SURFV
 70
     6
  9
$UCSNAME
  2

  9
$UCSORG
 10
0.0
 20
0.0
 30
0.0
  9
$UCSXDIR
 10
1.0
 20
0.0
 30
0.0
  9
$UCSYDIR
 10
0.0
 20
1.0
 30
0.0
  9
$PUCSNAME
  2

  9
$PUCSORG
 10
0.0
 20
0.0
 30
0.0
  9
$PUCSXDIR
 10
1.0
 20
0.0
 30
0.0
  9
$PUCSYDIR
 10
0.0
 20
1.0
 30
0.0
  9
$USERI1
 70
     0
  9
$USERI2
 70
     0
  9
$USERI3
 70
     0
  9
$USERI4
 70
     0
  9
$USERI5
 70
     0
  9
$USERR1
 40
0.0
  9
$USERR2
 40
0.0
  9
$USERR3
 40
0.0
  9
$USERR4
 40
0.0
  9
$USERR5
 40
0.0
  9
$WORLDVIEW
 70
     1
  9
$SHADEDGE
 70
     3
  9
$SHADEDIF
 70
    70
  9
$TILEMODE
 70
     1
  9
$MAXACTVP
 70
    64
  9
$PLIMCHECK
 70
     0
  9
$PEXTMIN
 10
1.0000000000000000E+20
 20
1.0000000000000000E+20
 30
1.0000000000000000E+20
  9
$PEXTMAX
 10
-1.0000000000000000E+20
 20
-1.0000000000000000E+20
 30
-1.0000000000000000E+20
  9
$PLIMMIN
 10
0.0
 20
0.0
  9
$PLIMMAX
 10
12.0
 20
9.0
  9
$UNITMODE
 70
     0
  9
$VISRETAIN
 70
     1
  9
$PLINEGEN
 70
     0
  9
$PSLTSCALE
 70
     1
  0
ENDSEC
  0
SECTION
  2
TABLES
  0
TABLE
  2
VPORT
 70
     1
  0
VPORT
  2
*ACTIVE
 70
     0
 10
0.0
 20
0.0
 11
1.0
 21
1.0
 12
-347.5852534966106759
 22
40.2266916884872217
 13
0.0
 23
0.0
 14
1.0
 24
1.0
 15
0.0
 25
0.0
 16
0.0
 26
0.0
 36
96.5995694866707311
 17
3303.693115234375
 27
195.2615115758877096
 37
0.0
 40
57.7562219397535301
 41
2.5092105263157891
 42
50.0
 43
0.0
 44
0.0
 50
0.0
 51
0.0
 71
     0
 72
   100
 73
     1
 74
     1
 75
     0
 76
     0
 77
     0
 78
     0
  0
ENDTAB
  0
TABLE
  2
LTYPE
 70
     2
  0
LTYPE
  2
CONTINUOUS
 70
     0
  3
Solid line
 72
    65
 73
     0
 40
0.0
  0
LTYPE
  2
PHANTOM2
 70
     0
  3
___ _ _ ___ _ _ ___ _ _ ___ _ _
 72
    65
 73
     6
 40
1.25
 49
0.625
 49
-0.125
 49
0.125
 49
-0.125
 49
0.125
 49
-0.125
  0
ENDTAB
  0
TABLE
  2
LAYER
 70
     2
  0
LAYER
  2
0
 70
     0
 62
   255
  6
CONTINUOUS
  0
LAYER
  2
DEFPOINTS
 70
     0
 62
     7
  6
CONTINUOUS
  0
ENDTAB
  0
TABLE
  2
STYLE
 70
     1
  0
STYLE
  2
STANDARD
 70
     0
 40
0.0
 41
0.8
 50
0.0
 71
     0
 42
0.2
  3
txt
  4

  0
ENDTAB
  0
TABLE
  2
VIEW
 70
     0
  0
ENDTAB
  0
TABLE
  2
UCS
 70
     0
  0
ENDTAB
  0
TABLE
  2
APPID
 70
     9
  0
APPID
  2
ACAD
 70
     0
  0
APPID
  2
ACAD_MLEADERVER
 70
     0
  0
APPID
  2
ACAD_EXEMPT_FROM_CAD_STANDARDS
 70
     0
  0
APPID
  2
ACAD_NAV_VCDISPLAY
 70
     0
  0
APPID
  2
ACAECLAYERSTANDARD
 70
     0
  0
APPID
  2
ACCMTRANSPARENCY
 70
     0
  0
APPID
  2
ACAD_DSTYLE_DIMJAG
 70
     0
  0
APPID
  2
ACAD_DSTYLE_DIMTALN
 70
     0
  0
APPID
  2
ACDBATTR
 70
     0
  0
ENDTAB
  0
TABLE
  2
DIMSTYLE
 70
     1
  0
DIMSTYLE
  2
STANDARD
 70
     0
  3

  4

  5

  6

  7

 40
1.0
 41
0.1875
 42
0.0625
 43
0.38
 44
0.125
 45
0.0
 46
0.0
 47
0.01
 48
0.01
140
0.15625
141
0.09
142
0.0
143
25.3999999999999986
144
1.0
145
0.0
146
1.0
147
0.09
 71
     1
 72
     0
 73
     1
 74
     1
 75
     0
 76
     0
 77
     0
 78
     4
170
     0
171
     2
172
     0
173
     0
174
     0
175
     0
176
     0
177
     0
178
     0
  0
ENDTAB
  0
ENDSEC
  0
SECTION
  2
BLOCKS
  0
BLOCK
  8
0
  2
$MODEL_SPACE
 70
     0
 10
0.0
 20
0.0
 30
0.0
  3
$MODEL_SPACE
  1

  0
ENDBLK
  5
21
  8
0
  0
BLOCK
 67
     1
  8
0
  2
$PAPER_SPACE
 70
     0
 10
0.0
 20
0.0
 30
0.0
  3
$PAPER_SPACE
  1

  0
ENDBLK
  5
1D
 67
     1
  8
0
  0
BLOCK
  8
0
  2
_FILLED
 70
     0
 10
0.0
 20
0.0
 30
0.0
  3
_FILLED
  1

  0
SOLID
  5
3A30F
  8
0
  6
BYBLOCK
 62
     0
 10
0.0
 20
0.0
 30
0.0
 11
-1.0
 21
0.1666666667
 31
0.0
 12
-1.0
 22
-0.1666666667
 32
0.0
 13
-1.0
 23
-0.1666666667
 33
0.0
  0
ENDBLK
  5
3A310
  8
0
  6
BYBLOCK
 62
     0
  0
ENDSEC
  0
SECTION
  2
ENTITIES
  0
ATTDEF
  5
3B5A9
  8
DEFPOINTS
 10
2953.5913892813691746
 20
218.9286307649036019
 30
0.0
 40
0.001
  1
K-26332T-9
  3

  2
MODELNUMBER
 70
     0
1001
ACDBATTR
1070
     0
1070
     1
  0
ATTDEF
  5
3B5AA
  8
DEFPOINTS
 10
2953.5913892813691746
 20
218.9269640982369936
 30
0.0
 40
0.001
  1

  3

  2
TRADENAME
 70
     0
1001
ACDBATTR
1070
     0
1070
     1
  0
ATTDEF
  5
3B5AB
  8
DEFPOINTS
 10
2953.5913892813691746
 20
218.9252974315703
 30
0.0
 40
0.001
  1
BATH AND SHOWER FAUCET
  3

  2
PRODUCT
 70
     0
1001
ACDBATTR
1070
     0
1070
     1
  0
LINE
  5
3BF3E
  8
0
 10
2956.8554419532902102
 20
244.6590190200481061
 30
0.0
 11
2956.8554419532902102
 21
247.501251358148096
 31
0.0
  0
ARC
  5
3BF3F
  8
0
 10
2956.934418232247026
 20
244.0572123118716945
 30
0.0
 40
0.0121338171219106
 50
184.756753601952397
 51
268.5785028729251849
  0
ARC
  5
3BF40
  8
0
 10
2957.4312052012751337
 20
249.2180230932380027
 30
0.0
 40
3.081299919382757
 50
90.8230891490430139
 51
98.2134180696356083
  0
ARC
  5
3BF41
  8
0
 10
2950.5361550985398935
 20
243.4773150918418025
 30
0.0
 40
6.4123549680544647
 50
5.1795684234458426
 51
9.0280006441406577
  0
ARC
  5
3BF42
  8
0
 10
2958.1745602976129703
 20
244.6731952831792967
 30
0.0
 40
1.319194516651677
 50
180.6157209343438126
 51
188.2665523266493892
  0
ARC
  5
3BF43
  8
0
 10
2955.5392213916948094
 20
247.5176847115529029
 30
0.0
 40
1.3163231449275361
 50
359.2846845723923934
 51
5.3766221414495323
  0
ARC
  5
3BF44
  8
0
 10
2957.4134751322721968
 20
250.5365115033860093
 30
0.0
 40
2.9498497172183362
 50
258.9828999640665756
 51
269.4846314834732084
  0
ARC
  5
3BF45
  8
0
 10
2957.365117272615862
 20
250.1965497984276965
 30
0.0
 40
2.6069709017272178
 50
230.2779002223529119
 51
258.598267929073927
  0
ARC
  5
3BF46
  8
0
 10
2957.2541404634848732
 20
250.066017038996705
 30
0.0
 40
2.4356506518290861
 50
203.1479270891520059
 51
230.3235199715738872
  0
ARC
  5
3BF47
  8
0
 10
2957.9117696745161084
 20
250.1727156364059113
 30
0.0
 40
3.0864512422479642
 50
182.4202683205083133
 51
200.1687976398443141
  0
ARC
  5
3BF48
  8
0
 10
2957.7439936845908051
 20
250.1116986145736121
 30
0.0
 40
2.9167458733332379
 50
165.4780291637665073
 51
181.3618515892879941
  0
ARC
  5
3BF49
  8
0
 10
2957.3128316148158774
 20
250.1841004573647922
 30
0.0
 40
2.4814952730844109
 50
119.6024421323214
 51
164.6000111023585077
  0
ARC
  5
3BF4A
  8
0
 10
2957.5120427375641157
 20
249.5943567070191023
 30
0.0
 40
3.0949227424489618
 50
92.3166007232236865
 51
117.4153214188207954
  0
ARC
  5
3BF4B
  8
0
 10
2957.4568361483761691
 20
249.3134926889534029
 30
0.0
 40
3.1421056276856412
 50
91.2746142863493191
 51
106.1097787216940986
  0
ARC
  5
3BF4C
  8
0
 10
2957.3622682519239788
 20
249.8462508180645898
 30
0.0
 40
2.6046505867736331
 50
107.3631771402850035
 51
126.1241847555706954
  0
ARC
  5
3BF4D
  8
0
 10
2957.2966780853421369
 20
249.9364112406892957
 30
0.0
 40
2.4931564592616691
 50
126.1281619683549025
 51
143.8979499844326995
  0
ARC
  5
3BF4E
  8
0
 10
2957.2088799120961085
 20
250.0012489056535969
 30
0.0
 40
2.3840143736508361
 50
143.9136655760100041
 51
163.1337060941359027
  0
ARC
  5
3BF4F
  8
0
 10
2957.5924880463589943
 20
249.9531118201834943
 30
0.0
 40
2.7658572236151429
 50
164.4851647709674864
 51
178.1505041954987121
  0
ARC
  5
3BF50
  8
0
 10
2957.4900028859669874
 20
248.6684419141531919
 30
0.0
 40
3.7079387371608972
 50
91.5927223895144351
 51
99.0250607955886295
  0
ARC
  5
3BF51
  8
0
 10
2957.3781850326849963
 20
249.8180957537288975
 30
0.0
 40
2.5559335764155451
 50
100.5923813353412015
 51
117.0377301467384967
  0
ARC
  5
3BF52
  8
0
 10
2957.3378550033680767
 20
249.895808197787602
 30
0.0
 40
2.4683814920986871
 50
117.0238969414194941
 51
133.3404436924130891
  0
ARC
  5
3BF53
  8
0
 10
2957.254683152942107
 20
249.981120379408793
 30
0.0
 40
2.3492522305889909
 50
133.2931911691412949
 51
155.8625802836743901
  0
ARC
  5
3BF54
  8
0
 10
2957.1753155372998663
 20
250.0197925908391028
 30
0.0
 40
2.261011623854178
 50
155.9344333264455997
 51
175.9449741788924086
  0
ARC
  5
3BF55
  8
0
 10
2957.158360818707024
 20
250.0236204460767055
 30
0.0
 40
2.243830193773821
 50
176.0118582493244048
 51
196.3234614132360889
  0
ARC
  5
3BF56
  8
0
 10
2957.2214436282602037
 20
250.0448119008266872
 30
0.0
 40
2.310327688351911
 50
196.3881195298922933
 51
217.9919371222246127
  0
ARC
  5
3BF57
  8
0
 10
2957.3039941744091266
 20
250.1086193172114918
 30
0.0
 40
2.4146623074526432
 50
217.9794185961179096
 51
234.5016943037421129
  0
ARC
  5
3BF58
  8
0
 10
2957.3687121728039529
 20
250.2014335873344919
 30
0.0
 40
2.527806101565909
 50
234.5290353821098108
 51
256.2330703887241725
  0
ARC
  5
3BF59
  8
0
 10
2957.4370497244740363
 20
250.6789005135744048
 30
0.0
 40
3.0081898468339618
 50
257.1330562173160956
 51
269.0455733397560039
  0
ARC
  5
3BF5A
  8
0
 10
2957.37480998953788
 20
249.831727905269986
 30
0.0
 40
2.4660391232930161
 50
98.9536149556320055
 51
124.7182313052556992
  0
ARC
  5
3BF5B
  8
0
 10
2957.2921452496548227
 20
249.9496001659250055
 30
0.0
 40
2.322071679249047
 50
124.6981401799666003
 51
149.138979164849502
  0
ARC
  5
3BF5C
  8
0
 10
2957.1895925396979692
 20
250.012376224839187
 30
0.0
 40
2.2018379203727481
 50
149.1723568924548999
 51
177.2196176008530131
  0
ARC
  5
3BF5D
  8
0
 10
2957.1736668233029377
 20
250.0184017309979936
 30
0.0
 40
2.1856449631991399
 50
177.357136617707198
 51
206.7228150521895031
  0
ARC
  5
3BF5E
  8
0
 10
2957.2967336638280358
 20
250.085440903887104
 30
0.0
 40
2.3257175788303992
 50
206.8346326919626108
 51
242.4396813083598943
  0
ARC
  5
3BF5F
  8
0
 10
2957.3774429083828181
 20
250.213812506241112
 30
0.0
 40
2.4768946698977401
 50
242.1584990759317861
 51
258.6915948467968178
  0
ARC
  5
3BF60
  8
0
 10
2957.4688126958021712
 20
251.0808925024668099
 30
0.0
 40
3.3460245941908289
 50
260.0689700359214953
 51
268.5979433016124744
  0
ARC
  5
3BF61
  8
0
 10
2957.329225604371004
 20
250.0334999146504913
 30
0.0
 40
0.8056969216168138
 50
189.7997755671678988
 51
223.4670273811796903
  0
ARC
  5
3BF62
  8
0
 10
2957.373904611315993
 20
250.0752840526108969
 30
0.0
 40
0.8668685744533334
 50
223.4398852160734066
 51
251.9337135796307052
  0
ARC
  5
3BF63
  8
0
 10
2957.4039873416008959
 20
250.2167068214436085
 30
0.0
 40
1.0107633096828941
 50
252.7986569033230069
 51
269.0337252079422115
  0
ARC
  5
3BF64
  8
0
 10
2957.3085408631791324
 20
250.0599406276924981
 30
0.0
 40
0.7903679115568253
 50
154.5881896749274063
 51
191.9442841271500981
  0
ARC
  5
3BF65
  8
0
 10
2957.3523941063240272
 20
250.0365114531786048
 30
0.0
 40
0.8400354443196523
 50
123.0480194996389969
 51
154.4283160018661079
  0
ARC
  5
3BF66
  8
0
 10
2957.3825094164071743
 20
249.9923094895812881
 30
0.0
 40
0.8935100006630966
 50
100.9919011769137001
 51
123.1209862395935062
  0
ARC
  5
3BF67
  8
0
 10
2957.4544760242320081
 20
249.2750223534926874
 30
0.0
 40
1.612715742186247
 50
92.4000193779997829
 51
98.6421992861317563
  0
ARC
  5
3BF68
  8
0
 10
2957.3075661349689653
 20
250.0266580271062082
 30
0.0
 40
0.7831949273474637
 50
166.0537249764439025
 51
189.5762460696039113
  0
ARC
  5
3BF69
  8
0
 10
2957.333220831394101
 20
250.0175342436675123
 30
0.0
 40
0.8102967240177003
 50
135.9455673825133033
 51
165.8648065349059948
  0
ARC
  5
3BF6A
  8
0
 10
2957.3761301143240416
 20
249.9741155264113104
 30
0.0
 40
0.8713266543252586
 50
106.7680198630008022
 51
135.8556420707988082
  0
ARC
  5
3BF6B
  8
0
 10
2957.4402594312400652
 20
249.5823057653429942
 30
0.0
 40
1.266031413430029
 50
92.4136606382851369
 51
104.4306342398359959
  0
LINE
  5
3BF6C
  8
0
 10
2957.9184419532912216
 20
244.6590190200481061
 30
0.0
 11
2957.9184419532912216
 21
247.501251358148096
 31
0.0
  0
ARC
  5
3BF6D
  8
0
 10
2957.839465674333951
 20
244.0572123118716945
 30
0.0
 40
0.0121338171219101
 50
271.4214971270747014
 51
355.2432463980557031
  0
ARC
  5
3BF6E
  8
0
 10
2957.3426787053058433
 20
249.2180230932380027
 30
0.0
 40
3.081299919382757
 50
81.7865819303643775
 51
89.1769108509569861
  0
ARC
  5
3BF6F
  8
0
 10
2964.2377288080410835
 20
243.4773150918418025
 30
0.0
 40
6.4123549680544647
 50
170.9719993558593103
 51
174.8204315765541992
  0
ARC
  5
3BF70
  8
0
 10
2956.5993236089680067
 20
244.6731952831792967
 30
0.0
 40
1.319194516651677
 50
351.7334476733473139
 51
359.3842790656561874
  0
ARC
  5
3BF71
  8
0
 10
2959.2346625148861676
 20
247.5176847115529029
 30
0.0
 40
1.3163231449275361
 50
174.6233778585487926
 51
180.7153154276076066
  0
ARC
  5
3BF72
  8
0
 10
2957.3604087743087803
 20
250.5365115033860093
 30
0.0
 40
2.9498497172183362
 50
270.5153685165267916
 51
281.0171000359334244
  0
ARC
  5
3BF73
  8
0
 10
2957.408766633965115
 20
250.1965497984276965
 30
0.0
 40
2.6069709017272178
 50
281.401732070926073
 51
309.7220997776470881
  0
ARC
  5
3BF74
  8
0
 10
2957.5197434430970134
 20
250.066017038996705
 30
0.0
 40
2.4356506518290861
 50
309.6764800284261128
 51
336.8520729108464025
  0
ARC
  5
3BF75
  8
0
 10
2956.8621142320657782
 20
250.1727156364059113
 30
0.0
 40
3.0864512422479642
 50
339.8312023601556007
 51
357.579731679491772
  0
ARC
  5
3BF76
  8
0
 10
2957.0298902219910815
 20
250.1116986145736121
 30
0.0
 40
2.9167458733332379
 50
358.6381484107120059
 51
14.5219708362334607
  0
ARC
  5
3BF77
  8
0
 10
2957.4610522917650997
 20
250.1841004573647922
 30
0.0
 40
2.4814952730844109
 50
15.3999888976414994
 51
60.3975578676786213
  0
ARC
  5
3BF78
  8
0
 10
2957.2618411690182256
 20
249.5943567070191023
 30
0.0
 40
3.0949227424489729
 50
62.5846785811791833
 51
87.6833992767763561
  0
ARC
  5
3BF79
  8
0
 10
2957.3170477582048079
 20
249.3134926889534029
 30
0.0
 40
3.1421056276856412
 50
73.8902212783058872
 51
88.7253857136506667
  0
ARC
  5
3BF7A
  8
0
 10
2957.4116156546569982
 20
249.8462508180645898
 30
0.0
 40
2.6046505867736331
 50
53.8758152444293188
 51
72.6368228597149681
  0
ARC
  5
3BF7B
  8
0
 10
2957.4772058212388401
 20
249.9364112406892957
 30
0.0
 40
2.4931564592616691
 50
36.1020500155673432
 51
53.8718380316450691
  0
ARC
  5
3BF7C
  8
0
 10
2957.5650039944848686
 20
250.0012489056535969
 30
0.0
 40
2.3840143736508361
 50
16.8662939058641186
 51
36.0863344239899675
  0
ARC
  5
3BF7D
  8
0
 10
2957.1813958602228922
 20
249.9531118201834943
 30
0.0
 40
2.7658572236151429
 50
1.8494958045012611
 51
15.5148352290324905
  0
ARC
  5
3BF7E
  8
0
 10
2957.2838810206148992
 20
248.6684419141531919
 30
0.0
 40
3.7079387371608972
 50
80.9749392044113563
 51
88.4072776104855933
  0
ARC
  5
3BF7F
  8
0
 10
2957.3956988738950713
 20
249.8180957537288975
 30
0.0
 40
2.5559335764155451
 50
62.9622698532615033
 51
79.4076186646588411
  0
ARC
  5
3BF80
  8
0
 10
2957.4360289032129003
 20
249.895808197787602
 30
0.0
 40
2.4683814920986871
 50
46.6595563075868824
 51
62.9761030585804491
  0
ARC
  5
3BF81
  8
0
 10
2957.5192007536388701
 20
249.981120379408793
 30
0.0
 40
2.3492522305889909
 50
24.1374197163255602
 51
46.7068088308586482
  0
ARC
  5
3BF82
  8
0
 10
2957.5985683692811108
 20
250.0197925908391028
 30
0.0
 40
2.261011623854178
 50
4.0550258211059687
 51
24.0655666735529117
  0
ARC
  5
3BF83
  8
0
 10
2957.615523087873953
 20
250.0236204460767055
 30
0.0
 40
2.243830193773821
 50
343.6765385867639111
 51
3.9881417506739858
  0
ARC
  5
3BF84
  8
0
 10
2957.5524402783207734
 20
250.0448119008266872
 30
0.0
 40
2.310327688351911
 50
322.008062877775501
 51
343.6118804701076783
  0
ARC
  5
3BF85
  8
0
 10
2957.4698897321718505
 20
250.1086193172114918
 30
0.0
 40
2.4146623074526432
 50
305.4983056962569776
 51
322.0205814038820904
  0
ARC
  5
3BF86
  8
0
 10
2957.4051717337770242
 20
250.2014335873344919
 30
0.0
 40
2.527806101565909
 50
283.7669296112757138
 51
305.4709646178902744
  0
ARC
  5
3BF87
  8
0
 10
2957.3368341821069407
 20
250.6789005135744048
 30
0.0
 40
3.0081898468339618
 50
270.9544266602438825
 51
282.8669437826840181
  0
ARC
  5
3BF88
  8
0
 10
2957.399073917043097
 20
249.831727905269986
 30
0.0
 40
2.4660391232930161
 50
55.2817686947443292
 51
81.0463850443680087
  0
ARC
  5
3BF89
  8
0
 10
2957.4817386569261544
 20
249.9496001659250055
 30
0.0
 40
2.322071679249047
 50
30.8610208351519084
 51
55.3018598200333571
  0
ARC
  5
3BF8A
  8
0
 10
2957.5842913668830079
 20
250.012376224839187
 30
0.0
 40
2.2018379203727481
 50
2.7803823991469838
 51
30.8276431075451107
  0
ARC
  5
3BF8B
  8
0
 10
2957.6002170832780394
 20
250.0184017309979936
 30
0.0
 40
2.1856449631991399
 50
333.2771849478104969
 51
2.6428633822928198
  0
ARC
  5
3BF8C
  8
0
 10
2957.4771502427520318
 20
250.085440903887104
 30
0.0
 40
2.3257175788303992
 50
297.5603186916400773
 51
333.1653673080372755
  0
ARC
  5
3BF8D
  8
0
 10
2957.3964409981990684
 20
250.213812506241112
 30
0.0
 40
2.4768946698977401
 50
281.3084051532031822
 51
297.8415009240682139
  0
ARC
  5
3BF8E
  8
0
 10
2957.3050712107778963
 20
251.0808925024668099
 30
0.0
 40
3.3460245941908289
 50
271.4020566983875256
 51
279.931029964078391
  0
ARC
  5
3BF8F
  8
0
 10
2957.4446583022108825
 20
250.0334999146504913
 30
0.0
 40
0.8056969216168138
 50
316.5329726188203949
 51
350.2002244328303959
  0
ARC
  5
3BF90
  8
0
 10
2957.3999792952658936
 20
250.0752840526108969
 30
0.0
 40
0.8668685744533334
 50
288.0662864203692948
 51
316.5601147839265082
  0
ARC
  5
3BF91
  8
0
 10
2957.3698965649809907
 20
250.2167068214436085
 30
0.0
 40
1.0107633096828941
 50
270.9662747920579022
 51
287.2013430966770215
  0
ARC
  5
3BF92
  8
0
 10
2957.4653430434018446
 20
250.0599406276924981
 30
0.0
 40
0.7903679115568253
 50
348.0557158728498734
 51
25.4118103250726115
  0
ARC
  5
3BF93
  8
0
 10
2957.4214898002569498
 20
250.0365114531786048
 30
0.0
 40
0.8400354443196523
 50
25.5716839981338602
 51
56.9519805003609818
  0
ARC
  5
3BF94
  8
0
 10
2957.3913744901738028
 20
249.9923094895812881
 30
0.0
 40
0.8935100006630966
 50
56.8790137604064228
 51
79.0080988230862431
  0
ARC
  5
3BF95
  8
0
 10
2957.319407882348969
 20
249.2750223534926874
 30
0.0
 40
1.612715742186247
 50
81.3578007138682437
 51
87.5999806220002455
  0
ARC
  5
3BF96
  8
0
 10
2957.4663177716129212
 20
250.0266580271062082
 30
0.0
 40
0.7831949273474637
 50
350.4237539303960034
 51
13.9462750235560993
  0
ARC
  5
3BF97
  8
0
 10
2957.4406630751868761
 20
250.0175342436675123
 30
0.0
 40
0.8102967240177003
 50
14.1351934650939803
 51
44.0544326174866683
  0
ARC
  5
3BF98
  8
0
 10
2957.3977537922569354
 20
249.9741155264113104
 30
0.0
 40
0.8713266543252586
 50
44.1443579292012203
 51
73.2319801369991268
  0
ARC
  5
3BF99
  8
0
 10
2957.3336244753409119
 20
249.5823057653429942
 30
0.0
 40
1.266031413430029
 50
75.5693657601639899
 51
87.5863393617149057
  0
ARC
  5
3BF9A
  8
0
 10
2955.9228635123531603
 20
250.7094366279355881
 30
0.0
 40
0.0796207654095198
 50
13.5285838925177604
 51
83.1720255674712234
  0
ARC
  5
3BF9B
  8
0
 10
2955.919668834183085
 20
250.7137508865012876
 30
0.0
 40
0.0818668598602546
 50
315.7375309694792804
 51
10.0678259786158595
  0
ARC
  5
3BF9C
  8
0
 10
2955.9035898944039218
 20
250.7256873509298885
 30
0.0
 40
0.101747946844879
 50
244.4350516746125095
 51
317.2434380599622159
  0
ARC
  5
3BF9D
  8
0
 10
2955.8927270515391683
 20
250.6999813663254031
 30
0.0
 40
0.0738823044496772
 50
161.2402122011914969
 51
243.4317579259547983
  0
ARC
  5
3BF9E
  8
0
 10
2955.9175744737408422
 20
250.688394294554513
 30
0.0
 40
0.1011800387555695
 50
81.6146726773545339
 51
159.5521557376007991
  0
ARC
  5
3BF9F
  8
0
 10
2955.8958584109068397
 20
250.6925996202315901
 30
0.0
 40
0.0596684302398596
 50
23.1628839707462184
 51
99.8117291563225706
  0
ARC
  5
3BFA0
  8
0
 10
2955.8997434365710433
 20
250.695644512523387
 30
0.0
 40
0.0549135951803018
 50
301.5735714047057741
 51
21.8363327413968094
  0
ARC
  5
3BFA1
  8
0
 10
2955.8954174109758242
 20
250.7007156071763916
 30
0.0
 40
0.0615077171455392
 50
225.0596149092596931
 51
302.5335012414682865
  0
ARC
  5
3BFA2
  8
0
 10
2955.8902997297991533
 20
250.6956292012235963
 30
0.0
 40
0.054292372937462
 50
151.023957870017199
 51
225.09087593200789
  0
ARC
  5
3BFA3
  8
0
 10
2955.8944074617838851
 20
250.6927631626273012
 30
0.0
 40
0.0592766008223859
 50
98.4565913926407035
 51
150.5239291439617091
  0
ARC
  5
3BFA4
  8
0
 10
2955.8953909892270531
 20
250.6927931394087921
 30
0.0
 40
0.0223046072561604
 50
33.549192768888453
 51
145.329165913642413
  0
ARC
  5
3BFA5
  8
0
 10
2955.8954023383098502
 20
250.696169319390691
 30
0.0
 40
0.0223474279581275
 50
216.9440925052414002
 51
320.5708602965568161
  0
ARC
  5
3BFA6
  8
0
 10
2955.8936113323370591
 20
250.694464558852502
 30
0.0
 40
0.0198934507250523
 50
146.3725643927868134
 51
216.12027512065319
  0
ARC
  5
3BFA7
  8
0
 10
2955.8973362703977728
 20
250.6944569808213998
 30
0.0
 40
0.0197663169968197
 50
320.8443294098831871
 51
32.6459342234488119
  0
ARC
  5
3BFA8
  8
0
 10
2956.1749925747808447
 20
251.083195317104213
 30
0.0
 40
0.0796207654095198
 50
13.5285838925177604
 51
83.1720255674712234
  0
ARC
  5
3BFA9
  8
0
 10
2956.1717978966112241
 20
251.0875095756699125
 30
0.0
 40
0.0818668598602546
 50
315.7375309694792804
 51
10.0678259786158595
  0
ARC
  5
3BFAA
  8
0
 10
2956.1557189568320609
 20
251.0994460400983996
 30
0.0
 40
0.101747946844879
 50
244.4350516746125095
 51
317.2434380599622159
  0
ARC
  5
3BFAB
  8
0
 10
2956.1448561139668527
 20
251.0737400554939995
 30
0.0
 40
0.0738823044496772
 50
161.2402122011914969
 51
243.4317579259547983
  0
ARC
  5
3BFAC
  8
0
 10
2956.1697035361689814
 20
251.0621529837231094
 30
0.0
 40
0.1011800387555695
 50
81.6146726773545339
 51
159.5521557376007991
  0
ARC
  5
3BFAD
  8
0
 10
2956.1479874733349789
 20
251.0663583094001012
 30
0.0
 40
0.0596684302398596
 50
23.1628839707462184
 51
99.8117291563225706
  0
ARC
  5
3BFAE
  8
0
 10
2956.1518724989991824
 20
251.0694032016920119
 30
0.0
 40
0.0549135951803018
 50
301.5735714047057741
 51
21.8363327413968094
  0
ARC
  5
3BFAF
  8
0
 10
2956.1475464734039633
 20
251.0744742963449028
 30
0.0
 40
0.0615077171455392
 50
225.0596149092596931
 51
302.5335012414682865
  0
ARC
  5
3BFB0
  8
0
 10
2956.1424287922282019
 20
251.0693878903921075
 30
0.0
 40
0.054292372937462
 50
151.023957870017199
 51
225.09087593200789
  0
ARC
  5
3BFB1
  8
0
 10
2956.1465365242120242
 20
251.0665218517958976
 30
0.0
 40
0.0592766008223859
 50
98.4565913926407035
 51
150.5239291439617091
  0
ARC
  5
3BFB2
  8
0
 10
2956.1475200516561017
 20
251.0665518285773885
 30
0.0
 40
0.0223046072561604
 50
33.549192768888453
 51
145.329165913642413
  0
ARC
  5
3BFB3
  8
0
 10
2956.1475314007379893
 20
251.0699280085592875
 30
0.0
 40
0.0223474279581275
 50
216.9440925052414002
 51
320.5708602965568161
  0
ARC
  5
3BFB4
  8
0
 10
2956.1457403947651983
 20
251.0682232480210985
 30
0.0
 40
0.0198934507250523
 50
146.3725643927868134
 51
216.12027512065319
  0
ARC
  5
3BFB5
  8
0
 10
2956.1494653328259119
 20
251.0682156699899963
 30
0.0
 40
0.0197663169968197
 50
320.8443294098831871
 51
32.6459342234488119
  0
ARC
  5
3BFB6
  8
0
 10
2956.5261360928288923
 20
251.3716688202939906
 30
0.0
 40
0.0796207654095198
 50
13.5285838925177604
 51
83.1720255674712234
  0
ARC
  5
3BFB7
  8
0
 10
2956.5229414146601812
 20
251.3759830788596901
 30
0.0
 40
0.0818668598602546
 50
315.7375309694792804
 51
10.0678259786158595
  0
ARC
  5
3BFB8
  8
0
 10
2956.506862474881018
 20
251.3879195432882057
 30
0.0
 40
0.101747946844879
 50
244.4350516746125095
 51
317.2434380599622159
  0
ARC
  5
3BFB9
  8
0
 10
2956.4959996320149003
 20
251.3622135586836919
 30
0.0
 40
0.0738823044496772
 50
161.2402122011914969
 51
243.4317579259547983
  0
ARC
  5
3BFBA
  8
0
 10
2956.5208470542170289
 20
251.3506264869128017
 30
0.0
 40
0.1011800387555695
 50
81.6146726773545339
 51
159.5521557376007991
  0
ARC
  5
3BFBB
  8
0
 10
2956.4991309913830264
 20
251.3548318125899073
 30
0.0
 40
0.0596684302398596
 50
23.1628839707462184
 51
99.8117291563225706
  0
ARC
  5
3BFBC
  8
0
 10
2956.5030160170467752
 20
251.3578767048817895
 30
0.0
 40
0.0549135951803018
 50
301.5735714047057741
 51
21.8363327413968094
  0
ARC
  5
3BFBD
  8
0
 10
2956.4986899914520109
 20
251.3629477995347088
 30
0.0
 40
0.0615077171455392
 50
225.0596149092596931
 51
302.5335012414682865
  0
ARC
  5
3BFBE
  8
0
 10
2956.4935723102757947
 20
251.3578613935819988
 30
0.0
 40
0.054292372937462
 50
151.023957870017199
 51
225.09087593200789
  0
ARC
  5
3BFBF
  8
0
 10
2956.4976800422591623
 20
251.3549953549857037
 30
0.0
 40
0.0592766008223859
 50
98.4565913926407035
 51
150.5239291439617091
  0
ARC
  5
3BFC0
  8
0
 10
2956.498663569702785
 20
251.3550253317671093
 30
0.0
 40
0.0223046072561604
 50
33.549192768888453
 51
145.329165913642413
  0
ARC
  5
3BFC1
  8
0
 10
2956.4986749187851274
 20
251.3584015117490935
 30
0.0
 40
0.0223474279581275
 50
216.9440925052414002
 51
320.5708602965568161
  0
ARC
  5
3BFC2
  8
0
 10
2956.4968839128127911
 20
251.3566967512109045
 30
0.0
 40
0.0198934507250523
 50
146.3725643927868134
 51
216.12027512065319
  0
ARC
  5
3BFC3
  8
0
 10
2956.5006088508748689
 20
251.3566891731798023
 30
0.0
 40
0.0197663169968197
 50
320.8443294098831871
 51
32.6459342234488119
  0
ARC
  5
3BFC4
  8
0
 10
2956.9415619650199005
 20
251.5417254077997882
 30
0.0
 40
0.0796207654095198
 50
13.5285838925193396
 51
83.1720255674712234
  0
ARC
  5
3BFC5
  8
0
 10
2956.9383672868511894
 20
251.5460396663654876
 30
0.0
 40
0.0818668598602546
 50
315.7375309694792804
 51
10.0678259786158595
  0
ARC
  5
3BFC6
  8
0
 10
2956.9222883470720262
 20
251.5579761307940032
 30
0.0
 40
0.101747946844879
 50
244.4350516746125095
 51
317.2434380599622159
  0
ARC
  5
3BFC7
  8
0
 10
2956.9114255042059085
 20
251.5322701461894894
 30
0.0
 40
0.0738823044496772
 50
161.2402122011914969
 51
243.4317579259547983
  0
ARC
  5
3BFC8
  8
0
 10
2956.9362729264080372
 20
251.520683074418713
 30
0.0
 40
0.1011800387555695
 50
81.6146726773545339
 51
159.5521557376007991
  0
ARC
  5
3BFC9
  8
0
 10
2956.9145568635740347
 20
251.5248884000957048
 30
0.0
 40
0.0596684302398596
 50
23.1628839707462184
 51
99.8117291563225706
  0
ARC
  5
3BFCA
  8
0
 10
2956.9184418892377835
 20
251.527933292387587
 30
0.0
 40
0.0549135951803018
 50
301.5735714047057741
 51
21.8363327413968094
  0
ARC
  5
3BFCB
  8
0
 10
2956.9141158636430191
 20
251.5330043870405916
 30
0.0
 40
0.0615077171455392
 50
225.0596149092596931
 51
302.5335012414682865
  0
ARC
  5
3BFCC
  8
0
 10
2956.908998182466803
 20
251.527917981087711
 30
0.0
 40
0.054292372937462
 50
151.023957870017199
 51
225.09087593200789
  0
ARC
  5
3BFCD
  8
0
 10
2956.91310591445108
 20
251.5250519424915012
 30
0.0
 40
0.0592766008223859
 50
98.4565913926407035
 51
150.5239291439617091
  0
ARC
  5
3BFCE
  8
0
 10
2956.9140894418951575
 20
251.5250819192729921
 30
0.0
 40
0.0223046072561604
 50
33.549192768888453
 51
145.329165913642413
  0
ARC
  5
3BFCF
  8
0
 10
2956.9141007909770451
 20
251.5284580992548911
 30
0.0
 40
0.0223474279581275
 50
216.9440925052414002
 51
320.5708602965568161
  0
ARC
  5
3BFD0
  8
0
 10
2956.9123097850037993
 20
251.526753338716702
 30
0.0
 40
0.0198934507250523
 50
146.3725643927868134
 51
216.12027512065319
  0
ARC
  5
3BFD1
  8
0
 10
2956.9160347230649677
 20
251.5267457606855999
 30
0.0
 40
0.0197663169968197
 50
320.8443294098831871
 51
32.6459342234488119
  0
ARC
  5
3BFD2
  8
0
 10
2957.2121259305299645
 20
251.1863585633819866
 30
0.0
 40
0.0796207654095198
 50
13.5285838925177604
 51
83.1720255674712234
  0
ARC
  5
3BFD3
  8
0
 10
2957.2089312523598892
 20
251.1906728219476861
 30
0.0
 40
0.0818668598602546
 50
315.7375309694792804
 51
10.0678259786158595
  0
ARC
  5
3BFD4
  8
0
 10
2957.1928523125811807
 20
251.2026092863762017
 30
0.0
 40
0.101747946844879
 50
244.4350516746125095
 51
317.2434380599622159
  0
ARC
  5
3BFD5
  8
0
 10
2957.1819894697159725
 20
251.1769033017718016
 30
0.0
 40
0.0738823044496772
 50
161.2402122011914969
 51
243.4317579259547983
  0
ARC
  5
3BFD6
  8
0
 10
2957.2068368919181012
 20
251.1653162300009114
 30
0.0
 40
0.1011800387555695
 50
81.6146726773545339
 51
159.5521557376007991
  0
ARC
  5
3BFD7
  8
0
 10
2957.1851208290840987
 20
251.1695215556779033
 30
0.0
 40
0.0596684302398596
 50
23.1628839707462184
 51
99.8117291563225706
  0
ARC
  5
3BFD8
  8
0
 10
2957.189005854746938
 20
251.1725664479698139
 30
0.0
 40
0.0549135951803018
 50
301.5735714047057741
 51
21.8363327413968094
  0
ARC
  5
3BFD9
  8
0
 10
2957.1846798291530831
 20
251.1776375426227901
 30
0.0
 40
0.0615077171455392
 50
225.0596149092596931
 51
302.5335012414682865
  0
ARC
  5
3BFDA
  8
0
 10
2957.179562147976867
 20
251.1725511366699948
 30
0.0
 40
0.054292372937462
 50
151.023957870017199
 51
225.09087593200789
  0
ARC
  5
3BFDB
  8
0
 10
2957.1836698799597798
 20
251.1696850980736997
 30
0.0
 40
0.0592766008223859
 50
98.4565913926407035
 51
150.5239291439617091
  0
ARC
  5
3BFDC
  8
0
 10
2957.1846534074038573
 20
251.1697150748551906
 30
0.0
 40
0.0223046072561604
 50
33.549192768888453
 51
145.329165913642413
  0
ARC
  5
3BFDD
  8
0
 10
2957.1846647564861996
 20
251.1730912548370895
 30
0.0
 40
0.0223474279581275
 50
216.9440925052414002
 51
320.5708602965568161
  0
ARC
  5
3BFDE
  8
0
 10
2957.1828737505138633
 20
251.1713864942989005
 30
0.0
 40
0.0198934507250523
 50
146.3725643927868134
 51
216.12027512065319
  0
ARC
  5
3BFDF
  8
0
 10
2957.1865986885750317
 20
251.1713789162677983
 30
0.0
 40
0.0197663169968197
 50
320.8443294098831871
 51
32.6459342234488119
  0
ARC
  5
3BFE0
  8
0
 10
2957.1036242602258426
 20
252.0117550739767012
 30
0.0
 40
0.0796207654095198
 50
13.5285838925193396
 51
83.1720255674712234
  0
ARC
  5
3BFE1
  8
0
 10
2957.100429582056222
 20
252.0160693325424006
 30
0.0
 40
0.0818668598602546
 50
315.7375309694792804
 51
10.0678259786158595
  0
ARC
  5
3BFE2
  8
0
 10
2957.0843506422770588
 20
252.0280057969708878
 30
0.0
 40
0.101747946844879
 50
244.4350516746125095
 51
317.2434380599622159
  0
ARC
  5
3BFE3
  8
0
 10
2957.0734877994118506
 20
252.0022998123664877
 30
0.0
 40
0.0738823044496772
 50
161.2402122011914969
 51
243.4317579259547983
  0
ARC
  5
3BFE4
  8
0
 10
2957.0983352216139792
 20
251.9907127405955976
 30
0.0
 40
0.1011800387555695
 50
81.6146726773545339
 51
159.5521557376007991
  0
ARC
  5
3BFE5
  8
0
 10
2957.0766191587799767
 20
251.9949180662725894
 30
0.0
 40
0.0596684302398596
 50
23.1628839707462184
 51
99.8117291563225706
  0
ARC
  5
3BFE6
  8
0
 10
2957.0805041844441803
 20
251.9979629585645
 30
0.0
 40
0.0549135951803018
 50
301.5735714047057741
 51
21.8363327413968094
  0
ARC
  5
3BFE7
  8
0
 10
2957.0761781588489612
 20
252.0030340532175046
 30
0.0
 40
0.0615077171455392
 50
225.0596149092596931
 51
302.5335012414682865
  0
ARC
  5
3BFE8
  8
0
 10
2957.0710604776731998
 20
251.9979476472647093
 30
0.0
 40
0.054292372937462
 50
151.023957870017199
 51
225.09087593200789
  0
ARC
  5
3BFE9
  8
0
 10
2957.0751682096561126
 20
251.9950816086684995
 30
0.0
 40
0.0592766008223859
 50
98.4565913926407035
 51
150.5239291439617091
  0
ARC
  5
3BFEA
  8
0
 10
2957.0761517371001901
 20
251.9951115854499051
 30
0.0
 40
0.0223046072561604
 50
33.549192768888453
 51
145.329165913642413
  0
ARC
  5
3BFEB
  8
0
 10
2957.0761630861829872
 20
251.9984877654318041
 30
0.0
 40
0.0223474279581275
 50
216.9440925052414002
 51
320.5708602965568161
  0
ARC
  5
3BFEC
  8
0
 10
2957.0743720802088319
 20
251.9967830048935866
 30
0.0
 40
0.0198934507250523
 50
146.3725643927868134
 51
216.12027512065319
  0
ARC
  5
3BFED
  8
0
 10
2957.0780970182718193
 20
251.9967754268625129
 30
0.0
 40
0.0197663169968197
 50
320.8443294098831871
 51
32.6459342234488119
  0
ARC
  5
3BFEE
  8
0
 10
2956.5366480326929377
 20
251.8544048717376995
 30
0.0
 40
0.0796207654095198
 50
13.5285838925193396
 51
83.1720255674712234
  0
ARC
  5
3BFEF
  8
0
 10
2956.5334533545228624
 20
251.8587191303033137
 30
0.0
 40
0.0818668598602546
 50
315.7375309694792804
 51
10.0678259786158595
  0
ARC
  5
3BFF0
  8
0
 10
2956.5173744147441539
 20
251.8706555947318009
 30
0.0
 40
0.101747946844879
 50
244.4350516746125095
 51
317.2434380599622159
  0
ARC
  5
3BFF1
  8
0
 10
2956.5065115718789457
 20
251.8449496101272871
 30
0.0
 40
0.0738823044496772
 50
161.2402122011914969
 51
243.4317579259547983
  0
ARC
  5
3BFF2
  8
0
 10
2956.5313589940810743
 20
251.8333625383565106
 30
0.0
 40
0.1011800387555695
 50
81.6146726773545339
 51
159.5521557376007991
  0
ARC
  5
3BFF3
  8
0
 10
2956.5096429312461623
 20
251.8375678640335025
 30
0.0
 40
0.0596684302398596
 50
23.1628839707462184
 51
99.8117291563225706
  0
ARC
  5
3BFF4
  8
0
 10
2956.5135279569108206
 20
251.8406127563254131
 30
0.0
 40
0.0549135951803018
 50
301.5735714047057741
 51
21.8363327413968094
  0
ARC
  5
3BFF5
  8
0
 10
2956.5092019313160563
 20
251.8456838509783893
 30
0.0
 40
0.0615077171455392
 50
225.0596149092596931
 51
302.5335012414682865
  0
ARC
  5
3BFF6
  8
0
 10
2956.5040842501389307
 20
251.840597445025594
 30
0.0
 40
0.054292372937462
 50
151.023957870017199
 51
225.09087593200789
  0
ARC
  5
3BFF7
  8
0
 10
2956.5081919821232077
 20
251.8377314064292989
 30
0.0
 40
0.0592766008223859
 50
98.4565913926407035
 51
150.5239291439617091
  0
ARC
  5
3BFF8
  8
0
 10
2956.5091755095668304
 20
251.8377613832107045
 30
0.0
 40
0.0223046072561604
 50
33.549192768888453
 51
145.329165913642413
  0
ARC
  5
3BFF9
  8
0
 10
2956.5091868586491728
 20
251.8411375631926887
 30
0.0
 40
0.0223474279581275
 50
216.9440925052414002
 51
320.5708602965568161
  0
ARC
  5
3BFFA
  8
0
 10
2956.507395852675927
 20
251.8394328026544997
 30
0.0
 40
0.0198934507250523
 50
146.3725643927868134
 51
216.12027512065319
  0
ARC
  5
3BFFB
  8
0
 10
2956.5111207907380049
 20
251.8394252246233975
 30
0.0
 40
0.0197663169968197
 50
320.8443294098831871
 51
32.6459342234488119
  0
ARC
  5
3BFFC
  8
0
 10
2956.0298853571198379
 20
251.5459553386884863
 30
0.0
 40
0.0796207654095198
 50
13.5285838925193396
 51
83.1720255674712234
  0
ARC
  5
3BFFD
  8
0
 10
2956.0266906789502173
 20
251.5502695972542142
 30
0.0
 40
0.0818668598602546
 50
315.7375309694792804
 51
10.0678259786158595
  0
ARC
  5
3BFFE
  8
0
 10
2956.0106117391719636
 20
251.5622060616827014
 30
0.0
 40
0.101747946844879
 50
244.4350516746125095
 51
317.2434380599622159
  0
ARC
  5
3BFFF
  8
0
 10
2955.9997488963058458
 20
251.5365000770783013
 30
0.0
 40
0.0738823044496772
 50
161.2402122011914969
 51
243.4317579259547983
  0
ARC
  5
3C000
  8
0
 10
2956.0245963185079745
 20
251.5249130053074111
 30
0.0
 40
0.1011800387555695
 50
81.6146726773545339
 51
159.5521557376007991
  0
ARC
  5
3C001
  8
0
 10
2956.002880255673972
 20
251.5291183309844882
 30
0.0
 40
0.0596684302398596
 50
23.1628839707462184
 51
99.8117291563225706
  0
ARC
  5
3C002
  8
0
 10
2956.0067652813381756
 20
251.5321632232763136
 30
0.0
 40
0.0549135951803018
 50
301.5735714047057741
 51
21.8363327413968094
  0
ARC
  5
3C003
  8
0
 10
2956.0024392557429564
 20
251.5372343179292898
 30
0.0
 40
0.0615077171455392
 50
225.0596149092596931
 51
302.5335012414682865
  0
ARC
  5
3C004
  8
0
 10
2955.9973215745671951
 20
251.5321479119764945
 30
0.0
 40
0.054292372937462
 50
151.023957870017199
 51
225.09087593200789
  0
ARC
  5
3C005
  8
0
 10
2956.0014293065510174
 20
251.5292818733801994
 30
0.0
 40
0.0592766008223859
 50
98.4565913926407035
 51
150.5239291439617091
  0
ARC
  5
3C006
  8
0
 10
2956.0024128339941853
 20
251.5293118501616902
 30
0.0
 40
0.0223046072561604
 50
33.549192768888453
 51
145.329165913642413
  0
ARC
  5
3C007
  8
0
 10
2956.0024241830769824
 20
251.5326880301435892
 30
0.0
 40
0.0223474279581275
 50
216.9440925052414002
 51
320.5708602965568161
  0
ARC
  5
3C008
  8
0
 10
2956.0006331771041914
 20
251.5309832696054002
 30
0.0
 40
0.0198934507250523
 50
146.3725643927868134
 51
216.12027512065319
  0
ARC
  5
3C009
  8
0
 10
2956.0043581151658145
 20
251.530975691574298
 30
0.0
 40
0.0197663169968197
 50
320.8443294098831871
 51
32.6459342234488119
  0
ARC
  5
3C00A
  8
0
 10
2955.6381101847978243
 20
251.1142821521505937
 30
0.0
 40
0.0796207654095198
 50
13.5285838925177604
 51
83.1720255674712234
  0
ARC
  5
3C00B
  8
0
 10
2955.6349155066282037
 20
251.1185964107162931
 30
0.0
 40
0.0818668598602546
 50
315.7375309694792804
 51
10.0678259786158595
  0
ARC
  5
3C00C
  8
0
 10
2955.61883656684995
 20
251.1305328751448087
 30
0.0
 40
0.101747946844879
 50
244.4350516746125095
 51
317.2434380599622159
  0
ARC
  5
3C00D
  8
0
 10
2955.6079737239851966
 20
251.1048268905402949
 30
0.0
 40
0.0738823044496772
 50
161.2402122011914969
 51
243.4317579259547983
  0
ARC
  5
3C00E
  8
0
 10
2955.6328211461868705
 20
251.0932398187694901
 30
0.0
 40
0.1011800387555695
 50
81.6146726773545339
 51
159.5521557376007991
  0
ARC
  5
3C00F
  8
0
 10
2955.611105083352868
 20
251.0974451444465103
 30
0.0
 40
0.0596684302398596
 50
23.1628839707462184
 51
99.8117291563225706
  0
ARC
  5
3C010
  8
0
 10
2955.614990109016162
 20
251.1004900367383925
 30
0.0
 40
0.0549135951803018
 50
301.5735714047057741
 51
21.8363327413968094
  0
ARC
  5
3C011
  8
0
 10
2955.6106640834218524
 20
251.1055611313913118
 30
0.0
 40
0.0615077171455392
 50
225.0596149092596931
 51
302.5335012414682865
  0
ARC
  5
3C012
  8
0
 10
2955.605546402246091
 20
251.1004747254386018
 30
0.0
 40
0.054292372937462
 50
151.023957870017199
 51
225.09087593200789
  0
ARC
  5
3C013
  8
0
 10
2955.6096541342290038
 20
251.0976086868423067
 30
0.0
 40
0.0592766008223859
 50
98.4565913926407035
 51
150.5239291439617091
  0
ARC
  5
3C014
  8
0
 10
2955.6106376616730813
 20
251.0976386636237976
 30
0.0
 40
0.0223046072561604
 50
33.549192768888453
 51
145.329165913642413
  0
ARC
  5
3C015
  8
0
 10
2955.6106490107549689
 20
251.1010148436056113
 30
0.0
 40
0.0223474279581275
 50
216.9440925052414002
 51
320.5708602965568161
  0
ARC
  5
3C016
  8
0
 10
2955.6088580047830874
 20
251.0993100830673939
 30
0.0
 40
0.0198934507250523
 50
146.3725643927868134
 51
216.12027512065319
  0
ARC
  5
3C017
  8
0
 10
2955.612582942843801
 20
251.0993025050364054
 30
0.0
 40
0.0197663169968197
 50
320.8443294098831871
 51
32.6459342234488119
  0
ARC
  5
3C018
  8
0
 10
2955.3867898557509761
 20
250.5934848556393035
 30
0.0
 40
0.0796207654095198
 50
13.5285838925177604
 51
83.1720255674712234
  0
ARC
  5
3C019
  8
0
 10
2955.3835951775809008
 20
250.5977991142050882
 30
0.0
 40
0.0818668598602546
 50
315.7375309694792804
 51
10.0678259786158595
  0
ARC
  5
3C01A
  8
0
 10
2955.3675162378031018
 20
250.6097355786336038
 30
0.0
 40
0.101747946844879
 50
244.4350516746125095
 51
317.2434380599622159
  0
ARC
  5
3C01B
  8
0
 10
2955.3566533949360746
 20
250.58402959402909
 30
0.0
 40
0.0738823044496772
 50
161.2402122011914969
 51
243.4317579259547983
  0
ARC
  5
3C01C
  8
0
 10
2955.3815008171391128
 20
250.5724425222583136
 30
0.0
 40
0.1011800387555695
 50
81.6146726773545339
 51
159.5521557376007991
  0
ARC
  5
3C01D
  8
0
 10
2955.3597847543042008
 20
250.5766478479353054
 30
0.0
 40
0.0596684302398596
 50
23.1628839707462184
 51
99.8117291563225706
  0
ARC
  5
3C01E
  8
0
 10
2955.3636697799679496
 20
250.5796927402271876
 30
0.0
 40
0.0549135951803018
 50
301.5735714047057741
 51
21.8363327413968094
  0
ARC
  5
3C01F
  8
0
 10
2955.3593437543740947
 20
250.584763834880107
 30
0.0
 40
0.0615077171455392
 50
225.0596149092596931
 51
302.5335012414682865
  0
ARC
  5
3C020
  8
0
 10
2955.3542260731969691
 20
250.5796774289273117
 30
0.0
 40
0.054292372937462
 50
151.023957870017199
 51
225.09087593200789
  0
ARC
  5
3C021
  8
0
 10
2955.3583338051807914
 20
250.5768113903311018
 30
0.0
 40
0.0592766008223859
 50
98.4565913926407035
 51
150.5239291439617091
  0
ARC
  5
3C022
  8
0
 10
2955.3593173326248689
 20
250.5768413671125927
 30
0.0
 40
0.0223046072561604
 50
33.549192768888453
 51
145.329165913642413
  0
ARC
  5
3C023
  8
0
 10
2955.3593286817072112
 20
250.5802175470944064
 30
0.0
 40
0.0223474279581275
 50
216.9440925052414002
 51
320.5708602965568161
  0
ARC
  5
3C024
  8
0
 10
2955.3575376757339654
 20
250.578512786556189
 30
0.0
 40
0.0198934507250523
 50
146.3725643927868134
 51
216.12027512065319
  0
ARC
  5
3C025
  8
0
 10
2955.3612626137960433
 20
250.5785052085250868
 30
0.0
 40
0.0197663169968197
 50
320.8443294098831871
 51
32.6459342234488119
  0
ARC
  5
3C026
  8
0
 10
2956.3174024266309061
 20
250.4722190256412944
 30
0.0
 40
0.0796207654095198
 50
13.5285838925177604
 51
83.1720255674712234
  0
ARC
  5
3C027
  8
0
 10
2956.314207748462195
 20
250.4765332842069938
 30
0.0
 40
0.0818668598602546
 50
315.7375309694792804
 51
10.0678259786158595
  0
ARC
  5
3C028
  8
0
 10
2956.2981288086830318
 20
250.4884697486355094
 30
0.0
 40
0.101747946844879
 50
244.4350516746125095
 51
317.2434380599622159
  0
ARC
  5
3C029
  8
0
 10
2956.2872659658178236
 20
250.4627637640309956
 30
0.0
 40
0.0738823044496772
 50
161.2402122011914969
 51
243.4317579259547983
  0
ARC
  5
3C02A
  8
0
 10
2956.3121133880190428
 20
250.4511766922601907
 30
0.0
 40
0.1011800387555695
 50
81.6146726773545339
 51
159.5521557376007991
  0
ARC
  5
3C02B
  8
0
 10
2956.2903973251850402
 20
250.455382017937211
 30
0.0
 40
0.0596684302398596
 50
23.1628839707462184
 51
99.8117291563225706
  0
ARC
  5
3C02C
  8
0
 10
2956.2942823508501533
 20
250.4584269102290932
 30
0.0
 40
0.0549135951803018
 50
301.5735714047057741
 51
21.8363327413968094
  0
ARC
  5
3C02D
  8
0
 10
2956.2899563252549342
 20
250.4634980048820978
 30
0.0
 40
0.0615077171455392
 50
225.0596149092596931
 51
302.5335012414682865
  0
ARC
  5
3C02E
  8
0
 10
2956.2848386440778086
 20
250.4584115989293025
 30
0.0
 40
0.054292372937462
 50
151.023957870017199
 51
225.09087593200789
  0
ARC
  5
3C02F
  8
0
 10
2956.2889463760629951
 20
250.4555455603330074
 30
0.0
 40
0.0592766008223859
 50
98.4565913926407035
 51
150.5239291439617091
  0
ARC
  5
3C030
  8
0
 10
2956.2899299035061631
 20
250.4555755371144983
 30
0.0
 40
0.0223046072561604
 50
33.549192768888453
 51
145.329165913642413
  0
ARC
  5
3C031
  8
0
 10
2956.2899412525880507
 20
250.4589517170963973
 30
0.0
 40
0.0223474279581275
 50
216.9440925052414002
 51
320.5708602965568161
  0
ARC
  5
3C032
  8
0
 10
2956.2881502466161692
 20
250.4572469565582082
 30
0.0
 40
0.0198934507250523
 50
146.3725643927868134
 51
216.12027512065319
  0
ARC
  5
3C033
  8
0
 10
2956.2918751846768828
 20
250.4572393785271061
 30
0.0
 40
0.0197663169968197
 50
320.8443294098831871
 51
32.6459342234488119
  0
ARC
  5
3C034
  8
0
 10
2955.7924506931190081
 20
250.2842341299414954
 30
0.0
 40
0.0796207654095198
 50
13.5285838925177604
 51
83.1720255674712234
  0
ARC
  5
3C035
  8
0
 10
2955.7892560149489327
 20
250.2885483885071949
 30
0.0
 40
0.0818668598602546
 50
315.7375309694792804
 51
10.0678259786158595
  0
ARC
  5
3C036
  8
0
 10
2955.7731770751702243
 20
250.3004848529357105
 30
0.0
 40
0.101747946844879
 50
244.4350516746125095
 51
317.2434380599622159
  0
ARC
  5
3C037
  8
0
 10
2955.762314232305016
 20
250.2747788683313104
 30
0.0
 40
0.0738823044496772
 50
161.2402122011914969
 51
243.4317579259547983
  0
ARC
  5
3C038
  8
0
 10
2955.7871616545071447
 20
250.2631917965603918
 30
0.0
 40
0.1011800387555695
 50
81.6146726773545339
 51
159.5521557376007991
  0
ARC
  5
3C039
  8
0
 10
2955.7654455916731422
 20
250.2673971222374121
 30
0.0
 40
0.0596684302398596
 50
23.1628839707462184
 51
99.8117291563225706
  0
ARC
  5
3C03A
  8
0
 10
2955.769330617336891
 20
250.2704420145292943
 30
0.0
 40
0.0549135951803018
 50
301.5735714047057741
 51
21.8363327413968094
  0
ARC
  5
3C03B
  8
0
 10
2955.7650045917430361
 20
250.2755131091822136
 30
0.0
 40
0.0615077171455392
 50
225.0596149092596931
 51
302.5335012414682865
  0
ARC
  5
3C03C
  8
0
 10
2955.759886910565001
 20
250.2704267032295036
 30
0.0
 40
0.054292372937462
 50
151.023957870017199
 51
225.09087593200789
  0
ARC
  5
3C03D
  8
0
 10
2955.7639946425501876
 20
250.2675606646332085
 30
0.0
 40
0.0592766008223859
 50
98.4565913926407035
 51
150.5239291439617091
  0
ARC
  5
3C03E
  8
0
 10
2955.7649781699929008
 20
250.2675906414146993
 30
0.0
 40
0.0223046072561604
 50
33.549192768888453
 51
145.329165913642413
  0
ARC
  5
3C03F
  8
0
 10
2955.7649895190747884
 20
250.2709668213965983
 30
0.0
 40
0.0223474279581275
 50
216.9440925052414002
 51
320.5708602965568161
  0
ARC
  5
3C040
  8
0
 10
2955.7631985131019974
 20
250.2692620608584093
 30
0.0
 40
0.0198934507250523
 50
146.3725643927868134
 51
216.12027512065319
  0
ARC
  5
3C041
  8
0
 10
2955.7669234511649847
 20
250.2692544828271934
 30
0.0
 40
0.0197663169968197
 50
320.8443294098831871
 51
32.6459342234488119
  0
ARC
  5
3C042
  8
0
 10
2955.303043555739805
 20
250.0256227015671868
 30
0.0
 40
0.0796207654095198
 50
13.5285838925177604
 51
83.1720255674712234
  0
ARC
  5
3C043
  8
0
 10
2955.2998488775710939
 20
250.0299369601328863
 30
0.0
 40
0.0818668598602546
 50
315.7375309694792804
 51
10.0678259786158595
  0
ARC
  5
3C044
  8
0
 10
2955.2837699377910212
 20
250.0418734245614019
 30
0.0
 40
0.101747946844879
 50
244.4350516746125095
 51
317.2434380599622159
  0
ARC
  5
3C045
  8
0
 10
2955.272907094925813
 20
250.0161674399568881
 30
0.0
 40
0.0738823044496772
 50
161.2402122011914969
 51
243.4317579259547983
  0
ARC
  5
3C046
  8
0
 10
2955.2977545171279417
 20
250.0045803681861116
 30
0.0
 40
0.1011800387555695
 50
81.6146726773545339
 51
159.5521557376007991
  0
ARC
  5
3C047
  8
0
 10
2955.2760384542930296
 20
250.0087856938631035
 30
0.0
 40
0.0596684302398596
 50
23.1628839707462184
 51
99.8117291563225706
  0
ARC
  5
3C048
  8
0
 10
2955.2799234799567785
 20
250.0118305861550141
 30
0.0
 40
0.0549135951803018
 50
301.5735714047057741
 51
21.8363327413968094
  0
ARC
  5
3C049
  8
0
 10
2955.2755974543629236
 20
250.016901680807905
 30
0.0
 40
0.0615077171455392
 50
225.0596149092596931
 51
302.5335012414682865
  0
ARC
  5
3C04A
  8
0
 10
2955.2704797731871622
 20
250.011815274855195
 30
0.0
 40
0.054292372937462
 50
151.023957870017199
 51
225.09087593200789
  0
ARC
  5
3C04B
  8
0
 10
2955.274587505170075
 20
250.0089492362588999
 30
0.0
 40
0.0592766008223859
 50
98.4565913926407035
 51
150.5239291439617091
  0
ARC
  5
3C04C
  8
0
 10
2955.2755710326141525
 20
250.0089792130403055
 30
0.0
 40
0.0223046072561604
 50
33.549192768888453
 51
145.329165913642413
  0
ARC
  5
3C04D
  8
0
 10
2955.2755823816960401
 20
250.0123553930222897
 30
0.0
 40
0.0223474279581275
 50
216.9440925052414002
 51
320.5708602965568161
  0
ARC
  5
3C04E
  8
0
 10
2955.2737913757241586
 20
250.0106506324841007
 30
0.0
 40
0.0198934507250523
 50
146.3725643927868134
 51
216.12027512065319
  0
ARC
  5
3C04F
  8
0
 10
2955.2775163137848722
 20
250.0106430544529985
 30
0.0
 40
0.0197663169968197
 50
320.8443294098831871
 51
32.6459342234488119
  0
ARC
  5
3C050
  8
0
 10
2955.7930669896909421
 20
249.8409499250718966
 30
0.0
 40
0.0796207654095198
 50
13.5285838925177604
 51
83.1720255674712234
  0
ARC
  5
3C051
  8
0
 10
2955.7898723115208668
 20
249.845264183637596
 30
0.0
 40
0.0818668598602546
 50
315.7375309694792804
 51
10.0678259786158595
  0
ARC
  5
3C052
  8
0
 10
2955.7737933717421583
 20
249.8572006480661116
 30
0.0
 40
0.101747946844879
 50
244.4350516746125095
 51
317.2434380599622159
  0
ARC
  5
3C053
  8
0
 10
2955.7629305288769501
 20
249.8314946634615978
 30
0.0
 40
0.0738823044496772
 50
161.2402122011914969
 51
243.4317579259547983
  0
ARC
  5
3C054
  8
0
 10
2955.7877779510781693
 20
249.8199075916907077
 30
0.0
 40
0.1011800387555695
 50
81.6146726773545339
 51
159.5521557376007991
  0
ARC
  5
3C055
  8
0
 10
2955.7660618882441668
 20
249.8241129173678132
 30
0.0
 40
0.0596684302398596
 50
23.1628839707462184
 51
99.8117291563225706
  0
ARC
  5
3C056
  8
0
 10
2955.7699469139079156
 20
249.8271578096596954
 30
0.0
 40
0.0549135951803018
 50
301.5735714047057741
 51
21.8363327413968094
  0
ARC
  5
3C057
  8
0
 10
2955.7656208883131512
 20
249.8322289043125863
 30
0.0
 40
0.0615077171455392
 50
225.0596149092596931
 51
302.5335012414682865
  0
ARC
  5
3C058
  8
0
 10
2955.7605032071369351
 20
249.827142498359791
 30
0.0
 40
0.054292372937462
 50
151.023957870017199
 51
225.09087593200789
  0
ARC
  5
3C059
  8
0
 10
2955.7646109391212121
 20
249.8242764597636096
 30
0.0
 40
0.0592766008223859
 50
98.4565913926407035
 51
150.5239291439617091
  0
ARC
  5
3C05A
  8
0
 10
2955.7655944665648349
 20
249.8243064365449868
 30
0.0
 40
0.0223046072561604
 50
33.549192768888453
 51
145.329165913642413
  0
ARC
  5
3C05B
  8
0
 10
2955.7656058156471772
 20
249.8276826165269995
 30
0.0
 40
0.0223474279581275
 50
216.9440925052414002
 51
320.5708602965568161
  0
ARC
  5
3C05C
  8
0
 10
2955.7638148096739314
 20
249.8259778559888105
 30
0.0
 40
0.0198934507250523
 50
146.3725643927868134
 51
216.12027512065319
  0
ARC
  5
3C05D
  8
0
 10
2955.7675397477360093
 20
249.8259702779575946
 30
0.0
 40
0.0197663169968197
 50
320.8443294098831871
 51
32.6459342234488119
  0
ARC
  5
3C05E
  8
0
 10
2955.3883500641741193
 20
249.4610793899944952
 30
0.0
 40
0.0796207654095198
 50
13.5285838925193396
 51
83.1720255674712234
  0
ARC
  5
3C05F
  8
0
 10
2955.3851553860049535
 20
249.4653936485601093
 30
0.0
 40
0.0818668598602546
 50
315.7375309694792804
 51
10.0678259786158595
  0
ARC
  5
3C060
  8
0
 10
2955.3690764462257903
 20
249.4773301129887102
 30
0.0
 40
0.101747946844879
 50
244.4350516746125095
 51
317.2434380599622159
  0
ARC
  5
3C061
  8
0
 10
2955.3582136033601273
 20
249.4516241283841964
 30
0.0
 40
0.0738823044496772
 50
161.2402122011914969
 51
243.4317579259547983
  0
ARC
  5
3C062
  8
0
 10
2955.3830610255618012
 20
249.4400370566133063
 30
0.0
 40
0.1011800387555695
 50
81.6146726773545339
 51
159.5521557376007991
  0
ARC
  5
3C063
  8
0
 10
2955.3613449627277987
 20
249.4442423822904118
 30
0.0
 40
0.0596684302398596
 50
23.1628839707462184
 51
99.8117291563225706
  0
ARC
  5
3C064
  8
0
 10
2955.3652299883910928
 20
249.447287274582294
 30
0.0
 40
0.0549135951803018
 50
301.5735714047057741
 51
21.8363327413968094
  0
ARC
  5
3C065
  8
0
 10
2955.3609039627967832
 20
249.4523583692352133
 30
0.0
 40
0.0615077171455392
 50
225.0596149092596931
 51
302.5335012414682865
  0
ARC
  5
3C066
  8
0
 10
2955.3557862816210218
 20
249.4472719632823896
 30
0.0
 40
0.054292372937462
 50
151.023957870017199
 51
225.09087593200789
  0
ARC
  5
3C067
  8
0
 10
2955.3598940136039346
 20
249.4444059246862082
 30
0.0
 40
0.0592766008223859
 50
98.4565913926407035
 51
150.5239291439617091
  0
ARC
  5
3C068
  8
0
 10
2955.3608775410480121
 20
249.4444359014676138
 30
0.0
 40
0.0223046072561604
 50
33.549192768888453
 51
145.329165913642413
  0
ARC
  5
3C069
  8
0
 10
2955.3608888901308092
 20
249.4478120814495128
 30
0.0
 40
0.0223474279581275
 50
216.9440925052414002
 51
320.5708602965568161
  0
ARC
  5
3C06A
  8
0
 10
2955.3590978841580181
 20
249.446107320911409
 30
0.0
 40
0.0198934507250523
 50
146.3725643927868134
 51
216.12027512065319
  0
ARC
  5
3C06B
  8
0
 10
2955.362822822220096
 20
249.4460997428801932
 30
0.0
 40
0.0197663169968197
 50
320.8443294098831871
 51
32.6459342234488119
  0
ARC
  5
3C06C
  8
0
 10
2955.9243761437819558
 20
249.4139146915034075
 30
0.0
 40
0.0796207654095198
 50
13.5285838925193396
 51
83.1720255674712234
  0
ARC
  5
3C06D
  8
0
 10
2955.9211814656118804
 20
249.4182289500691923
 30
0.0
 40
0.0818668598602546
 50
315.7375309694792804
 51
10.0678259786158595
  0
ARC
  5
3C06E
  8
0
 10
2955.905102525833172
 20
249.4301654144977078
 30
0.0
 40
0.101747946844879
 50
244.4350516746125095
 51
317.2434380599622159
  0
ARC
  5
3C06F
  8
0
 10
2955.8942396829670543
 20
249.4044594298931941
 30
0.0
 40
0.0738823044496772
 50
161.2402122011914969
 51
243.4317579259547983
  0
ARC
  5
3C070
  8
0
 10
2955.9190871051700924
 20
249.3928723581223039
 30
0.0
 40
0.1011800387555695
 50
81.6146726773545339
 51
159.5521557376007991
  0
ARC
  5
3C071
  8
0
 10
2955.8973710423351804
 20
249.3970776837994094
 30
0.0
 40
0.0596684302398596
 50
23.1628839707462184
 51
99.8117291563225706
  0
ARC
  5
3C072
  8
0
 10
2955.9012560679989292
 20
249.4001225760912064
 30
0.0
 40
0.0549135951803018
 50
301.5735714047057741
 51
21.8363327413968094
  0
ARC
  5
3C073
  8
0
 10
2955.8969300424050743
 20
249.405193670744211
 30
0.0
 40
0.0615077171455392
 50
225.0596149092596931
 51
302.5335012414682865
  0
ARC
  5
3C074
  8
0
 10
2955.8918123612279487
 20
249.4001072647913873
 30
0.0
 40
0.054292372937462
 50
151.023957870017199
 51
225.09087593200789
  0
ARC
  5
3C075
  8
0
 10
2955.8959200932122258
 20
249.3972412261952059
 30
0.0
 40
0.0592766008223859
 50
98.4565913926407035
 51
150.5239291439617091
  0
ARC
  5
3C076
  8
0
 10
2955.8969036206558485
 20
249.3972712029766114
 30
0.0
 40
0.0223046072561604
 50
33.549192768888453
 51
145.329165913642413
  0
ARC
  5
3C077
  8
0
 10
2955.8969149697381908
 20
249.4006473829585104
 30
0.0
 40
0.0223474279581275
 50
216.9440925052414002
 51
320.5708602965568161
  0
ARC
  5
3C078
  8
0
 10
2955.8951239637649451
 20
249.398942622420293
 30
0.0
 40
0.0198934507250523
 50
146.3725643927868134
 51
216.12027512065319
  0
ARC
  5
3C079
  8
0
 10
2955.8988489018270229
 20
249.3989350443891908
 30
0.0
 40
0.0197663169968197
 50
320.8443294098831871
 51
32.6459342234488119
  0
ARC
  5
3C07A
  8
0
 10
2956.3168464302639222
 20
249.7136345863285953
 30
0.0
 40
0.0796207654095198
 50
13.5285838925177604
 51
83.1720255674712234
  0
ARC
  5
3C07B
  8
0
 10
2956.3136517520938469
 20
249.7179488448942948
 30
0.0
 40
0.0818668598602546
 50
315.7375309694792804
 51
10.0678259786158595
  0
ARC
  5
3C07C
  8
0
 10
2956.2975728123151384
 20
249.7298853093228104
 30
0.0
 40
0.101747946844879
 50
244.4350516746125095
 51
317.2434380599622159
  0
ARC
  5
3C07D
  8
0
 10
2956.2867099694499302
 20
249.7041793247182966
 30
0.0
 40
0.0738823044496772
 50
161.2402122011914969
 51
243.4317579259547983
  0
ARC
  5
3C07E
  8
0
 10
2956.3115573916520589
 20
249.6925922529474917
 30
0.0
 40
0.1011800387555695
 50
81.6146726773545339
 51
159.5521557376007991
  0
ARC
  5
3C07F
  8
0
 10
2956.2898413288180564
 20
249.696797578624512
 30
0.0
 40
0.0596684302398596
 50
23.1628839707462184
 51
99.8117291563225706
  0
ARC
  5
3C080
  8
0
 10
2956.2937263544808957
 20
249.6998424709163942
 30
0.0
 40
0.0549135951803018
 50
301.5735714047057741
 51
21.8363327413968094
  0
ARC
  5
3C081
  8
0
 10
2956.2894003288870408
 20
249.7049135655693135
 30
0.0
 40
0.0615077171455392
 50
225.0596149092596931
 51
302.5335012414682865
  0
ARC
  5
3C082
  8
0
 10
2956.2842826477108247
 20
249.6998271596166035
 30
0.0
 40
0.054292372937462
 50
151.023957870017199
 51
225.09087593200789
  0
ARC
  5
3C083
  8
0
 10
2956.2883903796951017
 20
249.6969611210203084
 30
0.0
 40
0.0592766008223859
 50
98.4565913926407035
 51
150.5239291439617091
  0
ARC
  5
3C084
  8
0
 10
2956.289373907137815
 20
249.696991097801714
 30
0.0
 40
0.0223046072561604
 50
33.549192768888453
 51
145.329165913642413
  0
ARC
  5
3C085
  8
0
 10
2956.2893852562201573
 20
249.7003672777836982
 30
0.0
 40
0.0223474279581275
 50
216.9440925052414002
 51
320.5708602965568161
  0
ARC
  5
3C086
  8
0
 10
2956.2875942502469115
 20
249.6986625172453955
 30
0.0
 40
0.0198934507250523
 50
146.3725643927868134
 51
216.12027512065319
  0
ARC
  5
3C087
  8
0
 10
2956.2913191883089894
 20
249.6986549392142933
 30
0.0
 40
0.0197663169968197
 50
320.8443294098831871
 51
32.6459342234488119
  0
ARC
  5
3C088
  8
0
 10
2955.6377982380749927
 20
248.9426706560707885
 30
0.0
 40
0.0796207654095198
 50
13.5285838925193396
 51
83.1720255674712234
  0
ARC
  5
3C089
  8
0
 10
2955.6346035599049173
 20
248.9469849146364879
 30
0.0
 40
0.0818668598602546
 50
315.7375309694792804
 51
10.0678259786158595
  0
ARC
  5
3C08A
  8
0
 10
2955.6185246201262089
 20
248.9589213790650888
 30
0.0
 40
0.101747946844879
 50
244.4350516746125095
 51
317.2434380599622159
  0
ARC
  5
3C08B
  8
0
 10
2955.6076617772610007
 20
248.9332153944606034
 30
0.0
 40
0.0738823044496772
 50
161.2402122011914969
 51
243.4317579259547983
  0
ARC
  5
3C08C
  8
0
 10
2955.6325091994622198
 20
248.9216283226897133
 30
0.0
 40
0.1011800387555695
 50
81.6146726773545339
 51
159.5521557376007991
  0
ARC
  5
3C08D
  8
0
 10
2955.6107931366291268
 20
248.9258336483667904
 30
0.0
 40
0.0596684302398596
 50
23.1628839707462184
 51
99.8117291563225706
  0
ARC
  5
3C08E
  8
0
 10
2955.6146781622928756
 20
248.9288785406585873
 30
0.0
 40
0.0549135951803018
 50
301.5735714047057741
 51
21.8363327413968094
  0
ARC
  5
3C08F
  8
0
 10
2955.6103521366981113
 20
248.9339496353115919
 30
0.0
 40
0.0615077171455392
 50
225.0596149092596931
 51
302.5335012414682865
  0
ARC
  5
3C090
  8
0
 10
2955.6052344555218951
 20
248.9288632293587966
 30
0.0
 40
0.054292372937462
 50
151.023957870017199
 51
225.09087593200789
  0
ARC
  5
3C091
  8
0
 10
2955.6093421875061722
 20
248.9259971907625015
 30
0.0
 40
0.0592766008223859
 50
98.4565913926407035
 51
150.5239291439617091
  0
ARC
  5
3C092
  8
0
 10
2955.6103257149488854
 20
248.9260271675439924
 30
0.0
 40
0.0223046072561604
 50
33.549192768888453
 51
145.329165913642413
  0
ARC
  5
3C093
  8
0
 10
2955.610337064030773
 20
248.9294033475258914
 30
0.0
 40
0.0223474279581275
 50
216.9440925052414002
 51
320.5708602965568161
  0
ARC
  5
3C094
  8
0
 10
2955.6085460580588915
 20
248.9276985869877024
 30
0.0
 40
0.0198934507250523
 50
146.3725643927868134
 51
216.12027512065319
  0
ARC
  5
3C095
  8
0
 10
2955.6122709961200599
 20
248.9276910089566002
 30
0.0
 40
0.0197663169968197
 50
320.8443294098831871
 51
32.6459342234488119
  0
ARC
  5
3C096
  8
0
 10
2956.1737445504841162
 20
249.0411904586883054
 30
0.0
 40
0.0796207654095198
 50
13.5285838925193396
 51
83.1720255674712234
  0
ARC
  5
3C097
  8
0
 10
2956.1705498723140408
 20
249.0455047172538912
 30
0.0
 40
0.0818668598602546
 50
315.7375309694792804
 51
10.0678259786158595
  0
ARC
  5
3C098
  8
0
 10
2956.1544709325348776
 20
249.057441181682492
 30
0.0
 40
0.101747946844879
 50
244.4350516746125095
 51
317.2434380599622159
  0
ARC
  5
3C099
  8
0
 10
2956.1436080896701242
 20
249.0317351970780066
 30
0.0
 40
0.0738823044496772
 50
161.2402122011914969
 51
243.4317579259547983
  0
ARC
  5
3C09A
  8
0
 10
2956.1684555118717981
 20
249.0201481253070881
 30
0.0
 40
0.1011800387555695
 50
81.6146726773545339
 51
159.5521557376007991
  0
ARC
  5
3C09B
  8
0
 10
2956.1467394490368861
 20
249.0243534509841936
 30
0.0
 40
0.0596684302398596
 50
23.1628839707462184
 51
99.8117291563225706
  0
ARC
  5
3C09C
  8
0
 10
2956.1506244747019991
 20
249.0273983432761042
 30
0.0
 40
0.0549135951803018
 50
301.5735714047057741
 51
21.8363327413968094
  0
ARC
  5
3C09D
  8
0
 10
2956.14629844910678
 20
249.0324694379289951
 30
0.0
 40
0.0615077171455392
 50
225.0596149092596931
 51
302.5335012414682865
  0
ARC
  5
3C09E
  8
0
 10
2956.1411807679301091
 20
249.0273830319761998
 30
0.0
 40
0.054292372937462
 50
151.023957870017199
 51
225.09087593200789
  0
ARC
  5
3C09F
  8
0
 10
2956.1452884999148409
 20
249.02451699337999
 30
0.0
 40
0.0592766008223859
 50
98.4565913926407035
 51
150.5239291439617091
  0
ARC
  5
3C0A0
  8
0
 10
2956.1462720273580089
 20
249.0245469701613956
 30
0.0
 40
0.0223046072561604
 50
33.549192768888453
 51
145.329165913642413
  0
ARC
  5
3C0A1
  8
0
 10
2956.1462833764398965
 20
249.0279231501432946
 30
0.0
 40
0.0223474279581275
 50
216.9440925052414002
 51
320.5708602965568161
  0
ARC
  5
3C0A2
  8
0
 10
2956.1444923704671055
 20
249.0262183896051056
 30
0.0
 40
0.0198934507250523
 50
146.3725643927868134
 51
216.12027512065319
  0
ARC
  5
3C0A3
  8
0
 10
2956.1482173085291834
 20
249.0262108115740034
 30
0.0
 40
0.0197663169968197
 50
320.8443294098831871
 51
32.6459342234488119
  0
ARC
  5
3C0A4
  8
0
 10
2956.522184767662111
 20
249.3791527913799086
 30
0.0
 40
0.0796207654095198
 50
13.5285838925193396
 51
83.1720255674712234
  0
ARC
  5
3C0A5
  8
0
 10
2956.5189900894920356
 20
249.3834670499456081
 30
0.0
 40
0.0818668598602546
 50
315.7375309694792804
 51
10.0678259786158595
  0
ARC
  5
3C0A6
  8
0
 10
2956.5029111497128724
 20
249.395403514374209
 30
0.0
 40
0.101747946844879
 50
244.4350516746125095
 51
317.2434380599622159
  0
ARC
  5
3C0A7
  8
0
 10
2956.492048306848119
 20
249.3696975297696952
 30
0.0
 40
0.0738823044496772
 50
161.2402122011914969
 51
243.4317579259547983
  0
ARC
  5
3C0A8
  8
0
 10
2956.5168957290497929
 20
249.358110457998805
 30
0.0
 40
0.1011800387555695
 50
81.6146726773545339
 51
159.5521557376007991
  0
ARC
  5
3C0A9
  8
0
 10
2956.4951796662157903
 20
249.3623157836759106
 30
0.0
 40
0.0596684302398596
 50
23.1628839707462184
 51
99.8117291563225706
  0
ARC
  5
3C0AA
  8
0
 10
2956.4990646918790844
 20
249.3653606759677928
 30
0.0
 40
0.0549135951803018
 50
301.5735714047057741
 51
21.8363327413968094
  0
ARC
  5
3C0AB
  8
0
 10
2956.4947386662847748
 20
249.3704317706207121
 30
0.0
 40
0.0615077171455392
 50
225.0596149092596931
 51
302.5335012414682865
  0
ARC
  5
3C0AC
  8
0
 10
2956.4896209851081039
 20
249.3653453646678884
 30
0.0
 40
0.054292372937462
 50
151.023957870017199
 51
225.09087593200789
  0
ARC
  5
3C0AD
  8
0
 10
2956.4937287170919262
 20
249.362479326071707
 30
0.0
 40
0.0592766008223859
 50
98.4565913926407035
 51
150.5239291439617091
  0
ARC
  5
3C0AE
  8
0
 10
2956.4947122445360037
 20
249.3625093028531126
 30
0.0
 40
0.0223046072561604
 50
33.549192768888453
 51
145.329165913642413
  0
ARC
  5
3C0AF
  8
0
 10
2956.4947235936178913
 20
249.3658854828350115
 30
0.0
 40
0.0223474279581275
 50
216.9440925052414002
 51
320.5708602965568161
  0
ARC
  5
3C0B0
  8
0
 10
2956.4929325876451003
 20
249.3641807222969078
 30
0.0
 40
0.0198934507250523
 50
146.3725643927868134
 51
216.12027512065319
  0
ARC
  5
3C0B1
  8
0
 10
2956.4966575257080876
 20
249.3641731442656919
 30
0.0
 40
0.0197663169968197
 50
320.8443294098831871
 51
32.6459342234488119
  0
ARC
  5
3C0B2
  8
0
 10
2956.0301448379182148
 20
248.5090713575833092
 30
0.0
 40
0.0796207654095198
 50
13.5285838925193396
 51
83.1720255674712234
  0
ARC
  5
3C0B3
  8
0
 10
2956.0269501597490489
 20
248.5133856161490087
 30
0.0
 40
0.0818668598602546
 50
315.7375309694792804
 51
10.0678259786158595
  0
ARC
  5
3C0B4
  8
0
 10
2956.0108712199698857
 20
248.5253220805774959
 30
0.0
 40
0.101747946844879
 50
244.4350516746125095
 51
317.2434380599622159
  0
ARC
  5
3C0B5
  8
0
 10
2956.0000083771051322
 20
248.4996160959730958
 30
0.0
 40
0.0738823044496772
 50
161.2402122011914969
 51
243.4317579259547983
  0
ARC
  5
3C0B6
  8
0
 10
2956.0248557993058967
 20
248.4880290242022056
 30
0.0
 40
0.1011800387555695
 50
81.6146726773545339
 51
159.5521557376007991
  0
ARC
  5
3C0B7
  8
0
 10
2956.0031397364718941
 20
248.4922343498791975
 30
0.0
 40
0.0596684302398596
 50
23.1628839707462184
 51
99.8117291563225706
  0
ARC
  5
3C0B8
  8
0
 10
2956.0070247621360977
 20
248.4952792421711081
 30
0.0
 40
0.0549135951803018
 50
301.5735714047057741
 51
21.8363327413968094
  0
ARC
  5
3C0B9
  8
0
 10
2956.0026987365417881
 20
248.500350336823999
 30
0.0
 40
0.0615077171455392
 50
225.0596149092596931
 51
302.5335012414682865
  0
ARC
  5
3C0BA
  8
0
 10
2955.9975810553651172
 20
248.4952639308712037
 30
0.0
 40
0.054292372937462
 50
151.023957870017199
 51
225.09087593200789
  0
ARC
  5
3C0BB
  8
0
 10
2956.0016887873489395
 20
248.4923978922749939
 30
0.0
 40
0.0592766008223859
 50
98.4565913926407035
 51
150.5239291439617091
  0
ARC
  5
3C0BC
  8
0
 10
2956.002672314793017
 20
248.4924278690565131
 30
0.0
 40
0.0223046072561604
 50
33.549192768888453
 51
145.329165913642413
  0
ARC
  5
3C0BD
  8
0
 10
2956.0026836638749046
 20
248.4958040490384121
 30
0.0
 40
0.0223474279581275
 50
216.9440925052414002
 51
320.5708602965568161
  0
ARC
  5
3C0BE
  8
0
 10
2956.0008926579030231
 20
248.4940992885001947
 30
0.0
 40
0.0198934507250523
 50
146.3725643927868134
 51
216.12027512065319
  0
ARC
  5
3C0BF
  8
0
 10
2956.0046175959641914
 20
248.4940917104690925
 30
0.0
 40
0.0197663169968197
 50
320.8443294098831871
 51
32.6459342234488119
  0
ARC
  5
3C0C0
  8
0
 10
2956.527593506023095
 20
248.7490306849298065
 30
0.0
 40
0.0796207654095198
 50
13.5285838925193396
 51
83.1720255674712234
  0
ARC
  5
3C0C1
  8
0
 10
2956.5243988278539291
 20
248.753344943495506
 30
0.0
 40
0.0818668598602546
 50
315.7375309694792804
 51
10.0678259786158595
  0
ARC
  5
3C0C2
  8
0
 10
2956.5083198880738564
 20
248.7652814079239931
 30
0.0
 40
0.101747946844879
 50
244.4350516746125095
 51
317.2434380599622159
  0
ARC
  5
3C0C3
  8
0
 10
2956.4974570452091029
 20
248.7395754233195078
 30
0.0
 40
0.0738823044496772
 50
161.2402122011914969
 51
243.4317579259547983
  0
ARC
  5
3C0C4
  8
0
 10
2956.5223044674107769
 20
248.7279883515487029
 30
0.0
 40
0.1011800387555695
 50
81.6146726773545339
 51
159.5521557376007991
  0
ARC
  5
3C0C5
  8
0
 10
2956.5005884045767743
 20
248.7321936772256947
 30
0.0
 40
0.0596684302398596
 50
23.1628839707462184
 51
99.8117291563225706
  0
ARC
  5
3C0C6
  8
0
 10
2956.5044734302409779
 20
248.7352385695174917
 30
0.0
 40
0.0549135951803018
 50
301.5735714047057741
 51
21.8363327413968094
  0
ARC
  5
3C0C7
  8
0
 10
2956.5001474046462135
 20
248.7403096641704963
 30
0.0
 40
0.0615077171455392
 50
225.0596149092596931
 51
302.5335012414682865
  0
ARC
  5
3C0C8
  8
0
 10
2956.4950297234699974
 20
248.735223258217701
 30
0.0
 40
0.054292372937462
 50
151.023957870017199
 51
225.09087593200789
  0
ARC
  5
3C0C9
  8
0
 10
2956.4991374554538197
 20
248.7323572196214911
 30
0.0
 40
0.0592766008223859
 50
98.4565913926407035
 51
150.5239291439617091
  0
ARC
  5
3C0CA
  8
0
 10
2956.5001209828978972
 20
248.7323871964028967
 30
0.0
 40
0.0223046072561604
 50
33.549192768888453
 51
145.329165913642413
  0
ARC
  5
3C0CB
  8
0
 10
2956.5001323319797848
 20
248.7357633763847957
 30
0.0
 40
0.0223474279581275
 50
216.9440925052414002
 51
320.5708602965568161
  0
ARC
  5
3C0CC
  8
0
 10
2956.4983413260069938
 20
248.7340586158466067
 30
0.0
 40
0.0198934507250523
 50
146.3725643927868134
 51
216.12027512065319
  0
ARC
  5
3C0CD
  8
0
 10
2956.5020662640690716
 20
248.7340510378155045
 30
0.0
 40
0.0197663169968197
 50
320.8443294098831871
 51
32.6459342234488119
  0
ARC
  5
3C0CE
  8
0
 10
2956.9533616125399931
 20
248.5660513943784906
 30
0.0
 40
0.0796207654095198
 50
13.5285838925193396
 51
83.1720255674712234
  0
ARC
  5
3C0CF
  8
0
 10
2956.9501669343699177
 20
248.5703656529443037
 30
0.0
 40
0.0818668598602546
 50
315.7375309694792804
 51
10.0678259786158595
  0
ARC
  5
3C0D0
  8
0
 10
2956.9340879945912093
 20
248.5823021173727909
 30
0.0
 40
0.101747946844879
 50
244.4350516746125095
 51
317.2434380599622159
  0
ARC
  5
3C0D1
  8
0
 10
2956.9232251517260011
 20
248.5565961327683056
 30
0.0
 40
0.0738823044496772
 50
161.2402122011914969
 51
243.4317579259547983
  0
ARC
  5
3C0D2
  8
0
 10
2956.9480725739281297
 20
248.545009060997387
 30
0.0
 40
0.1011800387555695
 50
81.6146726773545339
 51
159.5521557376007991
  0
ARC
  5
3C0D3
  8
0
 10
2956.9263565110941272
 20
248.5492143866744925
 30
0.0
 40
0.0596684302398596
 50
23.1628839707462184
 51
99.8117291563225706
  0
ARC
  5
3C0D4
  8
0
 10
2956.930241536757876
 20
248.5522592789664031
 30
0.0
 40
0.0549135951803018
 50
301.5735714047057741
 51
21.8363327413968094
  0
ARC
  5
3C0D5
  8
0
 10
2956.9259155111631117
 20
248.5573303736192941
 30
0.0
 40
0.0615077171455392
 50
225.0596149092596931
 51
302.5335012414682865
  0
ARC
  5
3C0D6
  8
0
 10
2956.9207978299868955
 20
248.5522439676664987
 30
0.0
 40
0.054292372937462
 50
151.023957870017199
 51
225.09087593200789
  0
ARC
  5
3C0D7
  8
0
 10
2956.9249055619711726
 20
248.5493779290702889
 30
0.0
 40
0.0592766008223859
 50
98.4565913926407035
 51
150.5239291439617091
  0
ARC
  5
3C0D8
  8
0
 10
2956.9258890894147953
 20
248.5494079058516945
 30
0.0
 40
0.0223046072561604
 50
33.549192768888453
 51
145.329165913642413
  0
ARC
  5
3C0D9
  8
0
 10
2956.9259004384971377
 20
248.5527840858337072
 30
0.0
 40
0.0223474279581275
 50
216.9440925052414002
 51
320.5708602965568161
  0
ARC
  5
3C0DA
  8
0
 10
2956.9241094325238919
 20
248.5510793252954045
 30
0.0
 40
0.0198934507250523
 50
146.3725643927868134
 51
216.12027512065319
  0
ARC
  5
3C0DB
  8
0
 10
2956.9278343705850602
 20
248.5510717472643023
 30
0.0
 40
0.0197663169968197
 50
320.8443294098831871
 51
32.6459342234488119
  0
ARC
  5
3C0DC
  8
0
 10
2956.5375786500108006
 20
248.2000534820006976
 30
0.0
 40
0.0796207654095198
 50
13.5285838925193396
 51
83.1720255674712234
  0
ARC
  5
3C0DD
  8
0
 10
2956.5343839718420895
 20
248.2043677405663971
 30
0.0
 40
0.0818668598602546
 50
315.7375309694792804
 51
10.0678259786158595
  0
ARC
  5
3C0DE
  8
0
 10
2956.5183050320629263
 20
248.2163042049949979
 30
0.0
 40
0.101747946844879
 50
244.4350516746125095
 51
317.2434380599622159
  0
ARC
  5
3C0DF
  8
0
 10
2956.5074421891968086
 20
248.1905982203905126
 30
0.0
 40
0.0738823044496772
 50
161.2402122011914969
 51
243.4317579259547983
  0
ARC
  5
3C0E0
  8
0
 10
2956.5322896113989373
 20
248.179011148619594
 30
0.0
 40
0.1011800387555695
 50
81.6146726773545339
 51
159.5521557376007991
  0
ARC
  5
3C0E1
  8
0
 10
2956.5105735485649348
 20
248.1832164742965858
 30
0.0
 40
0.0596684302398596
 50
23.1628839707462184
 51
99.8117291563225706
  0
ARC
  5
3C0E2
  8
0
 10
2956.5144585742291383
 20
248.1862613665884965
 30
0.0
 40
0.0549135951803018
 50
301.5735714047057741
 51
21.8363327413968094
  0
ARC
  5
3C0E3
  8
0
 10
2956.5101325486348287
 20
248.1913324612413874
 30
0.0
 40
0.0615077171455392
 50
225.0596149092596931
 51
302.5335012414682865
  0
ARC
  5
3C0E4
  8
0
 10
2956.5050148674581578
 20
248.1862460552887057
 30
0.0
 40
0.054292372937462
 50
151.023957870017199
 51
225.09087593200789
  0
ARC
  5
3C0E5
  8
0
 10
2956.5091225994419801
 20
248.1833800166924107
 30
0.0
 40
0.0592766008223859
 50
98.4565913926407035
 51
150.5239291439617091
  0
ARC
  5
3C0E6
  8
0
 10
2956.5101061268860576
 20
248.1834099934739015
 30
0.0
 40
0.0223046072561604
 50
33.549192768888453
 51
145.329165913642413
  0
ARC
  5
3C0E7
  8
0
 10
2956.5101174759679452
 20
248.1867861734558005
 30
0.0
 40
0.0223474279581275
 50
216.9440925052414002
 51
320.5708602965568161
  0
ARC
  5
3C0E8
  8
0
 10
2956.5083264699951542
 20
248.1850814129176115
 30
0.0
 40
0.0198934507250523
 50
146.3725643927868134
 51
216.12027512065319
  0
ARC
  5
3C0E9
  8
0
 10
2956.5120514080567773
 20
248.1850738348863956
 30
0.0
 40
0.0197663169968197
 50
320.8443294098831871
 51
32.6459342234488119
  0
ARC
  5
3C0EA
  8
0
 10
2957.1141487824161231
 20
248.039215906668602
 30
0.0
 40
0.0796207654095198
 50
13.5285838925193396
 51
83.1720255674712234
  0
ARC
  5
3C0EB
  8
0
 10
2957.1109541042460478
 20
248.0435301652343014
 30
0.0
 40
0.0818668598602546
 50
315.7375309694792804
 51
10.0678259786158595
  0
ARC
  5
3C0EC
  8
0
 10
2957.0948751644668846
 20
248.0554666296629023
 30
0.0
 40
0.101747946844879
 50
244.4350516746125095
 51
317.2434380599622159
  0
ARC
  5
3C0ED
  8
0
 10
2957.0840123216012216
 20
248.0297606450583885
 30
0.0
 40
0.0738823044496772
 50
161.2402122011914969
 51
243.4317579259547983
  0
ARC
  5
3C0EE
  8
0
 10
2957.1088597438028955
 20
248.0181735732874984
 30
0.0
 40
0.1011800387555695
 50
81.6146726773545339
 51
159.5521557376007991
  0
ARC
  5
3C0EF
  8
0
 10
2957.087143680968893
 20
248.0223788989646039
 30
0.0
 40
0.0596684302398596
 50
23.1628839707462184
 51
99.8117291563225706
  0
ARC
  5
3C0F0
  8
0
 10
2957.0910287066340061
 20
248.0254237912564008
 30
0.0
 40
0.0549135951803018
 50
301.5735714047057741
 51
21.8363327413968094
  0
ARC
  5
3C0F1
  8
0
 10
2957.086702681038787
 20
248.0304948859092917
 30
0.0
 40
0.0615077171455392
 50
225.0596149092596931
 51
302.5335012414682865
  0
ARC
  5
3C0F2
  8
0
 10
2957.0815849998621161
 20
248.0254084799566101
 30
0.0
 40
0.054292372937462
 50
151.023957870017199
 51
225.09087593200789
  0
ARC
  5
3C0F3
  8
0
 10
2957.0856927318459384
 20
248.0225424413602866
 30
0.0
 40
0.0592766008223859
 50
98.4565913926407035
 51
150.5239291439617091
  0
ARC
  5
3C0F4
  8
0
 10
2957.0866762592900159
 20
248.0225724181418059
 30
0.0
 40
0.0223046072561604
 50
33.549192768888453
 51
145.329165913642413
  0
ARC
  5
3C0F5
  8
0
 10
2957.0866876083719035
 20
248.0259485981237049
 30
0.0
 40
0.0223474279581275
 50
216.9440925052414002
 51
320.5708602965568161
  0
ARC
  5
3C0F6
  8
0
 10
2957.0848966023991125
 20
248.0242438375854874
 30
0.0
 40
0.0198934507250523
 50
146.3725643927868134
 51
216.12027512065319
  0
ARC
  5
3C0F7
  8
0
 10
2957.0886215404611903
 20
248.0242362595544137
 30
0.0
 40
0.0197663169968197
 50
320.8443294098831871
 51
32.6459342234488119
  0
ARC
  5
3C0F8
  8
0
 10
2957.2113308699681511
 20
249.0007477104927887
 30
0.0
 40
0.0796207654095198
 50
13.5285838925193396
 51
83.1720255674712234
  0
ARC
  5
3C0F9
  8
0
 10
2957.2081361917989852
 20
249.0050619690584881
 30
0.0
 40
0.0818668598602546
 50
315.7375309694792804
 51
10.0678259786158595
  0
ARC
  5
3C0FA
  8
0
 10
2957.192057252019822
 20
249.016998433487089
 30
0.0
 40
0.101747946844879
 50
244.4350516746125095
 51
317.2434380599622159
  0
ARC
  5
3C0FB
  8
0
 10
2957.1811944091541591
 20
248.9912924488826036
 30
0.0
 40
0.0738823044496772
 50
161.2402122011914969
 51
243.4317579259547983
  0
ARC
  5
3C0FC
  8
0
 10
2957.206041831355833
 20
248.9797053771117135
 30
0.0
 40
0.1011800387555695
 50
81.6146726773545339
 51
159.5521557376007991
  0
ARC
  5
3C0FD
  8
0
 10
2957.1843257685218305
 20
248.9839107027887906
 30
0.0
 40
0.0596684302398596
 50
23.1628839707462184
 51
99.8117291563225706
  0
ARC
  5
3C0FE
  8
0
 10
2957.188210794186034
 20
248.9869555950805875
 30
0.0
 40
0.0549135951803018
 50
301.5735714047057741
 51
21.8363327413968094
  0
ARC
  5
3C0FF
  8
0
 10
2957.1838847685908149
 20
248.9920266897335921
 30
0.0
 40
0.0615077171455392
 50
225.0596149092596931
 51
302.5335012414682865
  0
ARC
  5
3C100
  8
0
 10
2957.1787670874150535
 20
248.9869402837807968
 30
0.0
 40
0.054292372937462
 50
151.023957870017199
 51
225.09087593200789
  0
ARC
  5
3C101
  8
0
 10
2957.1828748193988758
 20
248.984074245184587
 30
0.0
 40
0.0592766008223859
 50
98.4565913926407035
 51
150.5239291439617091
  0
ARC
  5
3C102
  8
0
 10
2957.1838583468429533
 20
248.9841042219659926
 30
0.0
 40
0.0223046072561604
 50
33.549192768888453
 51
145.329165913642413
  0
ARC
  5
3C103
  8
0
 10
2957.1838696959248409
 20
248.9874804019478916
 30
0.0
 40
0.0223474279581275
 50
216.9440925052414002
 51
320.5708602965568161
  0
ARC
  5
3C104
  8
0
 10
2957.1820786899520499
 20
248.9857756414097025
 30
0.0
 40
0.0198934507250523
 50
146.3725643927868134
 51
216.12027512065319
  0
ARC
  5
3C105
  8
0
 10
2957.1858036280141278
 20
248.9857680633786003
 30
0.0
 40
0.0197663169968197
 50
320.8443294098831871
 51
32.6459342234488119
  0
ARC
  5
3C106
  8
0
 10
2956.5198297360789184
 20
250.8071243881720989
 30
0.0
 40
0.0796207654095198
 50
13.5285838925177604
 51
83.1720255674712234
  0
ARC
  5
3C107
  8
0
 10
2956.516635057908843
 20
250.8114386467377983
 30
0.0
 40
0.0818668598602546
 50
315.7375309694792804
 51
10.0678259786158595
  0
ARC
  5
3C108
  8
0
 10
2956.5005561181310441
 20
250.8233751111663139
 30
0.0
 40
0.101747946844879
 50
244.4350516746125095
 51
317.2434380599622159
  0
ARC
  5
3C109
  8
0
 10
2956.4896932752649263
 20
250.7976691265618001
 30
0.0
 40
0.0738823044496772
 50
161.2402122011914969
 51
243.4317579259547983
  0
ARC
  5
3C10A
  8
0
 10
2956.514540697467055
 20
250.7860820547909952
 30
0.0
 40
0.1011800387555695
 50
81.6146726773545339
 51
159.5521557376007991
  0
ARC
  5
3C10B
  8
0
 10
2956.4928246346330525
 20
250.7902873804679871
 30
0.0
 40
0.0596684302398596
 50
23.1628839707462184
 51
99.8117291563225706
  0
ARC
  5
3C10C
  8
0
 10
2956.4967096602968013
 20
250.7933322727598977
 30
0.0
 40
0.0549135951803018
 50
301.5735714047057741
 51
21.8363327413968094
  0
ARC
  5
3C10D
  8
0
 10
2956.4923836347020369
 20
250.7984033674127886
 30
0.0
 40
0.0615077171455392
 50
225.0596149092596931
 51
302.5335012414682865
  0
ARC
  5
3C10E
  8
0
 10
2956.4872659535258208
 20
250.7933169614599933
 30
0.0
 40
0.054292372937462
 50
151.023957870017199
 51
225.09087593200789
  0
ARC
  5
3C10F
  8
0
 10
2956.4913736855100979
 20
250.7904509228638119
 30
0.0
 40
0.0592766008223859
 50
98.4565913926407035
 51
150.5239291439617091
  0
ARC
  5
3C110
  8
0
 10
2956.4923572129528111
 20
250.7904808996451891
 30
0.0
 40
0.0223046072561604
 50
33.549192768888453
 51
145.329165913642413
  0
ARC
  5
3C111
  8
0
 10
2956.4923685620360629
 20
250.7938570796270881
 30
0.0
 40
0.0223474279581275
 50
216.9440925052414002
 51
320.5708602965568161
  0
ARC
  5
3C112
  8
0
 10
2956.4905775560628172
 20
250.7921523190890127
 30
0.0
 40
0.0198934507250523
 50
146.3725643927868134
 51
216.12027512065319
  0
ARC
  5
3C113
  8
0
 10
2956.494302494124895
 20
250.7921447410577969
 30
0.0
 40
0.0197663169968197
 50
320.8443294098831871
 51
32.6459342234488119
  0
ARC
  5
3C114
  8
0
 10
2956.2215341829719364
 20
250.1025056728863092
 30
0.0
 40
0.0459737295141172
 50
3.3650138355133818
 51
113.5488656000417933
  0
ARC
  5
3C115
  8
0
 10
2956.2150234767859729
 20
250.1102194447088038
 30
0.0
 40
0.0526446076710393
 50
274.9641953705523747
 51
354.5333490842957076
  0
ARC
  5
3C116
  8
0
 10
2956.2178844318818847
 20
250.1036689796463861
 30
0.0
 40
0.0459279426040826
 50
184.5229791264762866
 51
272.1144570660991917
  0
ARC
  5
3C117
  8
0
 10
2956.2217596311020316
 20
250.0985793656435874
 30
0.0
 40
0.0496817990950203
 50
111.9779252714822064
 51
178.3070218726419967
  0
ARC
  5
3C118
  8
0
 10
2956.2203417137748147
 20
250.1032289308425902
 30
0.0
 40
0.0281421644099724
 50
26.1793599042835616
 51
154.6863032521970069
  0
ARC
  5
3C119
  8
0
 10
2956.2188086356140957
 20
250.1070218780511141
 30
0.0
 40
0.0286005630111563
 50
217.0573802963560865
 51
323.6220595946344929
  0
ARC
  5
3C11A
  8
0
 10
2956.2216757098649396
 20
250.1060918622883946
 30
0.0
 40
0.0257582050355851
 50
321.5046201023167782
 51
21.7691776700398307
  0
ARC
  5
3C11B
  8
0
 10
2956.2173546152989729
 20
250.1034555328886029
 30
0.0
 40
0.0253676728943692
 50
152.263530071567601
 51
212.6037769964229085
  0
ARC
  5
3C11C
  8
0
 10
2956.2200838766120796
 20
250.1373592970433037
 30
0.0
 40
0.0335028270365927
 50
221.2671993389361091
 51
319.5984638175382884
  0
ARC
  5
3C11D
  8
0
 10
2956.8054325476059603
 20
249.1416559674636062
 30
0.0
 40
0.0459737295141172
 50
3.3650138355133818
 51
113.5488656000417933
  0
ARC
  5
3C11E
  8
0
 10
2956.7989218414199968
 20
249.1493697392861009
 30
0.0
 40
0.0526446076710393
 50
274.9641953705523747
 51
354.5333490842957076
  0
ARC
  5
3C11F
  8
0
 10
2956.8017827965159086
 20
249.1428192742237115
 30
0.0
 40
0.0459279426040826
 50
184.5229791264762866
 51
272.1144570660991917
  0
ARC
  5
3C120
  8
0
 10
2956.8056579957360555
 20
249.1377296602207991
 30
0.0
 40
0.0496817990950203
 50
111.9779252714822064
 51
178.3070218726419967
  0
ARC
  5
3C121
  8
0
 10
2956.8042400784102028
 20
249.142379225419802
 30
0.0
 40
0.0281421644099724
 50
26.1793599042835616
 51
154.6863032521970069
  0
ARC
  5
3C122
  8
0
 10
2956.8027070002481196
 20
249.1461721726284964
 30
0.0
 40
0.0286005630111563
 50
217.0573802963560865
 51
323.6220595946344929
  0
ARC
  5
3C123
  8
0
 10
2956.8055740744998729
 20
249.1452421568656916
 30
0.0
 40
0.0257582050355851
 50
321.5046201023167782
 51
21.7691776700398307
  0
ARC
  5
3C124
  8
0
 10
2956.8012529799339063
 20
249.1426058274658999
 30
0.0
 40
0.0253676728943692
 50
152.263530071567601
 51
212.6037769964229085
  0
ARC
  5
3C125
  8
0
 10
2956.8039822412461035
 20
249.1765095916206008
 30
0.0
 40
0.0335028270365927
 50
221.2671993389361091
 51
319.5984638175382884
  0
ARC
  5
3C126
  8
0
 10
2956.8058571495589604
 20
251.0633436270751986
 30
0.0
 40
0.0459737295141172
 50
3.3650138355133818
 51
113.5488656000417933
  0
ARC
  5
3C127
  8
0
 10
2956.7993464433739064
 20
251.0710573988976932
 30
0.0
 40
0.0526446076710393
 50
274.9641953705523747
 51
354.5333490842957076
  0
ARC
  5
3C128
  8
0
 10
2956.8022073984698181
 20
251.0645069338353039
 30
0.0
 40
0.0459279426040826
 50
184.5229791264762866
 51
272.1144570660991917
  0
ARC
  5
3C129
  8
0
 10
2956.8060825976890555
 20
251.0594173198323915
 30
0.0
 40
0.0496817990950203
 50
111.9779252714822064
 51
178.3070218726419967
  0
ARC
  5
3C12A
  8
0
 10
2956.8046646803641124
 20
251.0640668850313943
 30
0.0
 40
0.0281421644099724
 50
26.1793599042835616
 51
154.6863032521970069
  0
ARC
  5
3C12B
  8
0
 10
2956.8031316022020292
 20
251.0678598322400035
 30
0.0
 40
0.0286005630111563
 50
217.0573802963560865
 51
323.6220595946344929
  0
ARC
  5
3C12C
  8
0
 10
2956.805998676452873
 20
251.0669298164773124
 30
0.0
 40
0.0257582050355851
 50
321.5046201023167782
 51
21.7691776700398307
  0
ARC
  5
3C12D
  8
0
 10
2956.8016775818869064
 20
251.0642934870774923
 30
0.0
 40
0.0253676728943692
 50
152.263530071567601
 51
212.6037769964229085
  0
ARC
  5
3C12E
  8
0
 10
2956.8044068431991036
 20
251.0981972512321931
 30
0.0
 40
0.0335028270365927
 50
221.2671993389361091
 51
319.5984638175382884
  0
ARC
  5
3C12F
  8
0
 10
2958.8510203942278167
 20
250.7094366279355881
 30
0.0
 40
0.0796207654095198
 50
96.8279744325287766
 51
166.471416107482213
  0
ARC
  5
3C130
  8
0
 10
2958.8542150723978921
 20
250.7137508865012876
 30
0.0
 40
0.0818668598602546
 50
169.9321740213840997
 51
224.2624690305206911
  0
ARC
  5
3C131
  8
0
 10
2958.8702940121770553
 20
250.7256873509298885
 30
0.0
 40
0.101747946844879
 50
222.7565619400378125
 51
295.5649483253874905
  0
ARC
  5
3C132
  8
0
 10
2958.8811568550418087
 20
250.6999813663254031
 30
0.0
 40
0.0738823044496772
 50
296.568242074045088
 51
18.7597877988084782
  0
ARC
  5
3C133
  8
0
 10
2958.8563094328410443
 20
250.688394294554513
 30
0.0
 40
0.1011800387555695
 50
20.4478442623991903
 51
98.3853273226454661
  0
ARC
  5
3C134
  8
0
 10
2958.8780254956741373
 20
250.6925996202315901
 30
0.0
 40
0.0596684302398596
 50
80.1882708436774436
 51
156.8371160292537922
  0
ARC
  5
3C135
  8
0
 10
2958.8741404700099338
 20
250.695644512523387
 30
0.0
 40
0.0549135951803018
 50
158.1636672586031978
 51
238.4264285952941123
  0
ARC
  5
3C136
  8
0
 10
2958.8784664956051529
 20
250.7007156071763916
 30
0.0
 40
0.0615077171455392
 50
237.4664987585317135
 51
314.9403850907403921
  0
ARC
  5
3C137
  8
0
 10
2958.8835841767818238
 20
250.6956292012235963
 30
0.0
 40
0.054292372937462
 50
314.9091240679920816
 51
28.9760421299828295
  0
ARC
  5
3C138
  8
0
 10
2958.8794764447980015
 20
250.6927631626273012
 30
0.0
 40
0.0592766008223859
 50
29.4760708560382412
 51
81.5434086073592823
  0
ARC
  5
3C139
  8
0
 10
2958.8784929173530145
 20
250.6927931394087921
 30
0.0
 40
0.0223046072561604
 50
34.6708340863575799
 51
146.4508072311114972
  0
ARC
  5
3C13A
  8
0
 10
2958.8784815682720364
 20
250.696169319390691
 30
0.0
 40
0.0223474279581275
 50
219.4291397034432123
 51
323.0559074947573208
  0
ARC
  5
3C13B
  8
0
 10
2958.8802725742448274
 20
250.694464558852502
 30
0.0
 40
0.0198934507250523
 50
323.8797248793454173
 51
33.6274356072132008
  0
ARC
  5
3C13C
  8
0
 10
2958.8765476361832043
 20
250.6944569808213998
 30
0.0
 40
0.0197663169968197
 50
147.3540657765512094
 51
219.1556705901168129
  0
ARC
  5
3C13D
  8
0
 10
2958.5988913318001323
 20
251.083195317104213
 30
0.0
 40
0.0796207654095198
 50
96.8279744325287766
 51
166.471416107482213
  0
ARC
  5
3C13E
  8
0
 10
2958.6020860099702077
 20
251.0875095756699125
 30
0.0
 40
0.0818668598602546
 50
169.9321740213840997
 51
224.2624690305206911
  0
ARC
  5
3C13F
  8
0
 10
2958.6181649497489161
 20
251.0994460400983996
 30
0.0
 40
0.101747946844879
 50
222.7565619400378125
 51
295.5649483253874905
  0
ARC
  5
3C140
  8
0
 10
2958.6290277926141243
 20
251.0737400554939995
 30
0.0
 40
0.0738823044496772
 50
296.568242074045088
 51
18.7597877988084782
  0
ARC
  5
3C141
  8
0
 10
2958.6041803704119957
 20
251.0621529837231094
 30
0.0
 40
0.1011800387555695
 50
20.4478442623991903
 51
98.3853273226454661
  0
ARC
  5
3C142
  8
0
 10
2958.6258964332459982
 20
251.0663583094001012
 30
0.0
 40
0.0596684302398596
 50
80.1882708436774436
 51
156.8371160292537922
  0
ARC
  5
3C143
  8
0
 10
2958.6220114075817946
 20
251.0694032016920119
 30
0.0
 40
0.0549135951803018
 50
158.1636672586031978
 51
238.4264285952941123
  0
ARC
  5
3C144
  8
0
 10
2958.6263374331770137
 20
251.0744742963449028
 30
0.0
 40
0.0615077171455392
 50
237.4664987585317135
 51
314.9403850907403921
  0
ARC
  5
3C145
  8
0
 10
2958.6314551143541394
 20
251.0693878903921075
 30
0.0
 40
0.054292372937462
 50
314.9091240679920816
 51
28.9760421299828295
  0
ARC
  5
3C146
  8
0
 10
2958.6273473823698623
 20
251.0665218517958976
 30
0.0
 40
0.0592766008223859
 50
29.4760708560382412
 51
81.5434086073592823
  0
ARC
  5
3C147
  8
0
 10
2958.6263638549248753
 20
251.0665518285773885
 30
0.0
 40
0.0223046072561604
 50
34.6708340863575799
 51
146.4508072311114972
  0
ARC
  5
3C148
  8
0
 10
2958.6263525058438972
 20
251.0699280085592875
 30
0.0
 40
0.0223474279581275
 50
219.4291397034432123
 51
323.0559074947573208
  0
ARC
  5
3C149
  8
0
 10
2958.628143511817143
 20
251.0682232480210985
 30
0.0
 40
0.0198934507250523
 50
323.8797248793454173
 51
33.6274356072132008
  0
ARC
  5
3C14A
  8
0
 10
2958.6244185737541557
 20
251.0682156699899963
 30
0.0
 40
0.0197663169968197
 50
147.3540657765512094
 51
219.1556705901168129
  0
ARC
  5
3C14B
  8
0
 10
2958.2477478137520848
 20
251.3716688202939906
 30
0.0
 40
0.0796207654095198
 50
96.8279744325287766
 51
166.471416107482213
  0
ARC
  5
3C14C
  8
0
 10
2958.2509424919221601
 20
251.3759830788596901
 30
0.0
 40
0.0818668598602546
 50
169.9321740213840997
 51
224.2624690305206911
  0
ARC
  5
3C14D
  8
0
 10
2958.2670214317008686
 20
251.3879195432882057
 30
0.0
 40
0.101747946844879
 50
222.7565619400378125
 51
295.5649483253874905
  0
ARC
  5
3C14E
  8
0
 10
2958.2778842745660768
 20
251.3622135586836919
 30
0.0
 40
0.0738823044496772
 50
296.568242074045088
 51
18.7597877988084782
  0
ARC
  5
3C14F
  8
0
 10
2958.2530368523639481
 20
251.3506264869128017
 30
0.0
 40
0.1011800387555695
 50
20.4478442623991903
 51
98.3853273226454661
  0
ARC
  5
3C150
  8
0
 10
2958.2747529151979506
 20
251.3548318125899073
 30
0.0
 40
0.0596684302398596
 50
80.1882708436774436
 51
156.8371160292537922
  0
ARC
  5
3C151
  8
0
 10
2958.2708678895351113
 20
251.3578767048817895
 30
0.0
 40
0.0549135951803018
 50
158.1636672586031978
 51
238.4264285952941123
  0
ARC
  5
3C152
  8
0
 10
2958.2751939151289662
 20
251.3629477995347088
 30
0.0
 40
0.0615077171455392
 50
237.4664987585317135
 51
314.9403850907403921
  0
ARC
  5
3C153
  8
0
 10
2958.2803115963051823
 20
251.3578613935819988
 30
0.0
 40
0.054292372937462
 50
314.9091240679920816
 51
28.9760421299828295
  0
ARC
  5
3C154
  8
0
 10
2958.2762038643218148
 20
251.3549953549857037
 30
0.0
 40
0.0592766008223859
 50
29.4760708560382412
 51
81.5434086073592823
  0
ARC
  5
3C155
  8
0
 10
2958.275220336878192
 20
251.3550253317671093
 30
0.0
 40
0.0223046072561604
 50
34.6708340863575799
 51
146.4508072311114972
  0
ARC
  5
3C156
  8
0
 10
2958.2752089877958497
 20
251.3584015117490935
 30
0.0
 40
0.0223474279581275
 50
219.4291397034432123
 51
323.0559074947573208
  0
ARC
  5
3C157
  8
0
 10
2958.276999993768186
 20
251.3566967512109045
 30
0.0
 40
0.0198934507250523
 50
323.8797248793454173
 51
33.6274356072132008
  0
ARC
  5
3C158
  8
0
 10
2958.2732750557070176
 20
251.3566891731798023
 30
0.0
 40
0.0197663169968197
 50
147.3540657765512094
 51
219.1556705901168129
  0
ARC
  5
3C159
  8
0
 10
2957.8323219415610765
 20
251.5417254077997882
 30
0.0
 40
0.0796207654095198
 50
96.8279744325287766
 51
166.4714161074807066
  0
ARC
  5
3C15A
  8
0
 10
2957.8355166197311519
 20
251.5460396663654876
 30
0.0
 40
0.0818668598602546
 50
169.9321740213840997
 51
224.2624690305206911
  0
ARC
  5
3C15B
  8
0
 10
2957.8515955595089508
 20
251.5579761307940032
 30
0.0
 40
0.101747946844879
 50
222.7565619400378125
 51
295.5649483253874905
  0
ARC
  5
3C15C
  8
0
 10
2957.8624584023750685
 20
251.5322701461894894
 30
0.0
 40
0.0738823044496772
 50
296.568242074045088
 51
18.7597877988084782
  0
ARC
  5
3C15D
  8
0
 10
2957.8376109801729399
 20
251.520683074418713
 30
0.0
 40
0.1011800387555695
 50
20.4478442623991903
 51
98.3853273226454661
  0
ARC
  5
3C15E
  8
0
 10
2957.8593270430069424
 20
251.5248884000957048
 30
0.0
 40
0.0596684302398596
 50
80.1882708436774436
 51
156.8371160292537922
  0
ARC
  5
3C15F
  8
0
 10
2957.8554420173431936
 20
251.527933292387587
 30
0.0
 40
0.0549135951803018
 50
158.1636672586031978
 51
238.4264285952941123
  0
ARC
  5
3C160
  8
0
 10
2957.8597680429379579
 20
251.5330043870405916
 30
0.0
 40
0.0615077171455392
 50
237.4664987585317135
 51
314.9403850907403921
  0
ARC
  5
3C161
  8
0
 10
2957.8648857241141741
 20
251.527917981087711
 30
0.0
 40
0.054292372937462
 50
314.9091240679920816
 51
28.9760421299828295
  0
ARC
  5
3C162
  8
0
 10
2957.860777992129897
 20
251.5250519424915012
 30
0.0
 40
0.0592766008223859
 50
29.4760708560382412
 51
81.5434086073592823
  0
ARC
  5
3C163
  8
0
 10
2957.8597944646858195
 20
251.5250819192729921
 30
0.0
 40
0.0223046072561604
 50
34.6708340863575799
 51
146.4508072311114972
  0
ARC
  5
3C164
  8
0
 10
2957.8597831156048414
 20
251.5284580992548911
 30
0.0
 40
0.0223474279581275
 50
219.4291397034432123
 51
323.0559074947573208
  0
ARC
  5
3C165
  8
0
 10
2957.8615741215771777
 20
251.526753338716702
 30
0.0
 40
0.0198934507250523
 50
323.8797248793454173
 51
33.6274356072132008
  0
ARC
  5
3C166
  8
0
 10
2957.8578491835160094
 20
251.5267457606855999
 30
0.0
 40
0.0197663169968197
 50
147.3540657765512094
 51
219.1556705901168129
  0
ARC
  5
3C167
  8
0
 10
2957.5617579760510125
 20
251.1863585633819866
 30
0.0
 40
0.0796207654095198
 50
96.8279744325287766
 51
166.471416107482213
  0
ARC
  5
3C168
  8
0
 10
2957.5649526542210879
 20
251.1906728219476861
 30
0.0
 40
0.0818668598602546
 50
169.9321740213840997
 51
224.2624690305206911
  0
ARC
  5
3C169
  8
0
 10
2957.5810315939997963
 20
251.2026092863762017
 30
0.0
 40
0.101747946844879
 50
222.7565619400378125
 51
295.5649483253874905
  0
ARC
  5
3C16A
  8
0
 10
2957.5918944368650045
 20
251.1769033017718016
 30
0.0
 40
0.0738823044496772
 50
296.568242074045088
 51
18.7597877988084782
  0
ARC
  5
3C16B
  8
0
 10
2957.5670470146628759
 20
251.1653162300009114
 30
0.0
 40
0.1011800387555695
 50
20.4478442623991903
 51
98.3853273226454661
  0
ARC
  5
3C16C
  8
0
 10
2957.5887630774968784
 20
251.1695215556779033
 30
0.0
 40
0.0596684302398596
 50
80.1882708436774436
 51
156.8371160292537922
  0
ARC
  5
3C16D
  8
0
 10
2957.5848780518340391
 20
251.1725664479698139
 30
0.0
 40
0.0549135951803018
 50
158.1636672586031978
 51
238.4264285952941123
  0
ARC
  5
3C16E
  8
0
 10
2957.5892040774288034
 20
251.1776375426227901
 30
0.0
 40
0.0615077171455392
 50
237.4664987585317135
 51
314.9403850907403921
  0
ARC
  5
3C16F
  8
0
 10
2957.5943217586050196
 20
251.1725511366699948
 30
0.0
 40
0.054292372937462
 50
314.9091240679920816
 51
28.9760421299828295
  0
ARC
  5
3C170
  8
0
 10
2957.5902140266211973
 20
251.1696850980736997
 30
0.0
 40
0.0592766008223859
 50
29.4760708560382412
 51
81.5434086073592823
  0
ARC
  5
3C171
  8
0
 10
2957.5892304991771198
 20
251.1697150748551906
 30
0.0
 40
0.0223046072561604
 50
34.6708340863575799
 51
146.4508072311114972
  0
ARC
  5
3C172
  8
0
 10
2957.5892191500947774
 20
251.1730912548370895
 30
0.0
 40
0.0223474279581275
 50
219.4291397034432123
 51
323.0559074947573208
  0
ARC
  5
3C173
  8
0
 10
2957.5910101560680232
 20
251.1713864942989005
 30
0.0
 40
0.0198934507250523
 50
323.8797248793454173
 51
33.6274356072132008
  0
ARC
  5
3C174
  8
0
 10
2957.5872852180059454
 20
251.1713789162677983
 30
0.0
 40
0.0197663169968197
 50
147.3540657765512094
 51
219.1556705901168129
  0
ARC
  5
3C175
  8
0
 10
2957.6702596463551345
 20
252.0117550739767012
 30
0.0
 40
0.0796207654095198
 50
96.8279744325287766
 51
166.4714161074807066
  0
ARC
  5
3C176
  8
0
 10
2957.6734543245252098
 20
252.0160693325424006
 30
0.0
 40
0.0818668598602546
 50
169.9321740213840997
 51
224.2624690305206911
  0
ARC
  5
3C177
  8
0
 10
2957.6895332643039183
 20
252.0280057969708878
 30
0.0
 40
0.101747946844879
 50
222.7565619400378125
 51
295.5649483253874905
  0
ARC
  5
3C178
  8
0
 10
2957.7003961071691265
 20
252.0022998123664877
 30
0.0
 40
0.0738823044496772
 50
296.568242074045088
 51
18.7597877988084782
  0
ARC
  5
3C179
  8
0
 10
2957.6755486849669978
 20
251.9907127405955976
 30
0.0
 40
0.1011800387555695
 50
20.4478442623991903
 51
98.3853273226454661
  0
ARC
  5
3C17A
  8
0
 10
2957.6972647478010003
 20
251.9949180662725894
 30
0.0
 40
0.0596684302398596
 50
80.1882708436774436
 51
156.8371160292537922
  0
ARC
  5
3C17B
  8
0
 10
2957.6933797221367968
 20
251.9979629585645
 30
0.0
 40
0.0549135951803018
 50
158.1636672586031978
 51
238.4264285952941123
  0
ARC
  5
3C17C
  8
0
 10
2957.6977057477320159
 20
252.0030340532175046
 30
0.0
 40
0.0615077171455392
 50
237.4664987585317135
 51
314.9403850907403921
  0
ARC
  5
3C17D
  8
0
 10
2957.7028234289077773
 20
251.9979476472647093
 30
0.0
 40
0.054292372937462
 50
314.9091240679920816
 51
28.9760421299828295
  0
ARC
  5
3C17E
  8
0
 10
2957.698715696923955
 20
251.9950816086684995
 30
0.0
 40
0.0592766008223859
 50
29.4760708560382412
 51
81.5434086073592823
  0
ARC
  5
3C17F
  8
0
 10
2957.697732169480787
 20
251.9951115854499051
 30
0.0
 40
0.0223046072561604
 50
34.6708340863575799
 51
146.4508072311114972
  0
ARC
  5
3C180
  8
0
 10
2957.6977208203979899
 20
251.9984877654318041
 30
0.0
 40
0.0223474279581275
 50
219.4291397034432123
 51
323.0559074947573208
  0
ARC
  5
3C181
  8
0
 10
2957.6995118263707809
 20
251.9967830048935866
 30
0.0
 40
0.0198934507250523
 50
323.8797248793454173
 51
33.6274356072132008
  0
ARC
  5
3C182
  8
0
 10
2957.6957868883100673
 20
251.9967754268625129
 30
0.0
 40
0.0197663169968197
 50
147.3540657765512094
 51
219.1556705901168129
  0
ARC
  5
3C183
  8
0
 10
2958.2372358738889488
 20
251.8544048717376995
 30
0.0
 40
0.0796207654095198
 50
96.8279744325287766
 51
166.4714161074807066
  0
ARC
  5
3C184
  8
0
 10
2958.2404305520581147
 20
251.8587191303033137
 30
0.0
 40
0.0818668598602546
 50
169.9321740213840997
 51
224.2624690305206911
  0
ARC
  5
3C185
  8
0
 10
2958.2565094918368231
 20
251.8706555947318009
 30
0.0
 40
0.101747946844879
 50
222.7565619400378125
 51
295.5649483253874905
  0
ARC
  5
3C186
  8
0
 10
2958.2673723347029409
 20
251.8449496101272871
 30
0.0
 40
0.0738823044496772
 50
296.568242074045088
 51
18.7597877988084782
  0
ARC
  5
3C187
  8
0
 10
2958.2425249125008122
 20
251.8333625383565106
 30
0.0
 40
0.1011800387555695
 50
20.4478442623991903
 51
98.3853273226454661
  0
ARC
  5
3C188
  8
0
 10
2958.2642409753348147
 20
251.8375678640335025
 30
0.0
 40
0.0596684302398596
 50
80.1882708436774436
 51
156.8371160292537922
  0
ARC
  5
3C189
  8
0
 10
2958.2603559496710659
 20
251.8406127563254131
 30
0.0
 40
0.0549135951803018
 50
158.1636672586031978
 51
238.4264285952941123
  0
ARC
  5
3C18A
  8
0
 10
2958.2646819752649208
 20
251.8456838509783893
 30
0.0
 40
0.0615077171455392
 50
237.4664987585317135
 51
314.9403850907403921
  0
ARC
  5
3C18B
  8
0
 10
2958.2697996564420464
 20
251.840597445025594
 30
0.0
 40
0.054292372937462
 50
314.9091240679920816
 51
28.9760421299828295
  0
ARC
  5
3C18C
  8
0
 10
2958.2656919244582241
 20
251.8377314064292989
 30
0.0
 40
0.0592766008223859
 50
29.4760708560382412
 51
81.5434086073592823
  0
ARC
  5
3C18D
  8
0
 10
2958.2647083970141466
 20
251.8377613832107045
 30
0.0
 40
0.0223046072561604
 50
34.6708340863575799
 51
146.4508072311114972
  0
ARC
  5
3C18E
  8
0
 10
2958.2646970479318043
 20
251.8411375631926887
 30
0.0
 40
0.0223474279581275
 50
219.4291397034432123
 51
323.0559074947573208
  0
ARC
  5
3C18F
  8
0
 10
2958.26648805390505
 20
251.8394328026544997
 30
0.0
 40
0.0198934507250523
 50
323.8797248793454173
 51
33.6274356072132008
  0
ARC
  5
3C190
  8
0
 10
2958.2627631158429722
 20
251.8394252246233975
 30
0.0
 40
0.0197663169968197
 50
147.3540657765512094
 51
219.1556705901168129
  0
ARC
  5
3C191
  8
0
 10
2958.7439985494611392
 20
251.5459553386884863
 30
0.0
 40
0.0796207654095198
 50
96.8279744325287766
 51
166.4714161074807066
  0
ARC
  5
3C192
  8
0
 10
2958.7471932276312145
 20
251.5502695972542142
 30
0.0
 40
0.0818668598602546
 50
169.9321740213840997
 51
224.2624690305206911
  0
ARC
  5
3C193
  8
0
 10
2958.763272167409923
 20
251.5622060616827014
 30
0.0
 40
0.101747946844879
 50
222.7565619400378125
 51
295.5649483253874905
  0
ARC
  5
3C194
  8
0
 10
2958.7741350102751312
 20
251.5365000770783013
 30
0.0
 40
0.0738823044496772
 50
296.568242074045088
 51
18.7597877988084782
  0
ARC
  5
3C195
  8
0
 10
2958.7492875880730026
 20
251.5249130053074111
 30
0.0
 40
0.1011800387555695
 50
20.4478442623991903
 51
98.3853273226454661
  0
ARC
  5
3C196
  8
0
 10
2958.7710036509070051
 20
251.5291183309844882
 30
0.0
 40
0.0596684302398596
 50
80.1882708436774436
 51
156.8371160292537922
  0
ARC
  5
3C197
  8
0
 10
2958.7671186252428015
 20
251.5321632232763136
 30
0.0
 40
0.0549135951803018
 50
158.1636672586031978
 51
238.4264285952941123
  0
ARC
  5
3C198
  8
0
 10
2958.7714446508380206
 20
251.5372343179292898
 30
0.0
 40
0.0615077171455392
 50
237.4664987585317135
 51
314.9403850907403921
  0
ARC
  5
3C199
  8
0
 10
2958.776562332013782
 20
251.5321479119764945
 30
0.0
 40
0.054292372937462
 50
314.9091240679920816
 51
28.9760421299828295
  0
ARC
  5
3C19A
  8
0
 10
2958.7724546000308692
 20
251.5292818733801994
 30
0.0
 40
0.0592766008223859
 50
29.4760708560382412
 51
81.5434086073592823
  0
ARC
  5
3C19B
  8
0
 10
2958.7714710725858822
 20
251.5293118501616902
 30
0.0
 40
0.0223046072561604
 50
34.6708340863575799
 51
146.4508072311114972
  0
ARC
  5
3C19C
  8
0
 10
2958.7714597235049041
 20
251.5326880301435892
 30
0.0
 40
0.0223474279581275
 50
219.4291397034432123
 51
323.0559074947573208
  0
ARC
  5
3C19D
  8
0
 10
2958.7732507294767856
 20
251.5309832696054002
 30
0.0
 40
0.0198934507250523
 50
323.8797248793454173
 51
33.6274356072132008
  0
ARC
  5
3C19E
  8
0
 10
2958.769525791416072
 20
251.530975691574298
 30
0.0
 40
0.0197663169968197
 50
147.3540657765512094
 51
219.1556705901168129
  0
ARC
  5
3C19F
  8
0
 10
2959.1357737217831527
 20
251.1142821521505937
 30
0.0
 40
0.0796207654095198
 50
96.8279744325287766
 51
166.471416107482213
  0
ARC
  5
3C1A0
  8
0
 10
2959.1389683999518638
 20
251.1185964107162931
 30
0.0
 40
0.0818668598602546
 50
169.9321740213840997
 51
224.2624690305206911
  0
ARC
  5
3C1A1
  8
0
 10
2959.155047339731027
 20
251.1305328751448087
 30
0.0
 40
0.101747946844879
 50
222.7565619400378125
 51
295.5649483253874905
  0
ARC
  5
3C1A2
  8
0
 10
2959.1659101825957805
 20
251.1048268905402949
 30
0.0
 40
0.0738823044496772
 50
296.568242074045088
 51
18.7597877988084782
  0
ARC
  5
3C1A3
  8
0
 10
2959.1410627603950161
 20
251.0932398187694901
 30
0.0
 40
0.1011800387555695
 50
20.4478442623991903
 51
98.3853273226454661
  0
ARC
  5
3C1A4
  8
0
 10
2959.1627788232290186
 20
251.0974451444465103
 30
0.0
 40
0.0596684302398596
 50
80.1882708436774436
 51
156.8371160292537922
  0
ARC
  5
3C1A5
  8
0
 10
2959.158893797564815
 20
251.1004900367383925
 30
0.0
 40
0.0549135951803018
 50
158.1636672586031978
 51
238.4264285952941123
  0
ARC
  5
3C1A6
  8
0
 10
2959.1632198231591246
 20
251.1055611313913118
 30
0.0
 40
0.0615077171455392
 50
237.4664987585317135
 51
314.9403850907403921
  0
ARC
  5
3C1A7
  8
0
 10
2959.1683375043357955
 20
251.1004747254386018
 30
0.0
 40
0.054292372937462
 50
314.9091240679920816
 51
28.9760421299828295
  0
ARC
  5
3C1A8
  8
0
 10
2959.1642297723519732
 20
251.0976086868423067
 30
0.0
 40
0.0592766008223859
 50
29.4760708560382412
 51
81.5434086073592823
  0
ARC
  5
3C1A9
  8
0
 10
2959.1632462449078957
 20
251.0976386636237976
 30
0.0
 40
0.0223046072561604
 50
34.6708340863575799
 51
146.4508072311114972
  0
ARC
  5
3C1AA
  8
0
 10
2959.1632348958260081
 20
251.1010148436056113
 30
0.0
 40
0.0223474279581275
 50
219.4291397034432123
 51
323.0559074947573208
  0
ARC
  5
3C1AB
  8
0
 10
2959.1650259017987992
 20
251.0993100830673939
 30
0.0
 40
0.0198934507250523
 50
323.8797248793454173
 51
33.6274356072132008
  0
ARC
  5
3C1AC
  8
0
 10
2959.1613009637371761
 20
251.0993025050364054
 30
0.0
 40
0.0197663169968197
 50
147.3540657765512094
 51
219.1556705901168129
  0
ARC
  5
3C1AD
  8
0
 10
2959.3870940508309104
 20
250.5934848556393035
 30
0.0
 40
0.0796207654095198
 50
96.8279744325287766
 51
166.471416107482213
  0
ARC
  5
3C1AE
  8
0
 10
2959.3902887290000763
 20
250.5977991142050882
 30
0.0
 40
0.0818668598602546
 50
169.9321740213840997
 51
224.2624690305206911
  0
ARC
  5
3C1AF
  8
0
 10
2959.4063676687787847
 20
250.6097355786336038
 30
0.0
 40
0.101747946844879
 50
222.7565619400378125
 51
295.5649483253874905
  0
ARC
  5
3C1B0
  8
0
 10
2959.4172305116439929
 20
250.58402959402909
 30
0.0
 40
0.0738823044496772
 50
296.568242074045088
 51
18.7597877988084782
  0
ARC
  5
3C1B1
  8
0
 10
2959.3923830894427738
 20
250.5724425222583136
 30
0.0
 40
0.1011800387555695
 50
20.4478442623991903
 51
98.3853273226454661
  0
ARC
  5
3C1B2
  8
0
 10
2959.4140991522758668
 20
250.5766478479353054
 30
0.0
 40
0.0596684302398596
 50
80.1882708436774436
 51
156.8371160292537922
  0
ARC
  5
3C1B3
  8
0
 10
2959.4102141266130275
 20
250.5796927402271876
 30
0.0
 40
0.0549135951803018
 50
158.1636672586031978
 51
238.4264285952941123
  0
ARC
  5
3C1B4
  8
0
 10
2959.4145401522077918
 20
250.584763834880107
 30
0.0
 40
0.0615077171455392
 50
237.4664987585317135
 51
314.9403850907403921
  0
ARC
  5
3C1B5
  8
0
 10
2959.419657833384008
 20
250.5796774289273117
 30
0.0
 40
0.054292372937462
 50
314.9091240679920816
 51
28.9760421299828295
  0
ARC
  5
3C1B6
  8
0
 10
2959.4155501014001857
 20
250.5768113903311018
 30
0.0
 40
0.0592766008223859
 50
29.4760708560382412
 51
81.5434086073592823
  0
ARC
  5
3C1B7
  8
0
 10
2959.4145665739561082
 20
250.5768413671125927
 30
0.0
 40
0.0223046072561604
 50
34.6708340863575799
 51
146.4508072311114972
  0
ARC
  5
3C1B8
  8
0
 10
2959.4145552248742206
 20
250.5802175470944064
 30
0.0
 40
0.0223474279581275
 50
219.4291397034432123
 51
323.0559074947573208
  0
ARC
  5
3C1B9
  8
0
 10
2959.4163462308470116
 20
250.578512786556189
 30
0.0
 40
0.0198934507250523
 50
323.8797248793454173
 51
33.6274356072132008
  0
ARC
  5
3C1BA
  8
0
 10
2959.4126212927849338
 20
250.5785052085250868
 30
0.0
 40
0.0197663169968197
 50
147.3540657765512094
 51
219.1556705901168129
  0
ARC
  5
3C1BB
  8
0
 10
2958.4564814799500709
 20
250.4722190256412944
 30
0.0
 40
0.0796207654095198
 50
96.8279744325287766
 51
166.471416107482213
  0
ARC
  5
3C1BC
  8
0
 10
2958.459676158118782
 20
250.4765332842069938
 30
0.0
 40
0.0818668598602546
 50
169.9321740213840997
 51
224.2624690305206911
  0
ARC
  5
3C1BD
  8
0
 10
2958.4757550978979452
 20
250.4884697486355094
 30
0.0
 40
0.101747946844879
 50
222.7565619400378125
 51
295.5649483253874905
  0
ARC
  5
3C1BE
  8
0
 10
2958.486617940764063
 20
250.4627637640309956
 30
0.0
 40
0.0738823044496772
 50
296.568242074045088
 51
18.7597877988084782
  0
ARC
  5
3C1BF
  8
0
 10
2958.4617705185619343
 20
250.4511766922601907
 30
0.0
 40
0.1011800387555695
 50
20.4478442623991903
 51
98.3853273226454661
  0
ARC
  5
3C1C0
  8
0
 10
2958.4834865813959368
 20
250.455382017937211
 30
0.0
 40
0.0596684302398596
 50
80.1882708436774436
 51
156.8371160292537922
  0
ARC
  5
3C1C1
  8
0
 10
2958.479601555732188
 20
250.4584269102290932
 30
0.0
 40
0.0549135951803018
 50
158.1636672586031978
 51
238.4264285952941123
  0
ARC
  5
3C1C2
  8
0
 10
2958.4839275813260429
 20
250.4634980048820978
 30
0.0
 40
0.0615077171455392
 50
237.4664987585317135
 51
314.9403850907403921
  0
ARC
  5
3C1C3
  8
0
 10
2958.4890452625031685
 20
250.4584115989293025
 30
0.0
 40
0.054292372937462
 50
314.9091240679920816
 51
28.9760421299828295
  0
ARC
  5
3C1C4
  8
0
 10
2958.4849375305188914
 20
250.4555455603330074
 30
0.0
 40
0.0592766008223859
 50
29.4760708560382412
 51
81.5434086073592823
  0
ARC
  5
3C1C5
  8
0
 10
2958.483954003074814
 20
250.4555755371144983
 30
0.0
 40
0.0223046072561604
 50
34.6708340863575799
 51
146.4508072311114972
  0
ARC
  5
3C1C6
  8
0
 10
2958.4839426539929264
 20
250.4589517170963973
 30
0.0
 40
0.0223474279581275
 50
219.4291397034432123
 51
323.0559074947573208
  0
ARC
  5
3C1C7
  8
0
 10
2958.4857336599661721
 20
250.4572469565582082
 30
0.0
 40
0.0198934507250523
 50
323.8797248793454173
 51
33.6274356072132008
  0
ARC
  5
3C1C8
  8
0
 10
2958.4820087219050038
 20
250.4572393785271061
 30
0.0
 40
0.0197663169968197
 50
147.3540657765512094
 51
219.1556705901168129
  0
ARC
  5
3C1C9
  8
0
 10
2958.981433213461969
 20
250.2842341299414954
 30
0.0
 40
0.0796207654095198
 50
96.8279744325287766
 51
166.471416107482213
  0
ARC
  5
3C1CA
  8
0
 10
2958.9846278916320443
 20
250.2885483885071949
 30
0.0
 40
0.0818668598602546
 50
169.9321740213840997
 51
224.2624690305206911
  0
ARC
  5
3C1CB
  8
0
 10
2959.0007068314112075
 20
250.3004848529357105
 30
0.0
 40
0.101747946844879
 50
222.7565619400378125
 51
295.5649483253874905
  0
ARC
  5
3C1CC
  8
0
 10
2959.011569674275961
 20
250.2747788683313104
 30
0.0
 40
0.0738823044496772
 50
296.568242074045088
 51
18.7597877988084782
  0
ARC
  5
3C1CD
  8
0
 10
2958.9867222520738324
 20
250.2631917965603918
 30
0.0
 40
0.1011800387555695
 50
20.4478442623991903
 51
98.3853273226454661
  0
ARC
  5
3C1CE
  8
0
 10
2959.0084383149078349
 20
250.2673971222374121
 30
0.0
 40
0.0596684302398596
 50
80.1882708436774436
 51
156.8371160292537922
  0
ARC
  5
3C1CF
  8
0
 10
2959.004553289244086
 20
250.2704420145292943
 30
0.0
 40
0.0549135951803018
 50
158.1636672586031978
 51
238.4264285952941123
  0
ARC
  5
3C1D0
  8
0
 10
2959.0088793148388504
 20
250.2755131091822136
 30
0.0
 40
0.0615077171455392
 50
237.4664987585317135
 51
314.9403850907403921
  0
ARC
  5
3C1D1
  8
0
 10
2959.0139969960150665
 20
250.2704267032295036
 30
0.0
 40
0.054292372937462
 50
314.9091240679920816
 51
28.9760421299828295
  0
ARC
  5
3C1D2
  8
0
 10
2959.0098892640307895
 20
250.2675606646332085
 30
0.0
 40
0.0592766008223859
 50
29.4760708560382412
 51
81.5434086073592823
  0
ARC
  5
3C1D3
  8
0
 10
2959.0089057365880763
 20
250.2675906414146993
 30
0.0
 40
0.0223046072561604
 50
34.6708340863575799
 51
146.4508072311114972
  0
ARC
  5
3C1D4
  8
0
 10
2959.0088943875048244
 20
250.2709668213965983
 30
0.0
 40
0.0223474279581275
 50
219.4291397034432123
 51
323.0559074947573208
  0
ARC
  5
3C1D5
  8
0
 10
2959.0106853934780702
 20
250.2692620608584093
 30
0.0
 40
0.0198934507250523
 50
323.8797248793454173
 51
33.6274356072132008
  0
ARC
  5
3C1D6
  8
0
 10
2959.0069604554169018
 20
250.2692544828271934
 30
0.0
 40
0.0197663169968197
 50
147.3540657765512094
 51
219.1556705901168129
  0
ARC
  5
3C1D7
  8
0
 10
2959.470840350841172
 20
250.0256227015671868
 30
0.0
 40
0.0796207654095198
 50
96.8279744325287766
 51
166.471416107482213
  0
ARC
  5
3C1D8
  8
0
 10
2959.4740350290107926
 20
250.0299369601328863
 30
0.0
 40
0.0818668598602546
 50
169.9321740213840997
 51
224.2624690305206911
  0
ARC
  5
3C1D9
  8
0
 10
2959.4901139687899558
 20
250.0418734245614019
 30
0.0
 40
0.101747946844879
 50
222.7565619400378125
 51
295.5649483253874905
  0
ARC
  5
3C1DA
  8
0
 10
2959.5009768116551641
 20
250.0161674399568881
 30
0.0
 40
0.0738823044496772
 50
296.568242074045088
 51
18.7597877988084782
  0
ARC
  5
3C1DB
  8
0
 10
2959.4761293894530354
 20
250.0045803681861116
 30
0.0
 40
0.1011800387555695
 50
20.4478442623991903
 51
98.3853273226454661
  0
ARC
  5
3C1DC
  8
0
 10
2959.4978454522879474
 20
250.0087856938631035
 30
0.0
 40
0.0596684302398596
 50
80.1882708436774436
 51
156.8371160292537922
  0
ARC
  5
3C1DD
  8
0
 10
2959.4939604266241986
 20
250.0118305861550141
 30
0.0
 40
0.0549135951803018
 50
158.1636672586031978
 51
238.4264285952941123
  0
ARC
  5
3C1DE
  8
0
 10
2959.4982864522180535
 20
250.016901680807905
 30
0.0
 40
0.0615077171455392
 50
237.4664987585317135
 51
314.9403850907403921
  0
ARC
  5
3C1DF
  8
0
 10
2959.5034041333951791
 20
250.011815274855195
 30
0.0
 40
0.054292372937462
 50
314.9091240679920816
 51
28.9760421299828295
  0
ARC
  5
3C1E0
  8
0
 10
2959.499296401410902
 20
250.0089492362588999
 30
0.0
 40
0.0592766008223859
 50
29.4760708560382412
 51
81.5434086073592823
  0
ARC
  5
3C1E1
  8
0
 10
2959.4983128739668246
 20
250.0089792130403055
 30
0.0
 40
0.0223046072561604
 50
34.6708340863575799
 51
146.4508072311114972
  0
ARC
  5
3C1E2
  8
0
 10
2959.498301524884937
 20
250.0123553930222897
 30
0.0
 40
0.0223474279581275
 50
219.4291397034432123
 51
323.0559074947573208
  0
ARC
  5
3C1E3
  8
0
 10
2959.5000925308568185
 20
250.0106506324841007
 30
0.0
 40
0.0198934507250523
 50
323.8797248793454173
 51
33.6274356072132008
  0
ARC
  5
3C1E4
  8
0
 10
2959.4963675927961049
 20
250.0106430544529985
 30
0.0
 40
0.0197663169968197
 50
147.3540657765512094
 51
219.1556705901168129
  0
ARC
  5
3C1E5
  8
0
 10
2958.9808169168900349
 20
249.8409499250718966
 30
0.0
 40
0.0796207654095198
 50
96.8279744325287766
 51
166.471416107482213
  0
ARC
  5
3C1E6
  8
0
 10
2958.9840115950601103
 20
249.845264183637596
 30
0.0
 40
0.0818668598602546
 50
169.9321740213840997
 51
224.2624690305206911
  0
ARC
  5
3C1E7
  8
0
 10
2959.0000905348388187
 20
249.8572006480661116
 30
0.0
 40
0.101747946844879
 50
222.7565619400378125
 51
295.5649483253874905
  0
ARC
  5
3C1E8
  8
0
 10
2959.0109533777049364
 20
249.8314946634615978
 30
0.0
 40
0.0738823044496772
 50
296.568242074045088
 51
18.7597877988084782
  0
ARC
  5
3C1E9
  8
0
 10
2958.9861059555028078
 20
249.8199075916907077
 30
0.0
 40
0.1011800387555695
 50
20.4478442623991903
 51
98.3853273226454661
  0
ARC
  5
3C1EA
  8
0
 10
2959.0078220183368103
 20
249.8241129173678132
 30
0.0
 40
0.0596684302398596
 50
80.1882708436774436
 51
156.8371160292537922
  0
ARC
  5
3C1EB
  8
0
 10
2959.0039369926730615
 20
249.8271578096596954
 30
0.0
 40
0.0549135951803018
 50
158.1636672586031978
 51
238.4264285952941123
  0
ARC
  5
3C1EC
  8
0
 10
2959.0082630182669163
 20
249.8322289043125863
 30
0.0
 40
0.0615077171455392
 50
237.4664987585317135
 51
314.9403850907403921
  0
ARC
  5
3C1ED
  8
0
 10
2959.013380699444042
 20
249.827142498359791
 30
0.0
 40
0.054292372937462
 50
314.9091240679920816
 51
28.9760421299828295
  0
ARC
  5
3C1EE
  8
0
 10
2959.0092729674602197
 20
249.8242764597636096
 30
0.0
 40
0.0592766008223859
 50
29.4760708560382412
 51
81.5434086073592823
  0
ARC
  5
3C1EF
  8
0
 10
2959.0082894400161422
 20
249.8243064365449868
 30
0.0
 40
0.0223046072561604
 50
34.6708340863575799
 51
146.4508072311114972
  0
ARC
  5
3C1F0
  8
0
 10
2959.0082780909337998
 20
249.8276826165269995
 30
0.0
 40
0.0223474279581275
 50
219.4291397034432123
 51
323.0559074947573208
  0
ARC
  5
3C1F1
  8
0
 10
2959.0100690969070456
 20
249.8259778559888105
 30
0.0
 40
0.0198934507250523
 50
323.8797248793454173
 51
33.6274356072132008
  0
ARC
  5
3C1F2
  8
0
 10
2959.0063441588449678
 20
249.8259702779575946
 30
0.0
 40
0.0197663169968197
 50
147.3540657765512094
 51
219.1556705901168129
  0
ARC
  5
3C1F3
  8
0
 10
2959.3855338424068577
 20
249.4610793899944952
 30
0.0
 40
0.0796207654095198
 50
96.8279744325287766
 51
166.4714161074807066
  0
ARC
  5
3C1F4
  8
0
 10
2959.3887285205769331
 20
249.4653936485601093
 30
0.0
 40
0.0818668598602546
 50
169.9321740213840997
 51
224.2624690305206911
  0
ARC
  5
3C1F5
  8
0
 10
2959.4048074603551868
 20
249.4773301129887102
 30
0.0
 40
0.101747946844879
 50
222.7565619400378125
 51
295.5649483253874905
  0
ARC
  5
3C1F6
  8
0
 10
2959.4156703032208497
 20
249.4516241283841964
 30
0.0
 40
0.0738823044496772
 50
296.568242074045088
 51
18.7597877988084782
  0
ARC
  5
3C1F7
  8
0
 10
2959.3908228810191758
 20
249.4400370566133063
 30
0.0
 40
0.1011800387555695
 50
20.4478442623991903
 51
98.3853273226454661
  0
ARC
  5
3C1F8
  8
0
 10
2959.4125389438531784
 20
249.4442423822904118
 30
0.0
 40
0.0596684302398596
 50
80.1882708436774436
 51
156.8371160292537922
  0
ARC
  5
3C1F9
  8
0
 10
2959.4086539181889748
 20
249.447287274582294
 30
0.0
 40
0.0549135951803018
 50
158.1636672586031978
 51
238.4264285952941123
  0
ARC
  5
3C1FA
  8
0
 10
2959.4129799437841939
 20
249.4523583692352133
 30
0.0
 40
0.0615077171455392
 50
237.4664987585317135
 51
314.9403850907403921
  0
ARC
  5
3C1FB
  8
0
 10
2959.4180976249599553
 20
249.4472719632823896
 30
0.0
 40
0.054292372937462
 50
314.9091240679920816
 51
28.9760421299828295
  0
ARC
  5
3C1FC
  8
0
 10
2959.413989892976133
 20
249.4444059246862082
 30
0.0
 40
0.0592766008223859
 50
29.4760708560382412
 51
81.5434086073592823
  0
ARC
  5
3C1FD
  8
0
 10
2959.413006365532965
 20
249.4444359014676138
 30
0.0
 40
0.0223046072561604
 50
34.6708340863575799
 51
146.4508072311114972
  0
ARC
  5
3C1FE
  8
0
 10
2959.4129950164501679
 20
249.4478120814495128
 30
0.0
 40
0.0223474279581275
 50
219.4291397034432123
 51
323.0559074947573208
  0
ARC
  5
3C1FF
  8
0
 10
2959.4147860224229589
 20
249.446107320911409
 30
0.0
 40
0.0198934507250523
 50
323.8797248793454173
 51
33.6274356072132008
  0
ARC
  5
3C200
  8
0
 10
2959.4110610843617906
 20
249.4460997428801932
 30
0.0
 40
0.0197663169968197
 50
147.3540657765512094
 51
219.1556705901168129
  0
ARC
  5
3C201
  8
0
 10
2958.8495077627990213
 20
249.4139146915034075
 30
0.0
 40
0.0796207654095198
 50
96.8279744325287766
 51
166.4714161074807066
  0
ARC
  5
3C202
  8
0
 10
2958.8527024409690966
 20
249.4182289500691923
 30
0.0
 40
0.0818668598602546
 50
169.9321740213840997
 51
224.2624690305206911
  0
ARC
  5
3C203
  8
0
 10
2958.8687813807478051
 20
249.4301654144977078
 30
0.0
 40
0.101747946844879
 50
222.7565619400378125
 51
295.5649483253874905
  0
ARC
  5
3C204
  8
0
 10
2958.8796442236130133
 20
249.4044594298931941
 30
0.0
 40
0.0738823044496772
 50
296.568242074045088
 51
18.7597877988084782
  0
ARC
  5
3C205
  8
0
 10
2958.8547968014117941
 20
249.3928723581223039
 30
0.0
 40
0.1011800387555695
 50
20.4478442623991903
 51
98.3853273226454661
  0
ARC
  5
3C206
  8
0
 10
2958.8765128642448872
 20
249.3970776837994094
 30
0.0
 40
0.0596684302398596
 50
80.1882708436774436
 51
156.8371160292537922
  0
ARC
  5
3C207
  8
0
 10
2958.8726278385820478
 20
249.4001225760912064
 30
0.0
 40
0.0549135951803018
 50
158.1636672586031978
 51
238.4264285952941123
  0
ARC
  5
3C208
  8
0
 10
2958.8769538641768122
 20
249.405193670744211
 30
0.0
 40
0.0615077171455392
 50
237.4664987585317135
 51
314.9403850907403921
  0
ARC
  5
3C209
  8
0
 10
2958.8820715453530283
 20
249.4001072647913873
 30
0.0
 40
0.054292372937462
 50
314.9091240679920816
 51
28.9760421299828295
  0
ARC
  5
3C20A
  8
0
 10
2958.877963813369206
 20
249.3972412261952059
 30
0.0
 40
0.0592766008223859
 50
29.4760708560382412
 51
81.5434086073592823
  0
ARC
  5
3C20B
  8
0
 10
2958.8769802859251286
 20
249.3972712029766114
 30
0.0
 40
0.0223046072561604
 50
34.6708340863575799
 51
146.4508072311114972
  0
ARC
  5
3C20C
  8
0
 10
2958.8769689368427862
 20
249.4006473829585104
 30
0.0
 40
0.0223474279581275
 50
219.4291397034432123
 51
323.0559074947573208
  0
ARC
  5
3C20D
  8
0
 10
2958.878759942816032
 20
249.398942622420293
 30
0.0
 40
0.0198934507250523
 50
323.8797248793454173
 51
33.6274356072132008
  0
ARC
  5
3C20E
  8
0
 10
2958.8750350047539541
 20
249.3989350443891908
 30
0.0
 40
0.0197663169968197
 50
147.3540657765512094
 51
219.1556705901168129
  0
ARC
  5
3C20F
  8
0
 10
2958.4570374763170548
 20
249.7136345863285953
 30
0.0
 40
0.0796207654095198
 50
96.8279744325287766
 51
166.471416107482213
  0
ARC
  5
3C210
  8
0
 10
2958.4602321544871302
 20
249.7179488448942948
 30
0.0
 40
0.0818668598602546
 50
169.9321740213840997
 51
224.2624690305206911
  0
ARC
  5
3C211
  8
0
 10
2958.4763110942658386
 20
249.7298853093228104
 30
0.0
 40
0.101747946844879
 50
222.7565619400378125
 51
295.5649483253874905
  0
ARC
  5
3C212
  8
0
 10
2958.4871739371310468
 20
249.7041793247182966
 30
0.0
 40
0.0738823044496772
 50
296.568242074045088
 51
18.7597877988084782
  0
ARC
  5
3C213
  8
0
 10
2958.4623265149289182
 20
249.6925922529474917
 30
0.0
 40
0.1011800387555695
 50
20.4478442623991903
 51
98.3853273226454661
  0
ARC
  5
3C214
  8
0
 10
2958.4840425777638302
 20
249.696797578624512
 30
0.0
 40
0.0596684302398596
 50
80.1882708436774436
 51
156.8371160292537922
  0
ARC
  5
3C215
  8
0
 10
2958.4801575520991719
 20
249.6998424709163942
 30
0.0
 40
0.0549135951803018
 50
158.1636672586031978
 51
238.4264285952941123
  0
ARC
  5
3C216
  8
0
 10
2958.4844835776939362
 20
249.7049135655693135
 30
0.0
 40
0.0615077171455392
 50
237.4664987585317135
 51
314.9403850907403921
  0
ARC
  5
3C217
  8
0
 10
2958.4896012588710619
 20
249.6998271596166035
 30
0.0
 40
0.054292372937462
 50
314.9091240679920816
 51
28.9760421299828295
  0
ARC
  5
3C218
  8
0
 10
2958.4854935268858753
 20
249.6969611210203084
 30
0.0
 40
0.0592766008223859
 50
29.4760708560382412
 51
81.5434086073592823
  0
ARC
  5
3C219
  8
0
 10
2958.4845099994431621
 20
249.696991097801714
 30
0.0
 40
0.0223046072561604
 50
34.6708340863575799
 51
146.4508072311114972
  0
ARC
  5
3C21A
  8
0
 10
2958.4844986503599102
 20
249.7003672777836982
 30
0.0
 40
0.0223474279581275
 50
219.4291397034432123
 51
323.0559074947573208
  0
ARC
  5
3C21B
  8
0
 10
2958.486289656333156
 20
249.6986625172453955
 30
0.0
 40
0.0198934507250523
 50
323.8797248793454173
 51
33.6274356072132008
  0
ARC
  5
3C21C
  8
0
 10
2958.4825647182719877
 20
249.6986549392142933
 30
0.0
 40
0.0197663169968197
 50
147.3540657765512094
 51
219.1556705901168129
  0
ARC
  5
3C21D
  8
0
 10
2959.1360856685059844
 20
248.9426706560707885
 30
0.0
 40
0.0796207654095198
 50
96.8279744325287766
 51
166.4714161074807066
  0
ARC
  5
3C21E
  8
0
 10
2959.1392803466760597
 20
248.9469849146364879
 30
0.0
 40
0.0818668598602546
 50
169.9321740213840997
 51
224.2624690305206911
  0
ARC
  5
3C21F
  8
0
 10
2959.1553592864552229
 20
248.9589213790650888
 30
0.0
 40
0.101747946844879
 50
222.7565619400378125
 51
295.5649483253874905
  0
ARC
  5
3C220
  8
0
 10
2959.1662221293199764
 20
248.9332153944606034
 30
0.0
 40
0.0738823044496772
 50
296.568242074045088
 51
18.7597877988084782
  0
ARC
  5
3C221
  8
0
 10
2959.1413747071178477
 20
248.9216283226897133
 30
0.0
 40
0.1011800387555695
 50
20.4478442623991903
 51
98.3853273226454661
  0
ARC
  5
3C222
  8
0
 10
2959.1630907699532145
 20
248.9258336483667904
 30
0.0
 40
0.0596684302398596
 50
80.1882708436774436
 51
156.8371160292537922
  0
ARC
  5
3C223
  8
0
 10
2959.1592057442890109
 20
248.9288785406585873
 30
0.0
 40
0.0549135951803018
 50
158.1636672586031978
 51
238.4264285952941123
  0
ARC
  5
3C224
  8
0
 10
2959.1635317698828658
 20
248.9339496353115919
 30
0.0
 40
0.0615077171455392
 50
237.4664987585317135
 51
314.9403850907403921
  0
ARC
  5
3C225
  8
0
 10
2959.1686494510599914
 20
248.9288632293587966
 30
0.0
 40
0.054292372937462
 50
314.9091240679920816
 51
28.9760421299828295
  0
ARC
  5
3C226
  8
0
 10
2959.1645417190761691
 20
248.9259971907625015
 30
0.0
 40
0.0592766008223859
 50
29.4760708560382412
 51
81.5434086073592823
  0
ARC
  5
3C227
  8
0
 10
2959.1635581916320916
 20
248.9260271675439924
 30
0.0
 40
0.0223046072561604
 50
34.6708340863575799
 51
146.4508072311114972
  0
ARC
  5
3C228
  8
0
 10
2959.163546842550204
 20
248.9294033475258914
 30
0.0
 40
0.0223474279581275
 50
219.4291397034432123
 51
323.0559074947573208
  0
ARC
  5
3C229
  8
0
 10
2959.165337848522995
 20
248.9276985869877024
 30
0.0
 40
0.0198934507250523
 50
323.8797248793454173
 51
33.6274356072132008
  0
ARC
  5
3C22A
  8
0
 10
2959.1616129104600077
 20
248.9276910089566002
 30
0.0
 40
0.0197663169968197
 50
147.3540657765512094
 51
219.1556705901168129
  0
ARC
  5
3C22B
  8
0
 10
2958.6001393560968609
 20
249.0411904586883054
 30
0.0
 40
0.0796207654095198
 50
96.8279744325287766
 51
166.4714161074807066
  0
ARC
  5
3C22C
  8
0
 10
2958.6033340342669362
 20
249.0455047172538912
 30
0.0
 40
0.0818668598602546
 50
169.9321740213840997
 51
224.2624690305206911
  0
ARC
  5
3C22D
  8
0
 10
2958.6194129740460994
 20
249.057441181682492
 30
0.0
 40
0.101747946844879
 50
222.7565619400378125
 51
295.5649483253874905
  0
ARC
  5
3C22E
  8
0
 10
2958.6302758169122171
 20
249.0317351970780066
 30
0.0
 40
0.0738823044496772
 50
296.568242074045088
 51
18.7597877988084782
  0
ARC
  5
3C22F
  8
0
 10
2958.605428394709179
 20
249.0201481253070881
 30
0.0
 40
0.1011800387555695
 50
20.4478442623991903
 51
98.3853273226454661
  0
ARC
  5
3C230
  8
0
 10
2958.6271444575431815
 20
249.0243534509841936
 30
0.0
 40
0.0596684302398596
 50
80.1882708436774436
 51
156.8371160292537922
  0
ARC
  5
3C231
  8
0
 10
2958.6232594318798874
 20
249.0273983432761042
 30
0.0
 40
0.0549135951803018
 50
158.1636672586031978
 51
238.4264285952941123
  0
ARC
  5
3C232
  8
0
 10
2958.627585457474197
 20
249.0324694379289951
 30
0.0
 40
0.0615077171455392
 50
237.4664987585317135
 51
314.9403850907403921
  0
ARC
  5
3C233
  8
0
 10
2958.6327031386508679
 20
249.0273830319761998
 30
0.0
 40
0.054292372937462
 50
314.9091240679920816
 51
28.9760421299828295
  0
ARC
  5
3C234
  8
0
 10
2958.6285954066670456
 20
249.02451699337999
 30
0.0
 40
0.0592766008223859
 50
29.4760708560382412
 51
81.5434086073592823
  0
ARC
  5
3C235
  8
0
 10
2958.6276118792229681
 20
249.0245469701613956
 30
0.0
 40
0.0223046072561604
 50
34.6708340863575799
 51
146.4508072311114972
  0
ARC
  5
3C236
  8
0
 10
2958.6276005301410805
 20
249.0279231501432946
 30
0.0
 40
0.0223474279581275
 50
219.4291397034432123
 51
323.0559074947573208
  0
ARC
  5
3C237
  8
0
 10
2958.6293915361138716
 20
249.0262183896051056
 30
0.0
 40
0.0198934507250523
 50
323.8797248793454173
 51
33.6274356072132008
  0
ARC
  5
3C238
  8
0
 10
2958.6256665980517937
 20
249.0262108115740034
 30
0.0
 40
0.0197663169968197
 50
147.3540657765512094
 51
219.1556705901168129
  0
ARC
  5
3C239
  8
0
 10
2958.2516991389197756
 20
249.3791527913799086
 30
0.0
 40
0.0796207654095198
 50
96.8279744325287766
 51
166.4714161074807066
  0
ARC
  5
3C23A
  8
0
 10
2958.2548938170889414
 20
249.3834670499456081
 30
0.0
 40
0.0818668598602546
 50
169.9321740213840997
 51
224.2624690305206911
  0
ARC
  5
3C23B
  8
0
 10
2958.2709727568681046
 20
249.395403514374209
 30
0.0
 40
0.101747946844879
 50
222.7565619400378125
 51
295.5649483253874905
  0
ARC
  5
3C23C
  8
0
 10
2958.2818355997328581
 20
249.3696975297696952
 30
0.0
 40
0.0738823044496772
 50
296.568242074045088
 51
18.7597877988084782
  0
ARC
  5
3C23D
  8
0
 10
2958.2569881775311842
 20
249.358110457998805
 30
0.0
 40
0.1011800387555695
 50
20.4478442623991903
 51
98.3853273226454661
  0
ARC
  5
3C23E
  8
0
 10
2958.2787042403651867
 20
249.3623157836759106
 30
0.0
 40
0.0596684302398596
 50
80.1882708436774436
 51
156.8371160292537922
  0
ARC
  5
3C23F
  8
0
 10
2958.2748192147018926
 20
249.3653606759677928
 30
0.0
 40
0.0549135951803018
 50
158.1636672586031978
 51
238.4264285952941123
  0
ARC
  5
3C240
  8
0
 10
2958.2791452402962022
 20
249.3704317706207121
 30
0.0
 40
0.0615077171455392
 50
237.4664987585317135
 51
314.9403850907403921
  0
ARC
  5
3C241
  8
0
 10
2958.2842629214719636
 20
249.3653453646678884
 30
0.0
 40
0.054292372937462
 50
314.9091240679920816
 51
28.9760421299828295
  0
ARC
  5
3C242
  8
0
 10
2958.2801551894890508
 20
249.362479326071707
 30
0.0
 40
0.0592766008223859
 50
29.4760708560382412
 51
81.5434086073592823
  0
ARC
  5
3C243
  8
0
 10
2958.2791716620449733
 20
249.3625093028531126
 30
0.0
 40
0.0223046072561604
 50
34.6708340863575799
 51
146.4508072311114972
  0
ARC
  5
3C244
  8
0
 10
2958.2791603129630857
 20
249.3658854828350115
 30
0.0
 40
0.0223474279581275
 50
219.4291397034432123
 51
323.0559074947573208
  0
ARC
  5
3C245
  8
0
 10
2958.2809513189349673
 20
249.3641807222969078
 30
0.0
 40
0.0198934507250523
 50
323.8797248793454173
 51
33.6274356072132008
  0
ARC
  5
3C246
  8
0
 10
2958.2772263808737989
 20
249.3641731442656919
 30
0.0
 40
0.0197663169968197
 50
147.3540657765512094
 51
219.1556705901168129
  0
ARC
  5
3C247
  8
0
 10
2958.7437390686618528
 20
248.5090713575833092
 30
0.0
 40
0.0796207654095198
 50
96.8279744325287766
 51
166.4714161074807066
  0
ARC
  5
3C248
  8
0
 10
2958.7469337468319281
 20
248.5133856161490087
 30
0.0
 40
0.0818668598602546
 50
169.9321740213840997
 51
224.2624690305206911
  0
ARC
  5
3C249
  8
0
 10
2958.7630126866120008
 20
248.5253220805774959
 30
0.0
 40
0.101747946844879
 50
222.7565619400378125
 51
295.5649483253874905
  0
ARC
  5
3C24A
  8
0
 10
2958.7738755294772091
 20
248.4996160959730958
 30
0.0
 40
0.0738823044496772
 50
296.568242074045088
 51
18.7597877988084782
  0
ARC
  5
3C24B
  8
0
 10
2958.7490281072750804
 20
248.4880290242022056
 30
0.0
 40
0.1011800387555695
 50
20.4478442623991903
 51
98.3853273226454661
  0
ARC
  5
3C24C
  8
0
 10
2958.7707441701090829
 20
248.4922343498791975
 30
0.0
 40
0.0596684302398596
 50
80.1882708436774436
 51
156.8371160292537922
  0
ARC
  5
3C24D
  8
0
 10
2958.7668591444448793
 20
248.4952792421711081
 30
0.0
 40
0.0549135951803018
 50
158.1636672586031978
 51
238.4264285952941123
  0
ARC
  5
3C24E
  8
0
 10
2958.7711851700400985
 20
248.500350336823999
 30
0.0
 40
0.0615077171455392
 50
237.4664987585317135
 51
314.9403850907403921
  0
ARC
  5
3C24F
  8
0
 10
2958.7763028512158598
 20
248.4952639308712037
 30
0.0
 40
0.054292372937462
 50
314.9091240679920816
 51
28.9760421299828295
  0
ARC
  5
3C250
  8
0
 10
2958.7721951192320375
 20
248.4923978922749939
 30
0.0
 40
0.0592766008223859
 50
29.4760708560382412
 51
81.5434086073592823
  0
ARC
  5
3C251
  8
0
 10
2958.7712115917879601
 20
248.4924278690565131
 30
0.0
 40
0.0223046072561604
 50
34.6708340863575799
 51
146.4508072311114972
  0
ARC
  5
3C252
  8
0
 10
2958.7712002427060725
 20
248.4958040490384121
 30
0.0
 40
0.0223474279581275
 50
219.4291397034432123
 51
323.0559074947573208
  0
ARC
  5
3C253
  8
0
 10
2958.7729912486788635
 20
248.4940992885001947
 30
0.0
 40
0.0198934507250523
 50
323.8797248793454173
 51
33.6274356072132008
  0
ARC
  5
3C254
  8
0
 10
2958.7692663106167856
 20
248.4940917104690925
 30
0.0
 40
0.0197663169968197
 50
147.3540657765512094
 51
219.1556705901168129
  0
ARC
  5
3C255
  8
0
 10
2958.2462904005578821
 20
248.7490306849298065
 30
0.0
 40
0.0796207654095198
 50
96.8279744325287766
 51
166.4714161074807066
  0
ARC
  5
3C256
  8
0
 10
2958.2494850787279574
 20
248.753344943495506
 30
0.0
 40
0.0818668598602546
 50
169.9321740213840997
 51
224.2624690305206911
  0
ARC
  5
3C257
  8
0
 10
2958.2655640185071206
 20
248.7652814079239931
 30
0.0
 40
0.101747946844879
 50
222.7565619400378125
 51
295.5649483253874905
  0
ARC
  5
3C258
  8
0
 10
2958.2764268613718741
 20
248.7395754233195078
 30
0.0
 40
0.0738823044496772
 50
296.568242074045088
 51
18.7597877988084782
  0
ARC
  5
3C259
  8
0
 10
2958.2515794391702002
 20
248.7279883515487029
 30
0.0
 40
0.1011800387555695
 50
20.4478442623991903
 51
98.3853273226454661
  0
ARC
  5
3C25A
  8
0
 10
2958.2732955020042027
 20
248.7321936772256947
 30
0.0
 40
0.0596684302398596
 50
80.1882708436774436
 51
156.8371160292537922
  0
ARC
  5
3C25B
  8
0
 10
2958.2694104763399991
 20
248.7352385695174917
 30
0.0
 40
0.0549135951803018
 50
158.1636672586031978
 51
238.4264285952941123
  0
ARC
  5
3C25C
  8
0
 10
2958.2737365019352183
 20
248.7403096641704963
 30
0.0
 40
0.0615077171455392
 50
237.4664987585317135
 51
314.9403850907403921
  0
ARC
  5
3C25D
  8
0
 10
2958.2788541831109796
 20
248.735223258217701
 30
0.0
 40
0.054292372937462
 50
314.9091240679920816
 51
28.9760421299828295
  0
ARC
  5
3C25E
  8
0
 10
2958.2747464511271573
 20
248.7323572196214911
 30
0.0
 40
0.0592766008223859
 50
29.4760708560382412
 51
81.5434086073592823
  0
ARC
  5
3C25F
  8
0
 10
2958.2737629236830799
 20
248.7323871964028967
 30
0.0
 40
0.0223046072561604
 50
34.6708340863575799
 51
146.4508072311114972
  0
ARC
  5
3C260
  8
0
 10
2958.2737515746011923
 20
248.7357633763847957
 30
0.0
 40
0.0223474279581275
 50
219.4291397034432123
 51
323.0559074947573208
  0
ARC
  5
3C261
  8
0
 10
2958.2755425805739833
 20
248.7340586158466067
 30
0.0
 40
0.0198934507250523
 50
323.8797248793454173
 51
33.6274356072132008
  0
ARC
  5
3C262
  8
0
 10
2958.2718176425128149
 20
248.7340510378155045
 30
0.0
 40
0.0197663169968197
 50
147.3540657765512094
 51
219.1556705901168129
  0
ARC
  5
3C263
  8
0
 10
2957.820522294040984
 20
248.5660513943784906
 30
0.0
 40
0.0796207654095198
 50
96.8279744325287766
 51
166.4714161074807066
  0
ARC
  5
3C264
  8
0
 10
2957.8237169722110593
 20
248.5703656529443037
 30
0.0
 40
0.0818668598602546
 50
169.9321740213840997
 51
224.2624690305206911
  0
ARC
  5
3C265
  8
0
 10
2957.8397959119902225
 20
248.5823021173727909
 30
0.0
 40
0.101747946844879
 50
222.7565619400378125
 51
295.5649483253874905
  0
ARC
  5
3C266
  8
0
 10
2957.850658754854976
 20
248.5565961327683056
 30
0.0
 40
0.0738823044496772
 50
296.568242074045088
 51
18.7597877988084782
  0
ARC
  5
3C267
  8
0
 10
2957.8258113326528473
 20
248.545009060997387
 30
0.0
 40
0.1011800387555695
 50
20.4478442623991903
 51
98.3853273226454661
  0
ARC
  5
3C268
  8
0
 10
2957.8475273954868499
 20
248.5492143866744925
 30
0.0
 40
0.0596684302398596
 50
80.1882708436774436
 51
156.8371160292537922
  0
ARC
  5
3C269
  8
0
 10
2957.843642369823101
 20
248.5522592789664031
 30
0.0
 40
0.0549135951803018
 50
158.1636672586031978
 51
238.4264285952941123
  0
ARC
  5
3C26A
  8
0
 10
2957.8479683954178654
 20
248.5573303736192941
 30
0.0
 40
0.0615077171455392
 50
237.4664987585317135
 51
314.9403850907403921
  0
ARC
  5
3C26B
  8
0
 10
2957.853086076594991
 20
248.5522439676664987
 30
0.0
 40
0.054292372937462
 50
314.9091240679920816
 51
28.9760421299828295
  0
ARC
  5
3C26C
  8
0
 10
2957.8489783446098045
 20
248.5493779290702889
 30
0.0
 40
0.0592766008223859
 50
29.4760708560382412
 51
81.5434086073592823
  0
ARC
  5
3C26D
  8
0
 10
2957.8479948171661817
 20
248.5494079058516945
 30
0.0
 40
0.0223046072561604
 50
34.6708340863575799
 51
146.4508072311114972
  0
ARC
  5
3C26E
  8
0
 10
2957.8479834680852036
 20
248.5527840858337072
 30
0.0
 40
0.0223474279581275
 50
219.4291397034432123
 51
323.0559074947573208
  0
ARC
  5
3C26F
  8
0
 10
2957.8497744740570852
 20
248.5510793252954045
 30
0.0
 40
0.0198934507250523
 50
323.8797248793454173
 51
33.6274356072132008
  0
ARC
  5
3C270
  8
0
 10
2957.8460495359959168
 20
248.5510717472643023
 30
0.0
 40
0.0197663169968197
 50
147.3540657765512094
 51
219.1556705901168129
  0
ARC
  5
3C271
  8
0
 10
2958.2363052565701764
 20
248.2000534820006976
 30
0.0
 40
0.0796207654095198
 50
96.8279744325287766
 51
166.4714161074807066
  0
ARC
  5
3C272
  8
0
 10
2958.2394999347388875
 20
248.2043677405663971
 30
0.0
 40
0.0818668598602546
 50
169.9321740213840997
 51
224.2624690305206911
  0
ARC
  5
3C273
  8
0
 10
2958.2555788745180507
 20
248.2163042049949979
 30
0.0
 40
0.101747946844879
 50
222.7565619400378125
 51
295.5649483253874905
  0
ARC
  5
3C274
  8
0
 10
2958.2664417173841684
 20
248.1905982203905126
 30
0.0
 40
0.0738823044496772
 50
296.568242074045088
 51
18.7597877988084782
  0
ARC
  5
3C275
  8
0
 10
2958.2415942951820398
 20
248.179011148619594
 30
0.0
 40
0.1011800387555695
 50
20.4478442623991903
 51
98.3853273226454661
  0
ARC
  5
3C276
  8
0
 10
2958.2633103580160423
 20
248.1832164742965858
 30
0.0
 40
0.0596684302398596
 50
80.1882708436774436
 51
156.8371160292537922
  0
ARC
  5
3C277
  8
0
 10
2958.2594253323518387
 20
248.1862613665884965
 30
0.0
 40
0.0549135951803018
 50
158.1636672586031978
 51
238.4264285952941123
  0
ARC
  5
3C278
  8
0
 10
2958.2637513579470578
 20
248.1913324612413874
 30
0.0
 40
0.0615077171455392
 50
237.4664987585317135
 51
314.9403850907403921
  0
ARC
  5
3C279
  8
0
 10
2958.2688690391228192
 20
248.1862460552887057
 30
0.0
 40
0.054292372937462
 50
314.9091240679920816
 51
28.9760421299828295
  0
ARC
  5
3C27A
  8
0
 10
2958.2647613071389969
 20
248.1833800166924107
 30
0.0
 40
0.0592766008223859
 50
29.4760708560382412
 51
81.5434086073592823
  0
ARC
  5
3C27B
  8
0
 10
2958.2637777796949194
 20
248.1834099934739015
 30
0.0
 40
0.0223046072561604
 50
34.6708340863575799
 51
146.4508072311114972
  0
ARC
  5
3C27C
  8
0
 10
2958.2637664306130318
 20
248.1867861734558005
 30
0.0
 40
0.0223474279581275
 50
219.4291397034432123
 51
323.0559074947573208
  0
ARC
  5
3C27D
  8
0
 10
2958.2655574365858229
 20
248.1850814129176115
 30
0.0
 40
0.0198934507250523
 50
323.8797248793454173
 51
33.6274356072132008
  0
ARC
  5
3C27E
  8
0
 10
2958.2618324985251093
 20
248.1850738348863956
 30
0.0
 40
0.0197663169968197
 50
147.3540657765512094
 51
219.1556705901168129
  0
ARC
  5
3C27F
  8
0
 10
2957.6597351241648539
 20
248.039215906668602
 30
0.0
 40
0.0796207654095198
 50
96.8279744325287766
 51
166.4714161074807066
  0
ARC
  5
3C280
  8
0
 10
2957.6629298023349293
 20
248.0435301652343014
 30
0.0
 40
0.0818668598602546
 50
169.9321740213840997
 51
224.2624690305206911
  0
ARC
  5
3C281
  8
0
 10
2957.6790087421140925
 20
248.0554666296629023
 30
0.0
 40
0.101747946844879
 50
222.7565619400378125
 51
295.5649483253874905
  0
ARC
  5
3C282
  8
0
 10
2957.6898715849802102
 20
248.0297606450583885
 30
0.0
 40
0.0738823044496772
 50
296.568242074045088
 51
18.7597877988084782
  0
ARC
  5
3C283
  8
0
 10
2957.6650241627780815
 20
248.0181735732874984
 30
0.0
 40
0.1011800387555695
 50
20.4478442623991903
 51
98.3853273226454661
  0
ARC
  5
3C284
  8
0
 10
2957.686740225612084
 20
248.0223788989646039
 30
0.0
 40
0.0596684302398596
 50
80.1882708436774436
 51
156.8371160292537922
  0
ARC
  5
3C285
  8
0
 10
2957.6828551999478805
 20
248.0254237912564008
 30
0.0
 40
0.0549135951803018
 50
158.1636672586031978
 51
238.4264285952941123
  0
ARC
  5
3C286
  8
0
 10
2957.6871812255430996
 20
248.0304948859092917
 30
0.0
 40
0.0615077171455392
 50
237.4664987585317135
 51
314.9403850907403921
  0
ARC
  5
3C287
  8
0
 10
2957.692298906718861
 20
248.0254084799566101
 30
0.0
 40
0.054292372937462
 50
314.9091240679920816
 51
28.9760421299828295
  0
ARC
  5
3C288
  8
0
 10
2957.6881911747350387
 20
248.0225424413602866
 30
0.0
 40
0.0592766008223859
 50
29.4760708560382412
 51
81.5434086073592823
  0
ARC
  5
3C289
  8
0
 10
2957.6872076472909612
 20
248.0225724181418059
 30
0.0
 40
0.0223046072561604
 50
34.6708340863575799
 51
146.4508072311114972
  0
ARC
  5
3C28A
  8
0
 10
2957.6871962982090736
 20
248.0259485981237049
 30
0.0
 40
0.0223474279581275
 50
219.4291397034432123
 51
323.0559074947573208
  0
ARC
  5
3C28B
  8
0
 10
2957.6889873041818646
 20
248.0242438375854874
 30
0.0
 40
0.0198934507250523
 50
323.8797248793454173
 51
33.6274356072132008
  0
ARC
  5
3C28C
  8
0
 10
2957.685262366121151
 20
248.0242362595544137
 30
0.0
 40
0.0197663169968197
 50
147.3540657765512094
 51
219.1556705901168129
  0
ARC
  5
3C28D
  8
0
 10
2957.562553036612826
 20
249.0007477104927887
 30
0.0
 40
0.0796207654095198
 50
96.8279744325287766
 51
166.4714161074807066
  0
ARC
  5
3C28E
  8
0
 10
2957.5657477147829013
 20
249.0050619690584881
 30
0.0
 40
0.0818668598602546
 50
169.9321740213840997
 51
224.2624690305206911
  0
ARC
  5
3C28F
  8
0
 10
2957.581826654561155
 20
249.016998433487089
 30
0.0
 40
0.101747946844879
 50
222.7565619400378125
 51
295.5649483253874905
  0
ARC
  5
3C290
  8
0
 10
2957.5926894974259085
 20
248.9912924488826036
 30
0.0
 40
0.0738823044496772
 50
296.568242074045088
 51
18.7597877988084782
  0
ARC
  5
3C291
  8
0
 10
2957.5678420752251441
 20
248.9797053771117135
 30
0.0
 40
0.1011800387555695
 50
20.4478442623991903
 51
98.3853273226454661
  0
ARC
  5
3C292
  8
0
 10
2957.5895581380591466
 20
248.9839107027887906
 30
0.0
 40
0.0596684302398596
 50
80.1882708436774436
 51
156.8371160292537922
  0
ARC
  5
3C293
  8
0
 10
2957.585673112394943
 20
248.9869555950805875
 30
0.0
 40
0.0549135951803018
 50
158.1636672586031978
 51
238.4264285952941123
  0
ARC
  5
3C294
  8
0
 10
2957.5899991379901621
 20
248.9920266897335921
 30
0.0
 40
0.0615077171455392
 50
237.4664987585317135
 51
314.9403850907403921
  0
ARC
  5
3C295
  8
0
 10
2957.5951168191659235
 20
248.9869402837807968
 30
0.0
 40
0.054292372937462
 50
314.9091240679920816
 51
28.9760421299828295
  0
ARC
  5
3C296
  8
0
 10
2957.5910090871821012
 20
248.984074245184587
 30
0.0
 40
0.0592766008223859
 50
29.4760708560382412
 51
81.5434086073592823
  0
ARC
  5
3C297
  8
0
 10
2957.5900255597380237
 20
248.9841042219659926
 30
0.0
 40
0.0223046072561604
 50
34.6708340863575799
 51
146.4508072311114972
  0
ARC
  5
3C298
  8
0
 10
2957.5900142106561361
 20
248.9874804019478916
 30
0.0
 40
0.0223474279581275
 50
219.4291397034432123
 51
323.0559074947573208
  0
ARC
  5
3C299
  8
0
 10
2957.5918052166289272
 20
248.9857756414097025
 30
0.0
 40
0.0198934507250523
 50
323.8797248793454173
 51
33.6274356072132008
  0
ARC
  5
3C29A
  8
0
 10
2957.5880802785668493
 20
248.9857680633786003
 30
0.0
 40
0.0197663169968197
 50
147.3540657765512094
 51
219.1556705901168129
  0
ARC
  5
3C29B
  8
0
 10
2958.2540541705020587
 20
250.8071243881720989
 30
0.0
 40
0.0796207654095198
 50
96.8279744325287766
 51
166.471416107482213
  0
ARC
  5
3C29C
  8
0
 10
2958.257248848672134
 20
250.8114386467377983
 30
0.0
 40
0.0818668598602546
 50
169.9321740213840997
 51
224.2624690305206911
  0
ARC
  5
3C29D
  8
0
 10
2958.2733277884508425
 20
250.8233751111663139
 30
0.0
 40
0.101747946844879
 50
222.7565619400378125
 51
295.5649483253874905
  0
ARC
  5
3C29E
  8
0
 10
2958.2841906313160507
 20
250.7976691265618001
 30
0.0
 40
0.0738823044496772
 50
296.568242074045088
 51
18.7597877988084782
  0
ARC
  5
3C29F
  8
0
 10
2958.2593432091139221
 20
250.7860820547909952
 30
0.0
 40
0.1011800387555695
 50
20.4478442623991903
 51
98.3853273226454661
  0
ARC
  5
3C2A0
  8
0
 10
2958.2810592719479246
 20
250.7902873804679871
 30
0.0
 40
0.0596684302398596
 50
80.1882708436774436
 51
156.8371160292537922
  0
ARC
  5
3C2A1
  8
0
 10
2958.2771742462841758
 20
250.7933322727598977
 30
0.0
 40
0.0549135951803018
 50
158.1636672586031978
 51
238.4264285952941123
  0
ARC
  5
3C2A2
  8
0
 10
2958.2815002718789401
 20
250.7984033674127886
 30
0.0
 40
0.0615077171455392
 50
237.4664987585317135
 51
314.9403850907403921
  0
ARC
  5
3C2A3
  8
0
 10
2958.2866179530551562
 20
250.7933169614599933
 30
0.0
 40
0.054292372937462
 50
314.9091240679920816
 51
28.9760421299828295
  0
ARC
  5
3C2A4
  8
0
 10
2958.2825102210708792
 20
250.7904509228638119
 30
0.0
 40
0.0592766008223859
 50
29.4760708560382412
 51
81.5434086073592823
  0
ARC
  5
3C2A5
  8
0
 10
2958.2815266936268017
 20
250.7904808996451891
 30
0.0
 40
0.0223046072561604
 50
34.6708340863575799
 51
146.4508072311114972
  0
ARC
  5
3C2A6
  8
0
 10
2958.2815153445458236
 20
250.7938570796270881
 30
0.0
 40
0.0223474279581275
 50
219.4291397034432123
 51
323.0559074947573208
  0
ARC
  5
3C2A7
  8
0
 10
2958.2833063505181599
 20
250.7921523190890127
 30
0.0
 40
0.0198934507250523
 50
323.8797248793454173
 51
33.6274356072132008
  0
ARC
  5
3C2A8
  8
0
 10
2958.2795814124569915
 20
250.7921447410577969
 30
0.0
 40
0.0197663169968197
 50
147.3540657765512094
 51
219.1556705901168129
  0
ARC
  5
3C2A9
  8
0
 10
2958.5523497236099502
 20
250.1025056728863092
 30
0.0
 40
0.0459737295141172
 50
66.4511343999581499
 51
176.6349861644866053
  0
ARC
  5
3C2AA
  8
0
 10
2958.5588604297950042
 20
250.1102194447088038
 30
0.0
 40
0.0526446076710393
 50
185.4666509157025871
 51
265.0358046294476253
  0
ARC
  5
3C2AB
  8
0
 10
2958.5559994746990924
 20
250.1036689796463861
 30
0.0
 40
0.0459279426040826
 50
267.8855429339006946
 51
355.4770208735235997
  0
ARC
  5
3C2AC
  8
0
 10
2958.552124275479855
 20
250.0985793656435874
 30
0.0
 40
0.0496817990950203
 50
1.69297812735799
 51
68.0220747285177936
  0
ARC
  5
3C2AD
  8
0
 10
2958.5535421928061623
 20
250.1032289308425902
 30
0.0
 40
0.0281421644099724
 50
25.3136967478029611
 51
153.8206400957164135
  0
ARC
  5
3C2AE
  8
0
 10
2958.5550752709668814
 20
250.1070218780511141
 30
0.0
 40
0.0286005630111563
 50
216.3779404053653934
 51
322.9426197036439135
  0
ARC
  5
3C2AF
  8
0
 10
2958.5522081967160375
 20
250.1060918622883946
 30
0.0
 40
0.0257582050355851
 50
158.2308223299602048
 51
218.4953798976831933
  0
ARC
  5
3C2B0
  8
0
 10
2958.5565292912820041
 20
250.1034555328886029
 30
0.0
 40
0.0253676728943692
 50
327.3962230035771199
 51
27.7364699284324097
  0
ARC
  5
3C2B1
  8
0
 10
2958.5538000299688974
 20
250.1373592970433037
 30
0.0
 40
0.0335028270365927
 50
220.4015361824617116
 51
318.7328006610637772
  0
ARC
  5
3C2B2
  8
0
 10
2957.9684513589750168
 20
249.1416559674636062
 30
0.0
 40
0.0459737295141172
 50
66.4511343999581499
 51
176.6349861644866053
  0
ARC
  5
3C2B3
  8
0
 10
2957.9749620651609803
 20
249.1493697392861009
 30
0.0
 40
0.0526446076710393
 50
185.4666509157025871
 51
265.0358046294476253
  0
ARC
  5
3C2B4
  8
0
 10
2957.9721011100650685
 20
249.1428192742237115
 30
0.0
 40
0.0459279426040826
 50
267.8855429339006946
 51
355.4770208735235997
  0
ARC
  5
3C2B5
  8
0
 10
2957.9682259108449216
 20
249.1377296602207991
 30
0.0
 40
0.0496817990950203
 50
1.69297812735799
 51
68.0220747285177936
  0
ARC
  5
3C2B6
  8
0
 10
2957.9696438281707742
 20
249.142379225419802
 30
0.0
 40
0.0281421644099724
 50
25.3136967478029611
 51
153.8206400957164135
  0
ARC
  5
3C2B7
  8
0
 10
2957.9711769063328575
 20
249.1461721726284964
 30
0.0
 40
0.0286005630111563
 50
216.3779404053653934
 51
322.9426197036439135
  0
ARC
  5
3C2B8
  8
0
 10
2957.9683098320820136
 20
249.1452421568656916
 30
0.0
 40
0.0257582050355851
 50
158.2308223299602048
 51
218.4953798976831933
  0
ARC
  5
3C2B9
  8
0
 10
2957.9726309266470707
 20
249.1426058274658999
 30
0.0
 40
0.0253676728943692
 50
327.3962230035771199
 51
27.7364699284324097
  0
ARC
  5
3C2BA
  8
0
 10
2957.9699016653348735
 20
249.1765095916206008
 30
0.0
 40
0.0335028270365927
 50
220.4015361824617116
 51
318.7328006610637772
  0
ARC
  5
3C2BB
  8
0
 10
2957.9680267570220167
 20
251.0633436270751986
 30
0.0
 40
0.0459737295141172
 50
66.4511343999581499
 51
176.6349861644866053
  0
ARC
  5
3C2BC
  8
0
 10
2957.9745374632079802
 20
251.0710573988976932
 30
0.0
 40
0.0526446076710393
 50
185.4666509157025871
 51
265.0358046294476253
  0
ARC
  5
3C2BD
  8
0
 10
2957.9716765081111589
 20
251.0645069338353039
 30
0.0
 40
0.0459279426040826
 50
267.8855429339006946
 51
355.4770208735235997
  0
ARC
  5
3C2BE
  8
0
 10
2957.9678013088919215
 20
251.0594173198323915
 30
0.0
 40
0.0496817990950203
 50
1.69297812735799
 51
68.0220747285177936
  0
ARC
  5
3C2BF
  8
0
 10
2957.9692192262177741
 20
251.0640668850313943
 30
0.0
 40
0.0281421644099724
 50
25.3136967478029611
 51
153.8206400957164135
  0
ARC
  5
3C2C0
  8
0
 10
2957.9707523043798574
 20
251.0678598322400035
 30
0.0
 40
0.0286005630111563
 50
216.3779404053653934
 51
322.9426197036439135
  0
ARC
  5
3C2C1
  8
0
 10
2957.967885230128104
 20
251.0669298164773124
 30
0.0
 40
0.0257582050355851
 50
158.2308223299602048
 51
218.4953798976831933
  0
ARC
  5
3C2C2
  8
0
 10
2957.9722063246940706
 20
251.0642934870774923
 30
0.0
 40
0.0253676728943692
 50
327.3962230035771199
 51
27.7364699284324097
  0
ARC
  5
3C2C3
  8
0
 10
2957.969477063380964
 20
251.0981972512321931
 30
0.0
 40
0.0335028270365927
 50
220.4015361824617116
 51
318.7328006610637772
  0
ARC
  5
3C2C4
  8
0
 10
2957.4146139689369193
 20
251.6201886448019991
 30
0.0
 40
0.0796207654095198
 50
13.5285838925193396
 51
83.1720255674712234
  0
ARC
  5
3C2C5
  8
0
 10
2957.4114192907668439
 20
251.6245029033676985
 30
0.0
 40
0.0818668598602546
 50
315.7375309694792804
 51
10.0678259786158595
  0
ARC
  5
3C2C6
  8
0
 10
2957.3953403509881355
 20
251.6364393677962141
 30
0.0
 40
0.101747946844879
 50
244.4350516746125095
 51
317.2434380599622159
  0
ARC
  5
3C2C7
  8
0
 10
2957.3844775081229272
 20
251.6107333831917003
 30
0.0
 40
0.0738823044496772
 50
161.2402122011914969
 51
243.4317579259547983
  0
ARC
  5
3C2C8
  8
0
 10
2957.4093249303241464
 20
251.5991463114208955
 30
0.0
 40
0.1011800387555695
 50
81.6146726773545339
 51
159.5521557376007991
  0
ARC
  5
3C2C9
  8
0
 10
2957.3876088674910534
 20
251.6033516370978873
 30
0.0
 40
0.0596684302398596
 50
23.1628839707462184
 51
99.8117291563225706
  0
ARC
  5
3C2CA
  8
0
 10
2957.3914938931548022
 20
251.6063965293897979
 30
0.0
 40
0.0549135951803018
 50
301.5735714047057741
 51
21.8363327413968094
  0
ARC
  5
3C2CB
  8
0
 10
2957.3871678675600378
 20
251.6114676240428025
 30
0.0
 40
0.0615077171455392
 50
225.0596149092596931
 51
302.5335012414682865
  0
ARC
  5
3C2CC
  8
0
 10
2957.3820501863838217
 20
251.6063812180900072
 30
0.0
 40
0.054292372937462
 50
151.023957870017199
 51
225.09087593200789
  0
ARC
  5
3C2CD
  8
0
 10
2957.3861579183671893
 20
251.6035151794937121
 30
0.0
 40
0.0592766008223859
 50
98.4565913926407035
 51
150.5239291439617091
  0
ARC
  5
3C2CE
  8
0
 10
2957.387141445810812
 20
251.603545156275203
 30
0.0
 40
0.0223046072561604
 50
33.549192768888453
 51
145.329165913642413
  0
ARC
  5
3C2CF
  8
0
 10
2957.3871527948931544
 20
251.606921336257102
 30
0.0
 40
0.0223474279581275
 50
216.9440925052414002
 51
320.5708602965568161
  0
ARC
  5
3C2D0
  8
0
 10
2957.3853617889199086
 20
251.605216575718913
 30
0.0
 40
0.0198934507250523
 50
146.3725643927868134
 51
216.12027512065319
  0
ARC
  5
3C2D1
  8
0
 10
2957.3890867269819864
 20
251.6052089976878108
 30
0.0
 40
0.0197663169968197
 50
320.8443294098831871
 51
32.6459342234488119
  0
ARC
  5
3C2D2
  8
0
 10
2957.4155774392761487
 20
248.5007757305517089
 30
0.0
 40
0.0796207654095198
 50
13.5285838925193396
 51
83.1720255674712234
  0
ARC
  5
3C2D3
  8
0
 10
2957.4123827611060733
 20
248.5050899891174083
 30
0.0
 40
0.0818668598602546
 50
315.7375309694792804
 51
10.0678259786158595
  0
ARC
  5
3C2D4
  8
0
 10
2957.3963038213269101
 20
248.5170264535460092
 30
0.0
 40
0.101747946844879
 50
244.4350516746125095
 51
317.2434380599622159
  0
ARC
  5
3C2D5
  8
0
 10
2957.3854409784607924
 20
248.4913204689414954
 30
0.0
 40
0.0738823044496772
 50
161.2402122011914969
 51
243.4317579259547983
  0
ARC
  5
3C2D6
  8
0
 10
2957.4102884006638305
 20
248.4797333971706053
 30
0.0
 40
0.1011800387555695
 50
81.6146726773545339
 51
159.5521557376007991
  0
ARC
  5
3C2D7
  8
0
 10
2957.3885723378289185
 20
248.4839387228475971
 30
0.0
 40
0.0596684302398596
 50
23.1628839707462184
 51
99.8117291563225706
  0
ARC
  5
3C2D8
  8
0
 10
2957.3924573634931221
 20
248.4869836151395077
 30
0.0
 40
0.0549135951803018
 50
301.5735714047057741
 51
21.8363327413968094
  0
ARC
  5
3C2D9
  8
0
 10
2957.3881313378988125
 20
248.4920547097925123
 30
0.0
 40
0.0615077171455392
 50
225.0596149092596931
 51
302.5335012414682865
  0
ARC
  5
3C2DA
  8
0
 10
2957.3830136567221416
 20
248.4869683038396886
 30
0.0
 40
0.054292372937462
 50
151.023957870017199
 51
225.09087593200789
  0
ARC
  5
3C2DB
  8
0
 10
2957.3871213887059639
 20
248.4841022652433935
 30
0.0
 40
0.0592766008223859
 50
98.4565913926407035
 51
150.5239291439617091
  0
ARC
  5
3C2DC
  8
0
 10
2957.3881049161500414
 20
248.4841322420249128
 30
0.0
 40
0.0223046072561604
 50
33.549192768888453
 51
145.329165913642413
  0
ARC
  5
3C2DD
  8
0
 10
2957.388116265231929
 20
248.4875084220068118
 30
0.0
 40
0.0223474279581275
 50
216.9440925052414002
 51
320.5708602965568161
  0
ARC
  5
3C2DE
  8
0
 10
2957.386325259259138
 20
248.4858036614685943
 30
0.0
 40
0.0198934507250523
 50
146.3725643927868134
 51
216.12027512065319
  0
ARC
  5
3C2DF
  8
0
 10
2957.3900501973212158
 20
248.4857960834374921
 30
0.0
 40
0.0197663169968197
 50
320.8443294098831871
 51
32.6459342234488119
  0
ARC
  5
3C2E0
  8
0
 10
2956.9539855033190179
 20
250.0186377852461135
 30
0.0
 40
0.1202308877894903
 50
10.2871824352099299
 51
92.8905537359916451
  0
ARC
  5
3C2E1
  8
0
 10
2956.9612359833718074
 20
250.0241481929004976
 30
0.0
 40
0.1121888337129831
 50
300.3071762601949217
 51
8.1790020229905966
  0
ARC
  5
3C2E2
  8
0
 10
2956.9533859636148918
 20
250.0336257924599863
 30
0.0
 40
0.1243485482710291
 50
212.695917732611008
 51
301.2261891024916736
  0
ARC
  5
3C2E3
  8
0
 10
2956.9422583991240572
 20
250.024850589860705
 30
0.0
 40
0.1102525227190241
 50
145.6955117872086021
 51
211.9819277884336088
  0
ARC
  5
3C2E4
  8
0
 10
2956.9515534762940661
 20
250.0156035388957889
 30
0.0
 40
0.1231656965338626
 50
91.689364061242415
 51
144.5790041971451103
  0
ARC
  5
3C2E5
  8
0
 10
2956.9424699492060427
 20
250.0331977940140007
 30
0.0
 40
0.1059553089204411
 50
149.4913923055748057
 51
217.6691909564254956
  0
ARC
  5
3C2E6
  8
0
 10
2956.9527776831960182
 20
250.042694723072799
 30
0.0
 40
0.1199241943835407
 50
218.2512372587939069
 51
314.7182708826800877
  0
ARC
  5
3C2E7
  8
0
 10
2956.9625921549832128
 20
250.0331064494675957
 30
0.0
 40
0.1062055773287356
 50
314.5955899388654871
 51
23.2382656482970198
  0
ARC
  5
3C2E8
  8
0
 10
2957.3869419532898064
 20
250.4312157948729975
 30
0.0
 40
0.1202308877894903
 50
10.2871824352099299
 51
92.8905537359916451
  0
ARC
  5
3C2E9
  8
0
 10
2957.3941924333430507
 20
250.4367262025274101
 30
0.0
 40
0.1121888337129831
 50
300.3071762601949217
 51
8.1790020229905966
  0
ARC
  5
3C2EA
  8
0
 10
2957.3863424135861351
 20
250.4462038020868988
 30
0.0
 40
0.1243485482710291
 50
212.695917732611008
 51
301.2261891024916736
  0
ARC
  5
3C2EB
  8
0
 10
2957.3752148490962099
 20
250.4374285994875891
 30
0.0
 40
0.1102525227190241
 50
145.6955117872086021
 51
211.9819277884336088
  0
ARC
  5
3C2EC
  8
0
 10
2957.3845099262662188
 20
250.4281815485227014
 30
0.0
 40
0.1231656965338626
 50
91.689364061242415
 51
144.5790041971451103
  0
ARC
  5
3C2ED
  8
0
 10
2957.3754263991759217
 20
250.4457758036409132
 30
0.0
 40
0.1059553089204411
 50
149.4913923055748057
 51
217.6691909564254956
  0
ARC
  5
3C2EE
  8
0
 10
2957.3857341331668067
 20
250.4552727326997115
 30
0.0
 40
0.1199241943835407
 50
218.2512372587939069
 51
314.7182708826800877
  0
ARC
  5
3C2EF
  8
0
 10
2957.3955486049540013
 20
250.4456844590943945
 30
0.0
 40
0.1062055773287356
 50
314.5955899388654871
 51
23.2382656482970198
  0
ARC
  5
3C2F0
  8
0
 10
2957.3869419531902167
 20
249.6064557448729886
 30
0.0
 40
0.1202308877894903
 50
10.2871824352099299
 51
92.8905537359916451
  0
ARC
  5
3C2F1
  8
0
 10
2957.3941924332430062
 20
249.6119661525274012
 30
0.0
 40
0.1121888337129831
 50
300.3071762601949217
 51
8.1790020229905966
  0
ARC
  5
3C2F2
  8
0
 10
2957.3863424134860907
 20
249.6214437520868898
 30
0.0
 40
0.1243485482710291
 50
212.695917732611008
 51
301.2261891024916736
  0
ARC
  5
3C2F3
  8
0
 10
2957.3752148489961655
 20
249.6126685494876085
 30
0.0
 40
0.1102525227190241
 50
145.6955117872086021
 51
211.9819277884336088
  0
ARC
  5
3C2F4
  8
0
 10
2957.3845099261661744
 20
249.6034214985226924
 30
0.0
 40
0.1231656965338626
 50
91.689364061242415
 51
144.5790041971451103
  0
ARC
  5
3C2F5
  8
0
 10
2957.3754263990767868
 20
249.6210157536409042
 30
0.0
 40
0.1059553089204411
 50
149.4913923055748057
 51
217.6691909564254956
  0
ARC
  5
3C2F6
  8
0
 10
2957.385734133067217
 20
249.6305126826995888
 30
0.0
 40
0.1199241943835407
 50
218.2512372587939069
 51
314.7182708826800877
  0
ARC
  5
3C2F7
  8
0
 10
2957.3955486048539569
 20
249.6209244090944992
 30
0.0
 40
0.1062055773287356
 50
314.5955899388654871
 51
23.2382656482970198
  0
ARC
  5
3C2F8
  8
0
 10
2957.8214059980400634
 20
250.0188378457060878
 30
0.0
 40
0.1202308877894903
 50
10.2871824352099299
 51
92.8905537359916451
  0
ARC
  5
3C2F9
  8
0
 10
2957.8286564780919434
 20
250.0243482533606141
 30
0.0
 40
0.1121888337129831
 50
300.3071762601949217
 51
8.1790020229905966
  0
ARC
  5
3C2FA
  8
0
 10
2957.8208064583359374
 20
250.0338258529199891
 30
0.0
 40
0.1243485482710291
 50
212.695917732611008
 51
301.2261891024916736
  0
ARC
  5
3C2FB
  8
0
 10
2957.8096788938460122
 20
250.025050650320793
 30
0.0
 40
0.1102525227190241
 50
145.6955117872086021
 51
211.9819277884336088
  0
ARC
  5
3C2FC
  8
0
 10
2957.8189739710151116
 20
250.0158035993559054
 30
0.0
 40
0.1231656965338626
 50
91.689364061242415
 51
144.5790041971451103
  0
ARC
  5
3C2FD
  8
0
 10
2957.8098904439261787
 20
250.0333978544740887
 30
0.0
 40
0.1059553089204411
 50
149.4913923055748057
 51
217.6691909564254956
  0
ARC
  5
3C2FE
  8
0
 10
2957.8201981779161542
 20
250.0428947835328017
 30
0.0
 40
0.1199241943835407
 50
218.2512372587939069
 51
314.7182708826800877
  0
ARC
  5
3C2FF
  8
0
 10
2957.8300126497038036
 20
250.0333065099275984
 30
0.0
 40
0.1062055773287356
 50
314.5955899388654871
 51
23.2382656482970198
  0
CIRCLE
  5
3C300
  8
0
 10
2956.9233616844871904
 20
250.08664464640961
 30
0.0
 40
0.0312634065051237
  0
CIRCLE
  5
3C301
  8
0
 10
2957.0117148355329846
 20
250.0372534963215969
 30
0.0
 40
0.0312634065051237
  0
CIRCLE
  5
3C302
  8
0
 10
2956.9236941165640928
 20
249.9893840059997956
 30
0.0
 40
0.0312634065051237
  0
CIRCLE
  5
3C303
  8
0
 10
2957.3356032638971556
 20
250.4784563916551008
 30
0.0
 40
0.0312634065051237
  0
CIRCLE
  5
3C304
  8
0
 10
2957.3869419532898064
 20
250.3952736936383019
 30
0.0
 40
0.0312634065051237
  0
CIRCLE
  5
3C305
  8
0
 10
2957.4383562555631215
 20
250.4784911810220933
 30
0.0
 40
0.0312634065051237
  0
CIRCLE
  5
3C306
  8
0
 10
2957.7620161510631078
 20
250.0374364798196893
 30
0.0
 40
0.0312634065051237
  0
CIRCLE
  5
3C307
  8
0
 10
2957.8506183423919538
 20
250.0858724939091928
 30
0.0
 40
0.0312634065051237
  0
CIRCLE
  5
3C308
  8
0
 10
2957.850831891974849
 20
249.9896405686517085
 30
0.0
 40
0.0312634065051237
  0
CIRCLE
  5
3C309
  8
0
 10
2957.3869419532898064
 20
249.6803330573306994
 30
0.0
 40
0.0312634065051237
  0
CIRCLE
  5
3C30A
  8
0
 10
2957.3361055064860921
 20
249.596519114465309
 30
0.0
 40
0.0312634065051237
  0
CIRCLE
  5
3C30B
  8
0
 10
2957.4378095171709901
 20
249.5971592888230077
 30
0.0
 40
0.0312634065051237
  0
LINE
  5
3C30C
  8
0
 10
2947.8979357178409373
 20
217.4518345259481862
 30
0.0
 11
2948.3289824530961596
 21
217.4518345259481862
 31
0.0
  0
LINE
  5
3C30D
  8
0
 10
2949.7187498708831299
 20
217.4518345259481862
 30
0.0
 11
2959.2836549415410445
 21
217.4518345259481862
 31
0.0
  0
LINE
  5
3C30E
  8
0
 10
2947.429407928189903
 20
218.0778187779480959
 30
0.0
 11
2959.7521827312912137
 21
218.0778187779480959
 31
0.0
  0
LINE
  5
3C30F
  8
0
 10
2947.7720265952971204
 20
217.9367340415435876
 30
0.0
 11
2947.8587502957739162
 21
217.487128104451898
 31
0.0
  0
LINE
  5
3C310
  8
0
 10
2947.3900079281897888
 20
219.8534093291482066
 30
0.0
 11
2947.3900079281897888
 21
218.1172187779480964
 31
0.0
  0
LINE
  5
3C311
  8
0
 10
2947.350637849389841
 20
219.8534093291482066
 30
0.0
 11
2959.8309528099907766
 21
219.8534093291482066
 31
0.0
  0
LINE
  5
3C312
  8
0
 10
2947.409692967490173
 20
220.0108896440482056
 30
0.0
 11
2959.7718976918899898
 21
220.0108896440482056
 31
0.0
  0
LINE
  5
3C313
  8
0
 10
2947.350637849389841
 20
219.9518345259481862
 30
0.0
 11
2947.350637849389841
 21
219.8534093291482066
 31
0.0
  0
LINE
  5
3C314
  8
0
 10
2947.409692967490173
 20
220.0108896440482056
 30
0.0
 11
2947.350637849389841
 21
219.9518345259481862
 31
0.0
  0
ARC
  5
3C315
  8
0
 10
2947.429407928189903
 20
218.1172187779480964
 30
0.0
 40
0.0394
 50
180.0
 51
270.0
  0
ARC
  5
3C316
  8
0
 10
2947.6153843624188085
 20
217.920318777948097
 30
0.0
 40
0.1575
 50
5.9824537323380564
 51
90.0
  0
ARC
  5
3C317
  8
0
 10
2947.8979357178409373
 20
217.4912345259481867
 30
0.0
 40
0.0394
 50
185.9824537323380014
 51
270.0
  0
LINE
  5
3C318
  8
0
 10
2959.3228403636057919
 20
217.4871281044513864
 30
0.0
 11
2959.409565854669836
 21
217.9367511280698864
 31
0.0
  0
LINE
  5
3C319
  8
0
 10
2959.7521827312912137
 20
218.018760351363909
 30
0.0
 11
2959.547548841067055
 21
218.018760351363909
 31
0.0
  0
LINE
  5
3C31A
  8
0
 10
2959.7915827312899637
 20
218.0581603513639095
 30
0.0
 11
2959.7915827312899637
 21
219.8534093291482066
 31
0.0
  0
ARC
  5
3C31B
  8
0
 10
2959.2836549415410445
 20
217.4912345259481867
 30
0.0
 40
0.0394
 50
270.0
 51
354.0175462669459989
  0
LINE
  5
3C31C
  8
0
 10
2959.3230422020769765
 20
217.8474556702190057
 30
0.0
 11
2959.3696231014669138
 21
217.9359687633966871
 31
0.0
  0
LINE
  5
3C31D
  8
0
 10
2959.3228472135901939
 20
217.4871934702482008
 30
0.0
 11
2959.3228472135901939
 21
217.8435406897322082
 31
0.0
  0
ARC
  5
3C31E
  8
0
 10
2959.3622472135912176
 20
217.8435406897320945
 30
0.0
 40
0.0394
 50
174.2973952125499011
 51
179.9999999999560032
  0
ARC
  5
3C31F
  8
0
 10
2959.5263436424161227
 20
217.920318777948097
 30
0.0
 40
0.1575
 50
90.0
 51
174.2973952124866912
  0
ARC
  5
3C320
  8
0
 10
2959.5389835200248854
 20
217.8379178360249
 30
0.0
 40
0.1810452431816008
 50
87.2883021035742246
 51
164.2434711458419088
  0
ARC
  5
3C321
  8
0
 10
2959.5661840848160864
 20
217.9203383798297011
 30
0.0
 40
0.15747586582995
 50
160.801724609682708
 51
174.01753921436719
  0
ARC
  5
3C322
  8
0
 10
2959.7521827312912137
 20
218.1172187779480964
 30
0.0
 40
0.0394
 50
270.0
 51
0.0
  0
ARC
  5
3C323
  8
0
 10
2959.7521827312912137
 20
218.0581603513639095
 30
0.0
 40
0.0394
 50
270.0
 51
359.9999999999984084
  0
LINE
  5
3C324
  8
0
 10
2959.8309528099907766
 20
219.9518345259481009
 30
0.0
 11
2959.8309528099907766
 21
219.8534093291482066
 31
0.0
  0
LINE
  5
3C325
  8
0
 10
2959.8309528099907766
 20
219.9518345259481009
 30
0.0
 11
2959.7718976918899898
 21
220.0108896440482056
 31
0.0
  0
LINE
  5
3C326
  8
0
 10
2947.350637849389841
 20
219.9518345259481862
 30
0.0
 11
2959.8309528099907766
 21
219.9518345259481862
 31
0.0
  0
LINE
  5
3C327
  8
0
 10
2961.5436614714899406
 20
217.9400534235481075
 30
0.0
 11
2961.5436614714899406
 21
219.9084975180481081
 31
0.0
  0
LINE
  5
3C328
  8
0
 10
2961.5042614714898264
 20
217.900653423548107
 30
0.0
 11
2961.4649213139909989
 21
217.900653423548107
 31
0.0
  0
LINE
  5
3C329
  8
0
 10
2961.4570213139909356
 20
217.900653423548107
 30
0.0
 11
2961.3627094956100336
 21
217.900653423548107
 31
0.0
  0
LINE
  5
3C32A
  8
0
 10
2961.4649213139909989
 20
217.900653423548107
 30
0.0
 11
2961.4649213139909989
 21
219.9478975180481086
 31
0.0
  0
LINE
  5
3C32B
  8
0
 10
2961.5042614714898264
 20
219.9478975180481086
 30
0.0
 11
2961.4649213139909989
 21
219.9478975180481086
 31
0.0
  0
LINE
  5
3C32C
  8
0
 10
2961.4570213139909356
 20
219.9478975180481086
 30
0.0
 11
2960.5772695206260323
 21
219.9478975180481086
 31
0.0
  0
ARC
  5
3C32D
  8
0
 10
2961.5042614714898264
 20
217.9400534235477949
 30
0.0
 40
0.0393999999996257
 50
269.9999999997655209
 51
0.0000000005406434
  0
ARC
  5
3C32E
  8
0
 10
2961.5047999961238929
 20
219.9090360426818904
 30
0.0
 40
0.0388652065017935
 50
359.2060719889026927
 51
90.7939280107535467
  0
ARC
  5
3C32F
  8
0
 10
2961.4570213139909356
 20
217.9085534235481134
 30
0.0
 40
0.0079
 50
270.0
 51
0.0
  0
ARC
  5
3C330
  8
0
 10
2961.4570213139909356
 20
219.9399975180481022
 30
0.0
 40
0.0079
 50
0.0000000000065138
 51
89.9999999999739515
  0
LINE
  5
3C331
  8
0
 10
2959.8066511788688331
 20
219.672275470848092
 30
0.0
 11
2959.7960775856381588
 21
219.672275470848092
 31
0.0
  0
ARC
  5
3C332
  8
0
 10
2959.8013780070527901
 20
219.6915677917060918
 30
0.0
 40
0.0199999996272519
 50
285.2872615681542925
 51
319.9667959434743238
  0
ARC
  5
3C333
  8
0
 10
2960.2764375746692167
 20
219.2924761087527941
 30
0.0
 40
0.6004480354141279
 50
118.2662351347999987
 51
139.9667959434742954
  0
ARC
  5
3C334
  8
0
 10
2960.4430371769708472
 20
218.9826297760905049
 30
0.0
 40
0.9522436825607575
 50
102.5066835126842051
 51
118.2662351347999987
  0
ARC
  5
3C335
  8
0
 10
2960.54626376833221
 20
218.5172616171730056
 30
0.0
 40
1.4289230847781269
 50
92.9477029335470917
 51
102.5066835126842051
  0
ARC
  5
3C336
  8
0
 10
2960.6311621025879504
 20
216.8685120795439047
 30
0.0
 40
3.0798569916900931
 50
91.0026358698195139
 51
92.9477029335470917
  0
ARC
  5
3C337
  8
0
 10
2959.8022906685741873
 20
219.6937856904895057
 30
0.0
 40
0.0223895499863761
 50
241.4284376126636005
 51
253.8889923706558136
  0
LINE
  5
3C338
  8
0
 10
2960.4421505964919561
 20
217.9408109039480905
 30
0.0
 11
2961.0987795816909056
 21
217.9408109039480905
 31
0.0
  0
ARC
  5
3C339
  8
0
 10
2961.0987795816909056
 20
217.1534093291481042
 30
0.0
 40
0.7874015747999829
 50
81.3486819072614935
 51
90.0000000003126672
  0
ARC
  5
3C33A
  8
0
 10
2961.0987795816909056
 20
217.1534093291481042
 30
0.0
 40
0.7874015748000333
 50
72.6973638142087992
 51
81.3486819072614935
  0
ARC
  5
3C33B
  8
0
 10
2961.3627094956100336
 20
218.0006534235479023
 30
0.0
 40
0.1
 50
252.6973637956243977
 51
270.0
  0
ARC
  5
3C33C
  8
0
 10
2960.4465739015181498
 20
217.1917395559580086
 30
0.0
 40
0.7490844077986899
 50
90.3383306068967329
 51
98.1423144224162058
  0
ARC
  5
3C33D
  8
0
 10
2960.4161400244970537
 20
217.3567339214773142
 30
0.0
 40
0.5814821531634845
 50
97.4763529428184228
 51
100.474925432280898
  0
ARC
  5
3C33E
  8
0
 10
2960.4054702940038624
 20
218.731578965075613
 30
0.0
 40
0.8137582328301558
 50
223.6532654521261918
 51
260.8723054256425939
  0
ARC
  5
3C33F
  8
0
 10
2960.2922430236358196
 20
218.0268588786740906
 30
0.0
 40
0.1
 50
260.8723054256425939
 51
280.4749254322809975
  0
ARC
  5
3C340
  8
0
 10
2959.799952153517097
 20
218.1547559202618061
 30
0.0
 40
0.0225381453006605
 50
42.0372821910740271
 51
72.7086610427194984
  0
ARC
  5
3C341
  8
0
 10
2959.8013780068899905
 20
-210859.1119392173131928
 30
0.0
 40
211077.2882146881893277
 50
89.999998568636812
 51
90.0000014313631738
  0
ARC
  5
3C342
  8
0
 10
2959.804942185238815
 20
218.1478868921865057
 30
0.0
 40
0.029732308239954
 50
107.2913389572805016
 51
116.7003515660894948
  0
LINE
  5
3C343
  8
0
 10
2960.9667429523369719
 20
217.8415988364538123
 30
0.0
 11
2960.6660130614441186
 21
217.8415988364538123
 31
0.0
  0
LINE
  5
3C344
  8
0
 10
2960.9746428771350111
 20
217.8494643663134127
 30
0.0
 11
2960.9750414540908423
 21
217.9408109039480905
 31
0.0
  0
LINE
  5
3C345
  8
0
 10
2960.6581131366460795
 20
217.8494643663048009
 30
0.0
 11
2960.6577145595911134
 21
217.9408109039480905
 31
0.0
  0
ARC
  5
3C346
  8
0
 10
2960.9667429523369719
 20
217.8494988364537903
 30
0.0
 40
0.0079
 50
270.0
 51
359.750000021298888
  0
ARC
  5
3C347
  8
0
 10
2960.6660130614441186
 20
217.8494988364537903
 30
0.0
 40
0.0079
 50
180.2500000411068015
 51
270.0000000000259774
  0
ARC
  5
3C348
  8
0
 10
2960.8163780068907727
 20
216.7663590496756001
 30
0.0
 40
1.085702636954438
 50
82.0392024890795284
 51
97.9607975109204716
  0
ARC
  5
3C349
  8
0
 10
2950.6369464299132233
 20
219.26153321194721
 30
0.0
 40
1.7850886335145639
 50
261.259895167243883
 51
278.7885811494401196
  0
ARC
  5
3C34A
  8
0
 10
2950.6384362258158944
 20
215.7398542415701002
 30
0.0
 40
1.778358016290468
 50
81.2264617660563033
 51
98.8220145506345915
  0
ARC
  5
3C34B
  8
0
 10
2950.6388710277287828
 20
219.9408923937571956
 30
0.0
 40
2.4500896474154881
 50
264.4373474906024057
 51
275.550792434122684
  0
LINE
  5
3C34C
  8
0
 10
2947.858743445789969
 20
217.8435406897363009
 30
0.0
 11
2947.858743445789969
 21
217.4871934702482008
 31
0.0
  0
LINE
  5
3C34D
  8
0
 10
2947.8121551358990473
 20
217.9340903394304121
 30
0.0
 11
2947.8585484573050053
 21
217.847455670214913
 31
0.0
  0
ARC
  5
3C34E
  8
0
 10
2947.6533856682749501
 20
217.9195819609277862
 30
0.0
 40
0.1594309784720161
 50
5.2211965029557206
 51
82.9829552068933367
  0
ARC
  5
3C34F
  8
0
 10
2947.8193434457898547
 20
217.8435406897363862
 30
0.0
 40
0.0394
 50
359.9999999999984084
 51
5.7026047754292923
  0
LINE
  5
3C350
  8
0
 10
2947.858743445789969
 20
217.8435406897363009
 30
0.0
 11
2959.3228472135911034
 21
217.8435406897363009
 31
0.0
  0
ARC
  5
3C351
  8
0
 10
2956.8560002966951288
 20
207.2646240921255014
 30
0.0
 40
10.4364837580305903
 50
89.9862116130877894
 51
91.3365683322789863
  0
ARC
  5
3C352
  8
0
 10
2956.7787698761571846
 20
210.5747238152245018
 30
0.0
 40
7.1254831970646357
 50
91.3365683322789863
 51
94.5620797780654954
  0
ARC
  5
3C353
  8
0
 10
2956.3113072066739733
 20
216.4332387452836883
 30
0.0
 40
1.248347965245745
 50
94.5620797780654954
 51
101.672379339167307
  0
ARC
  5
3C354
  8
0
 10
2956.0741573378918474
 20
217.5811786850084104
 30
0.0
 40
0.0761678743560418
 50
101.672379339167307
 51
144.6202809609337976
  0
LINE
  5
3C355
  8
0
 10
2956.0120551721897755
 20
217.5601655610456078
 30
0.0
 11
2956.0120551721897755
 21
217.6252793210481968
 31
0.0
  0
ARC
  5
3C356
  8
0
 10
2956.0435137356857922
 20
217.568463055368511
 30
0.0
 40
0.0325344375889368
 50
194.7757939103478009
 51
233.7874275654359053
  0
ARC
  5
3C357
  8
0
 10
2956.0881705834858622
 20
217.6294508162864929
 30
0.0
 40
0.1081237294049751
 50
233.7874275654359053
 51
254.83027179980391
  0
ARC
  5
3C358
  8
0
 10
2956.2412050888619888
 20
218.1938898461860958
 30
0.0
 40
0.6929407762747968
 50
254.83027179980391
 51
266.4298382813529997
  0
ARC
  5
3C359
  8
0
 10
2956.6003185578701959
 20
221.5565541730373127
 30
0.0
 40
4.0741677069072324
 50
264.3336625316101731
 51
267.1530422773990949
  0
ARC
  5
3C35A
  8
0
 10
2956.8449065728709684
 20
226.6645338075317113
 30
0.0
 40
9.1879960092891189
 50
267.2117769834640058
 51
269.0700262182671167
  0
ARC
  5
3C35B
  8
0
 10
2957.3529148714801522
 20
363.8205145371334766
 30
0.0
 40
146.3442418600918131
 50
269.7427225168503924
 51
270.2995352960011246
  0
ARC
  5
3C35C
  8
0
 10
2958.0441849461421953
 20
223.7016486534928106
 30
0.0
 40
6.2238136540228206
 50
270.6793756467935168
 51
274.528365475489295
  0
ARC
  5
3C35D
  8
0
 10
2958.455447049034774
 20
218.7534751750150122
 30
0.0
 40
1.258764397847397
 50
273.6495259964369211
 51
282.5468574108226107
  0
ARC
  5
3C35E
  8
0
 10
2958.7090972742080339
 20
217.6124806645296985
 30
0.0
 40
0.0899163093556084
 50
282.7218441012940957
 51
312.0210545984519968
  0
ARC
  5
3C35F
  8
0
 10
2958.7522743654999431
 20
217.5647161866340866
 30
0.0
 40
0.025529435234876
 50
311.7910186354138204
 51
0.39185104188174
  0
ARC
  5
3C360
  8
0
 10
2957.9399083449811769
 20
207.8924939245441976
 30
0.0
 40
9.8086173601701372
 50
87.7462951190330926
 51
90.0500128619949862
  0
ARC
  5
3C361
  8
0
 10
2958.2111633465679006
 20
213.9607496984351087
 30
0.0
 40
3.7345291377623551
 50
82.9158396873541221
 51
88.2436100621694948
  0
ARC
  5
3C362
  8
0
 10
2958.636263229107044
 20
217.3230974101689981
 30
0.0
 40
0.3454977394224374
 50
68.1184758145599858
 51
84.1076163694838925
  0
LINE
  5
3C363
  8
0
 10
2958.7778032036908371
 20
217.6252793210477137
 30
0.0
 11
2958.7778032036908371
 21
217.5648907834001022
 31
0.0
  0
ARC
  5
3C364
  8
0
 10
2958.7559714723879551
 20
217.6237825513040889
 30
0.0
 40
0.0218829799466019
 50
3.9220252179296549
 51
65.557271892300335
  0
ARC
  5
3C365
  8
0
 10
2956.0258809286438009
 20
217.5492963541404094
 30
0.0
 40
0.0068057975543766
 50
123.7404180110777929
 51
207.755823300986691
  0
ARC
  5
3C366
  8
0
 10
2956.132784794006966
 20
217.3145074253503992
 30
0.0
 40
0.2647005340376092
 50
96.6545936201454339
 51
114.7177225164310954
  0
ARC
  5
3C367
  8
0
 10
2956.5571421258150622
 20
214.1162236747348118
 30
0.0
 40
3.4909835148992912
 50
92.048479622243363
 51
97.4895214155410343
  0
ARC
  5
3C368
  8
0
 10
2956.8528232131811819
 20
207.6946225407749864
 30
0.0
 40
9.9192692600802932
 50
89.9671411511650945
 51
92.4294313702218631
  0
ARC
  5
3C369
  8
0
 10
2957.3949291879898738
 20
137.6006029241200963
 30
0.0
 40
80.0150853238286004
 50
89.6158889445616325
 51
90.3841110554383533
  0
ARC
  5
3C36A
  8
0
 10
2957.9484471247260444
 20
208.304391151428888
 30
0.0
 40
9.3095147242604064
 50
87.2783229576185562
 51
90.1052464694071915
  0
ARC
  5
3C36B
  8
0
 10
2958.3398306859471631
 20
215.3975098893934899
 30
0.0
 40
2.2064766204571971
 50
79.7654020557374963
 51
88.6840586730100711
  0
ARC
  5
3C36C
  8
0
 10
2958.7116766690251097
 20
217.4629444426091993
 30
0.0
 40
0.107842170467608
 50
58.9002795918080935
 51
79.2048697259222365
  0
ARC
  5
3C36D
  8
0
 10
2958.7632007188890384
 20
217.5488857181991875
 30
0.0
 40
0.0076444600591385
 50
345.2030808828695854
 51
56.8559679146726822
  0
LINE
  5
3C36E
  8
0
 10
2957.9313465107898082
 20
217.7011075479481974
 30
0.0
 11
2956.8585118651931225
 21
217.7011075479481974
 31
0.0
  0
CIRCLE
  5
3C36F
  8
0
 10
2952.6459058808909504
 20
218.9636455495480902
 30
0.0
 40
0.7283411763130668
  0
CIRCLE
  5
3C370
  8
0
 10
2952.6459058808909504
 20
218.9636455495480902
 30
0.0
 40
0.7440929403776771
  0
LINE
  5
3C371
  8
0
 10
2952.2915827312908732
 20
218.3272997514393978
 30
0.0
 11
2952.2915827312908732
 21
218.3093295635158029
 31
0.0
  0
LINE
  5
3C372
  8
0
 10
2952.1790673177451936
 20
218.4045904314482129
 30
0.0
 11
2952.1548542758159783
 21
218.4045904314482129
 31
0.0
  0
LINE
  5
3C373
  8
0
 10
2952.484404492856811
 20
219.6900005630114094
 30
0.0
 11
2952.4852406817140036
 21
219.6740451292824901
 31
0.0
  0
ARC
  5
3C374
  8
0
 10
2952.4696293107208476
 20
219.657995963188597
 30
0.0
 40
0.0186575255429824
 50
53.560201398012758
 51
103.0382677404497969
  0
ARC
  5
3C375
  8
0
 10
2952.5877604514971608
 20
219.1478684675817874
 30
0.0
 40
0.5422843279461715
 50
103.0382677404497969
 51
112.0000461116649006
  0
ARC
  5
3C376
  8
0
 10
2952.3929981440910524
 20
219.6299209772120946
 30
0.0
 40
0.0223737794604929
 50
112.0000461116363937
 51
156.9586860260160108
  0
ARC
  5
3C377
  8
0
 10
2952.3444085480350623
 20
219.5632751590462135
 30
0.0
 40
0.0755403303738664
 50
73.8257687390369455
 51
100.7764096939417016
  0
LINE
  5
3C378
  8
0
 10
2951.9773241954908372
 20
219.2902536233447108
 30
0.0
 11
2951.990320011122094
 21
219.2809593319043131
 31
0.0
  0
ARC
  5
3C379
  8
0
 10
2951.9931342238351135
 20
219.2587473791894865
 30
0.0
 40
0.0186575255429824
 50
104.9887728265872937
 51
154.4668391690406111
  0
ARC
  5
3C37A
  8
0
 10
2952.4656215215281918
 20
219.0330467329488897
 30
0.0
 40
0.5422843279461715
 50
154.4668391690406111
 51
163.4286175402122012
  0
ARC
  5
3C37B
  8
0
 10
2951.9673053808428449
 20
219.1813302531363092
 30
0.0
 40
0.0223737794604929
 50
163.4286175402122012
 51
208.387257454604395
  0
ARC
  5
3C37C
  8
0
 10
2951.9891160620418304
 20
219.1017883892563134
 30
0.0
 40
0.0755403303738664
 50
125.2543401676254007
 51
152.2049811225116116
  0
LINE
  5
3C37D
  8
0
 10
2951.9736995438120175
 20
218.6445641425185897
 30
0.0
 11
2951.9890688719801801
 21
218.6489297843903046
 31
0.0
  0
ARC
  5
3C37E
  8
0
 10
2952.0081895088260353
 20
218.6372810984900923
 30
0.0
 40
0.0186575255429824
 50
156.4173442551575874
 51
205.8954105976166034
  0
ARC
  5
3C37F
  8
0
 10
2952.4792403912902046
 20
218.8659644916891125
 30
0.0
 40
0.5422843279461715
 50
205.8954105976166034
 51
214.8571889687983969
  0
ARC
  5
3C380
  8
0
 10
2952.0526126350569029
 20
218.568818507299909
 30
0.0
 40
0.0223737794604929
 50
214.8571889687983969
 51
259.8158288831651248
  0
ARC
  5
3C381
  8
0
 10
2952.1283997057121269
 20
218.5362772435657917
 30
0.0
 40
0.0755403303738664
 50
176.6829115961872105
 51
203.6335525511009905
  0
LINE
  5
3C382
  8
0
 10
2952.4762599744640283
 20
218.2391494692602976
 30
0.0
 11
2952.4824293975811997
 21
218.2538876270718902
 31
0.0
  0
ARC
  5
3C383
  8
0
 10
2952.5034582290259095
 20
218.2615739060589988
 30
0.0
 40
0.0186575255429824
 50
207.8459156837172941
 51
257.3239820261802038
  0
ARC
  5
3C384
  8
0
 10
2952.6183617740780392
 20
218.7724380793277135
 30
0.0
 40
0.5422843279461713
 50
257.3239820261802038
 51
266.2857603973624236
  0
ARC
  5
3C385
  8
0
 10
2952.5846818043610256
 20
218.2536195772804035
 30
0.0
 40
0.0223737794604929
 50
266.2857603973624236
 51
311.2444003117361149
  0
ARC
  5
3C386
  8
0
 10
2952.6573760544938523
 20
218.2925831490047131
 30
0.0
 40
0.0755403303738664
 50
228.1114830247707914
 51
255.0621239796709006
  0
LINE
  5
3C387
  8
0
 10
2953.1065672327999891
 20
218.3792951214855123
 30
0.0
 11
2953.098891049426129
 21
218.3933076618012024
 31
0.0
  0
ARC
  5
3C388
  8
0
 10
2953.1059929364819254
 20
218.4145409808268141
 30
0.0
 40
0.0186575255429824
 50
259.2744871123092025
 51
308.7525534547430084
  0
ARC
  5
3C389
  8
0
 10
2952.7782244310928945
 20
218.8228947919637903
 30
0.0
 40
0.5422843279461715
 50
308.7525534547430084
 51
317.7143318259326747
  0
ARC
  5
3C38A
  8
0
 10
2953.1628539520352206
 20
218.4730846862688054
 30
0.0
 40
0.0223737794604929
 50
317.7143318259326747
 51
2.672971740312565
  0
ARC
  5
3C38B
  8
0
 10
2953.1777151286028129
 20
218.5542127292312102
 30
0.0
 40
0.0755403303738664
 50
279.5400544533316065
 51
306.4906954082405832
  0
LINE
  5
3C38C
  8
0
 10
2953.3899870973691577
 20
218.9594685646183052
 30
0.0
 11
2953.3742456301511083
 21
218.9622037587766954
 31
0.0
  0
ARC
  5
3C38D
  8
0
 10
2953.3620727070119756
 20
218.9809949955337061
 30
0.0
 40
0.0186575255429824
 50
310.7030585408813863
 51
0.1811248833185364
  0
ARC
  5
3C38E
  8
0
 10
2952.8384485209990089
 20
218.9793396958532128
 30
0.0
 40
0.5422843279461713
 50
0.1811248833185364
 51
9.1429032545122002
  0
ARC
  5
3C38F
  8
0
 10
2953.3517536583190122
 20
219.0619521309245101
 30
0.0
 40
0.0223737794604929
 50
9.1429032545122002
 51
54.1015431688873178
  0
ARC
  5
3C390
  8
0
 10
2953.2975909922529354
 20
219.1241535740637971
 30
0.0
 40
0.0755403303738664
 50
330.9686258819124873
 51
357.9192668368045247
  0
LINE
  5
3C391
  8
0
 10
2953.1130986294401737
 20
219.5427873625982045
 30
0.0
 11
2953.1011455242592092
 21
219.5321855536101907
 31
0.0
  0
ARC
  5
3C392
  8
0
 10
2953.0788642503321171
 20
219.5343845235491926
 30
0.0
 40
0.0186575255429824
 50
2.1316299694397491
 51
51.6096963118851519
  0
ARC
  5
3C393
  8
0
 10
2952.7536840757497885
 20
219.1239665874726086
 30
0.0
 40
0.5422843279461713
 50
51.6096963118851519
 51
60.5714746830684305
  0
ARC
  5
3C394
  8
0
 10
2953.0091355915278655
 20
219.5767927147149976
 30
0.0
 40
0.0223737794604929
 50
60.5714746830684305
 51
105.5301145974527941
  0
ARC
  5
3C395
  8
0
 10
2952.9267346750930301
 20
219.5732286026691042
 30
0.0
 40
0.0755403303738664
 50
22.3971973104838717
 51
49.347838265359627
  0
LINE
  5
3C396
  8
0
 10
2952.6360633612130187
 20
219.0017654643334026
 30
0.0
 11
2952.6360633612130187
 21
219.6919202188313136
 31
0.0
  0
LINE
  5
3C397
  8
0
 10
2952.6557484019731419
 20
219.0017654639705995
 30
0.0
 11
2952.6557484019731419
 21
219.6919202188122995
 31
0.0
  0
ARC
  5
3C398
  8
0
 10
2952.6459058808909504
 20
218.9636455495480902
 30
0.0
 40
0.0393700786999999
 50
104.4775121902354016
 51
75.5224856978186239
  0
ARC
  5
3C399
  8
0
 10
2952.6459058808909504
 20
218.9636455495480902
 30
0.0
 40
0.0452755906000002
 50
102.5558577755053022
 51
77.4441404027440541
  0
ARC
  5
3C39A
  8
0
 10
2952.6459058808909504
 20
218.9636455495480902
 30
0.0
 40
0.0523622047000003
 50
100.8343349754694032
 51
79.1656634591148674
  0
ARC
  5
3C39B
  8
0
 10
2952.6459058808909504
 20
218.9636455495480902
 30
0.0
 40
0.0594488188000004
 50
99.5299368428314324
 51
80.470061783977286
  0
ARC
  5
3C39C
  8
0
 10
2952.6459058808909504
 20
218.9636455495480902
 30
0.0
 40
0.0665354329000005
 50
98.5069277716270619
 51
81.4930710049396367
  0
ARC
  5
3C39D
  8
0
 10
2952.6459058808909504
 20
218.9636455495480902
 30
0.0
 40
0.0736220470000006
 50
97.6828665072427924
 51
82.3171323893191129
  0
ARC
  5
3C39E
  8
0
 10
2952.6459058808909504
 20
218.9636455495480902
 30
0.0
 40
0.0807086611000008
 50
97.0047264316195168
 51
82.995272563385555
  0
ARC
  5
3C39F
  8
0
 10
2952.6459058808909504
 20
218.9636455495480902
 30
0.0
 40
0.0877952752000009
 50
96.4368251479881593
 51
83.5631739292113878
  0
ARC
  5
3C3A0
  8
0
 10
2952.6459058808909504
 20
218.9636455495480902
 30
0.0
 40
0.094881889300001
 50
95.9542571528504453
 51
84.0457419940364758
  0
ARC
  5
3C3A1
  8
0
 10
2952.6459058808909504
 20
218.9636455495480902
 30
0.0
 40
0.1019685034000011
 50
95.539104882584013
 51
84.4608943241902921
  0
ARC
  5
3C3A2
  8
0
 10
2952.6459058808909504
 20
218.9636455495480902
 30
0.0
 40
0.1090551175000012
 50
95.178145359718286
 51
84.8218538990112449
  0
ARC
  5
3C3A3
  8
0
 10
2952.6459058808909504
 20
218.9636455495480902
 30
0.0
 40
0.1161417316000013
 50
94.8614054209304385
 51
85.1385938833968936
  0
ARC
  5
3C3A4
  8
0
 10
2952.6459058808909504
 20
218.9636455495480902
 30
0.0
 40
0.1232283457000014
 50
94.5812201101090722
 51
85.4187792344651058
  0
ARC
  5
3C3A5
  8
0
 10
2952.6459058808909504
 20
218.9636455495480902
 30
0.0
 40
0.1303149598000015
 50
94.3316008251280067
 51
85.6683985553096932
  0
ARC
  5
3C3A6
  8
0
 10
2952.6459058808909504
 20
218.9636455495480902
 30
0.0
 40
0.1374015739000016
 50
94.1078004187711485
 51
85.8921989937925332
  0
ARC
  5
3C3A7
  8
0
 10
2952.6459058808909504
 20
218.9636455495480902
 30
0.0
 40
0.1444881880000017
 50
93.9060071139525832
 51
86.0939923275617645
  0
ARC
  5
3C3A8
  8
0
 10
2952.6459058808909504
 20
218.9636455495480902
 30
0.0
 40
0.1515748021000018
 50
93.7231247837657548
 51
86.2768746839776384
  0
ARC
  5
3C3A9
  8
0
 10
2952.6459058808909504
 20
218.9636455495480902
 30
0.0
 40
0.158661416200002
 50
93.5566124259243423
 51
86.443387065699369
  0
ARC
  5
3C3AA
  8
0
 10
2952.6459058808909504
 20
218.9636455495480902
 30
0.0
 40
0.1657480303000021
 50
93.4043650148604456
 51
86.5956344985616937
  0
ARC
  5
3C3AB
  8
0
 10
2952.6459058808909504
 20
218.9636455495480902
 30
0.0
 40
0.1728346444000022
 50
93.2646237944545931
 51
86.7353757389751365
  0
ARC
  5
3C3AC
  8
0
 10
2952.6459058808909504
 20
218.9636455495480902
 30
0.0
 40
0.1799212585000023
 50
93.1359078559826656
 51
86.8640916958759561
  0
ARC
  5
3C3AD
  8
0
 10
2952.6459058808909504
 20
218.9636455495480902
 30
0.0
 40
0.1870078726000024
 50
93.0169613304624221
 51
86.9830382384316039
  0
ARC
  5
3C3AE
  8
0
 10
2952.6459058808909504
 20
218.9636455495480902
 30
0.0
 40
0.1940944867000025
 50
92.906712188979597
 51
87.0932873956887619
  0
ARC
  5
3C3AF
  8
0
 10
2952.6459058808909504
 20
218.9636455495480902
 30
0.0
 40
0.2011811008000026
 50
92.8042397780428843
 51
87.1957598212970026
  0
ARC
  5
3C3B0
  8
0
 10
2952.6459058808909504
 20
218.9636455495480902
 30
0.0
 40
0.2082677149000027
 50
92.7087490023736649
 51
87.291250610640418
  0
ARC
  5
3C3B1
  8
0
 10
2952.6459058808909504
 20
218.9636455495480902
 30
0.0
 40
0.2153543290000028
 50
92.6195496188522611
 51
87.3804500069180534
  0
ARC
  5
3C3B2
  8
0
 10
2952.6459058808909504
 20
218.9636455495480902
 30
0.0
 40
0.2224409431000029
 50
92.536039498758484
 51
87.4639601389552297
  0
ARC
  5
3C3B3
  8
0
 10
2952.6459058808909504
 20
218.9636455495480902
 30
0.0
 40
0.2295275572000031
 50
92.4576909977608494
 51
87.5423086511884918
  0
ARC
  5
3C3B4
  8
0
 10
2952.6459058808909504
 20
218.9636455495480902
 30
0.0
 40
0.2366141713000032
 50
92.3840397809333638
 51
87.6159598785182538
  0
ARC
  5
3C3B5
  8
0
 10
2952.6459058808909504
 20
218.9636455495480902
 30
0.0
 40
0.2437007854000033
 50
92.3146756015758569
 51
87.6853240678017158
  0
ARC
  5
3C3B6
  8
0
 10
2952.6459058808909504
 20
218.9636455495480902
 30
0.0
 40
0.2507873995000034
 50
92.2492346464127735
 51
87.7507650323147601
  0
ARC
  5
3C3B7
  8
0
 10
2952.6459058808909504
 20
218.9636455495480902
 30
0.0
 40
0.2578740136000035
 50
92.1873931454547062
 51
87.8126065421253656
  0
ARC
  5
3C3B8
  8
0
 10
2952.6459058808909504
 20
218.9636455495480902
 30
0.0
 40
0.2720472440999999
 50
92.0733822870997471
 51
87.9266174167985639
  0
ARC
  5
3C3B9
  8
0
 10
2952.6459058808909504
 20
218.9636455495480902
 30
0.0
 40
0.2909448818999999
 50
91.9386574306741835
 51
88.0613422924620863
  0
ARC
  5
3C3BA
  8
0
 10
2952.6459058808909504
 20
218.9636455495480902
 30
0.0
 40
0.3098425197000001
 50
91.8203754752595245
 51
88.1796242647877904
  0
ARC
  5
3C3BB
  8
0
 10
2952.6459058808909504
 20
218.9636455495480902
 30
0.0
 40
0.3287401575
 50
91.7156988926561496
 51
88.2843008623420786
  0
ARC
  5
3C3BC
  8
0
 10
2952.6459058808909504
 20
218.9636455495480902
 30
0.0
 40
0.3476377953
 50
91.622407614999716
 51
88.377592153329644
  0
ARC
  5
3C3BD
  8
0
 10
2952.6459058808909504
 20
218.9636455495480902
 30
0.0
 40
0.3665354331
 50
91.538739727822275
 51
88.4612600524539801
  0
ARC
  5
3C3BE
  8
0
 10
2952.6459058808909504
 20
218.9636455495480902
 30
0.0
 40
0.3854330709
 50
91.4632790703882961
 51
88.5367207206598152
  0
ARC
  5
3C3BF
  8
0
 10
2952.6459058808909504
 20
218.9636455495480902
 30
0.0
 40
0.7122040409000001
 50
90.7918416032205755
 51
89.2081582837415965
  0
ARC
  5
3C3C0
  8
0
 10
2952.6459058808909504
 20
218.9636455495480902
 30
0.0
 40
0.4043307087
 50
91.3948743815783331
 51
88.6051254192495747
  0
ARC
  5
3C3C1
  8
0
 10
2952.6459058808909504
 20
218.9636455495480902
 30
0.0
 40
0.4303149606000001
 50
91.3106307529978807
 51
88.6893690598514439
  0
ARC
  5
3C3C2
  8
0
 10
2952.6459058808909504
 20
218.9636455495480902
 30
0.0
 40
0.4421259843000002
 50
91.2756124896388172
 51
88.7243873282169062
  0
ARC
  5
3C3C3
  8
0
 10
2952.6459058808909504
 20
218.9636455495480902
 30
0.0
 40
0.4610236219999999
 50
91.2233162437770488
 51
88.7766835815618123
  0
ARC
  5
3C3C4
  8
0
 10
2952.6459058808909504
 20
218.9636455495480902
 30
0.0
 40
0.4799212598000001
 50
91.1751393909408563
 51
88.8248604412810892
  0
ARC
  5
3C3C5
  8
0
 10
2952.6459058808909504
 20
218.9636455495480902
 30
0.0
 40
0.4988188976
 50
91.1306136154406516
 51
88.8693862231165781
  0
ARC
  5
3C3C6
  8
0
 10
2952.6459058808909504
 20
218.9636455495480902
 30
0.0
 40
0.5177165354
 50
91.0893390013839905
 51
88.910660843091037
  0
ARC
  5
3C3C7
  8
0
 10
2952.6459058808909504
 20
218.9636455495480902
 30
0.0
 40
0.5366141732000002
 50
91.0509719842839331
 51
88.949027865665542
  0
ARC
  5
3C3C8
  8
0
 10
2952.6459058808909504
 20
218.9636455495480902
 30
0.0
 40
0.5543307086999999
 50
91.0173790917246777
 51
88.9826207630212451
  0
ARC
  5
3C3C9
  8
0
 10
2952.6459058808909504
 20
218.9636455495480902
 30
0.0
 40
0.5728346457000001
 50
90.9845120109924039
 51
89.0154878484456162
  0
ARC
  5
3C3CA
  8
0
 10
2952.6459058808909504
 20
218.9636455495480902
 30
0.0
 40
0.5921259842999999
 50
90.9524338146060671
 51
89.0475660494196291
  0
ARC
  5
3C3CB
  8
0
 10
2952.6459058808909504
 20
218.9636455495480902
 30
0.0
 40
0.6110236220000002
 50
90.9229745099159885
 51
89.077025358332321
  0
ARC
  5
3C3CC
  8
0
 10
2952.6459058808909504
 20
218.9636455495480902
 30
0.0
 40
0.6299212598000001
 50
90.8952829859707947
 51
89.1047168862133248
  0
ARC
  5
3C3CD
  8
0
 10
2952.6459058808909504
 20
218.9636455495480902
 30
0.0
 40
0.6484251969000003
 50
90.8697325425907962
 51
89.1302673332423154
  0
ARC
  5
3C3CE
  8
0
 10
2952.6459058808909504
 20
218.9636455495480902
 30
0.0
 40
0.6673228345999997
 50
90.8451011362685108
 51
89.1548987430571742
  0
ARC
  5
3C3CF
  8
0
 10
2952.6459058808909504
 20
218.9636455495480902
 30
0.0
 40
0.6870078739999999
 50
90.82088452254456
 51
89.1791153602475646
  0
ARC
  5
3C3D0
  8
0
 10
2952.6459058808909504
 20
218.9636455495480902
 30
0.0
 40
0.7051181102000001
 50
90.799799557077236
 51
89.2002003287381768
  0
ARC
  5
3C3D1
  8
0
 10
2952.6459058808909504
 20
218.9636455495480902
 30
0.0
 40
0.4232283464999999
 50
91.3325801231714536
 51
88.6674196865487971
  0
CIRCLE
  5
3C3D2
  8
0
 10
2950.7561458808909265
 20
218.9636455495480902
 30
0.0
 40
0.7283411763130668
  0
CIRCLE
  5
3C3D3
  8
0
 10
2950.7561458808909265
 20
218.9636455495480902
 30
0.0
 40
0.7440929403776771
  0
LINE
  5
3C3D4
  8
0
 10
2950.4018227312899398
 20
218.3272997514393978
 30
0.0
 11
2950.4018227312899398
 21
218.3093295635158029
 31
0.0
  0
LINE
  5
3C3D5
  8
0
 10
2950.2893073177460792
 20
218.4045904314482129
 30
0.0
 11
2950.2650942758159545
 21
218.4045904314482129
 31
0.0
  0
LINE
  5
3C3D6
  8
0
 10
2950.5946444928567871
 20
219.6900005630114094
 30
0.0
 11
2950.5954806817139797
 21
219.6740451292824901
 31
0.0
  0
ARC
  5
3C3D7
  8
0
 10
2950.5798693107208237
 20
219.657995963188597
 30
0.0
 40
0.0186575255429824
 50
53.560201398012758
 51
103.0382677404497969
  0
ARC
  5
3C3D8
  8
0
 10
2950.6980004514957727
 20
219.1478684675817874
 30
0.0
 40
0.5422843279461715
 50
103.0382677404497969
 51
112.0000461116649006
  0
ARC
  5
3C3D9
  8
0
 10
2950.5032381440910285
 20
219.6299209772120946
 30
0.0
 40
0.0223737794604929
 50
112.0000461116363937
 51
156.9586860260160108
  0
ARC
  5
3C3DA
  8
0
 10
2950.4546485480350384
 20
219.5632751590462135
 30
0.0
 40
0.0755403303738664
 50
73.8257687390369455
 51
100.7764096939417016
  0
LINE
  5
3C3DB
  8
0
 10
2950.0875641954921775
 20
219.2902536233447108
 30
0.0
 11
2950.1005600111220701
 21
219.2809593319043131
 31
0.0
  0
ARC
  5
3C3DC
  8
0
 10
2950.1033742238341802
 20
219.2587473791894865
 30
0.0
 40
0.0186575255429824
 50
104.9887728265872937
 51
154.4668391690406111
  0
ARC
  5
3C3DD
  8
0
 10
2950.5758615215281679
 20
219.0330467329488897
 30
0.0
 40
0.5422843279461715
 50
154.4668391690406111
 51
163.4286175402122012
  0
ARC
  5
3C3DE
  8
0
 10
2950.0775453808419115
 20
219.1813302531363092
 30
0.0
 40
0.0223737794604929
 50
163.4286175402122012
 51
208.387257454604395
  0
ARC
  5
3C3DF
  8
0
 10
2950.0993560620418066
 20
219.1017883892563134
 30
0.0
 40
0.0755403303738664
 50
125.2543401676254007
 51
152.2049811225116116
  0
LINE
  5
3C3E0
  8
0
 10
2950.0839395438129031
 20
218.6445641425185897
 30
0.0
 11
2950.0993088719801563
 21
218.6489297843903046
 31
0.0
  0
ARC
  5
3C3E1
  8
0
 10
2950.1184295088260114
 20
218.6372810984900923
 30
0.0
 40
0.0186575255429824
 50
156.4173442551575874
 51
205.8954105976166034
  0
ARC
  5
3C3E2
  8
0
 10
2950.5894803912901807
 20
218.8659644916891125
 30
0.0
 40
0.5422843279461715
 50
205.8954105976166034
 51
214.8571889687983969
  0
ARC
  5
3C3E3
  8
0
 10
2950.1628526350568791
 20
218.568818507299909
 30
0.0
 40
0.0223737794604929
 50
214.8571889687983969
 51
259.8158288831651248
  0
ARC
  5
3C3E4
  8
0
 10
2950.238639705712103
 20
218.5362772435657917
 30
0.0
 40
0.0755403303738664
 50
176.6829115961872105
 51
203.6335525511009905
  0
LINE
  5
3C3E5
  8
0
 10
2950.586499974463095
 20
218.2391494692602976
 30
0.0
 11
2950.5926693975811759
 21
218.2538876270718902
 31
0.0
  0
ARC
  5
3C3E6
  8
0
 10
2950.6136982290249762
 20
218.2615739060589988
 30
0.0
 40
0.0186575255429824
 50
207.8459156837172941
 51
257.3239820261802038
  0
ARC
  5
3C3E7
  8
0
 10
2950.7286017740771058
 20
218.7724380793277135
 30
0.0
 40
0.5422843279461713
 50
257.3239820261802038
 51
266.2857603973624236
  0
ARC
  5
3C3E8
  8
0
 10
2950.6949218043610017
 20
218.2536195772804035
 30
0.0
 40
0.0223737794604929
 50
266.2857603973624236
 51
311.2444003117361149
  0
ARC
  5
3C3E9
  8
0
 10
2950.7676160544938284
 20
218.2925831490047131
 30
0.0
 40
0.0755403303738664
 50
228.1114830247707914
 51
255.0621239796709006
  0
LINE
  5
3C3EA
  8
0
 10
2951.2168072327999653
 20
218.3792951214855123
 30
0.0
 11
2951.2091310494261052
 21
218.3933076618012024
 31
0.0
  0
ARC
  5
3C3EB
  8
0
 10
2951.2162329364819016
 20
218.4145409808268141
 30
0.0
 40
0.0186575255429824
 50
259.2744871123092025
 51
308.7525534547430084
  0
ARC
  5
3C3EC
  8
0
 10
2950.8884644310928707
 20
218.8228947919637903
 30
0.0
 40
0.5422843279461715
 50
308.7525534547430084
 51
317.7143318259326747
  0
ARC
  5
3C3ED
  8
0
 10
2951.2730939520351967
 20
218.4730846862688054
 30
0.0
 40
0.0223737794604929
 50
317.7143318259326747
 51
2.672971740312565
  0
ARC
  5
3C3EE
  8
0
 10
2951.2879551286041533
 20
218.5542127292312102
 30
0.0
 40
0.0755403303738664
 50
279.5400544533316065
 51
306.4906954082405832
  0
LINE
  5
3C3EF
  8
0
 10
2951.5002270973691338
 20
218.9594685646183052
 30
0.0
 11
2951.4844856301510845
 21
218.9622037587766954
 31
0.0
  0
ARC
  5
3C3F0
  8
0
 10
2951.4723127070119517
 20
218.9809949955337061
 30
0.0
 40
0.0186575255429824
 50
310.7030585408813863
 51
0.1811248833185364
  0
ARC
  5
3C3F1
  8
0
 10
2950.948688520998985
 20
218.9793396958532128
 30
0.0
 40
0.5422843279461713
 50
0.1811248833185364
 51
9.1429032545122002
  0
ARC
  5
3C3F2
  8
0
 10
2951.4619936583180788
 20
219.0619521309245101
 30
0.0
 40
0.0223737794604929
 50
9.1429032545122002
 51
54.1015431688873178
  0
ARC
  5
3C3F3
  8
0
 10
2951.4078309922529115
 20
219.1241535740637971
 30
0.0
 40
0.0755403303738664
 50
330.9686258819124873
 51
357.9192668368045247
  0
LINE
  5
3C3F4
  8
0
 10
2951.2233386294401498
 20
219.5427873625982045
 30
0.0
 11
2951.2113855242591853
 21
219.5321855536101907
 31
0.0
  0
ARC
  5
3C3F5
  8
0
 10
2951.1891042503320932
 20
219.5343845235491926
 30
0.0
 40
0.0186575255429824
 50
2.1316299694397491
 51
51.6096963118851519
  0
ARC
  5
3C3F6
  8
0
 10
2950.8639240757488551
 20
219.1239665874726086
 30
0.0
 40
0.5422843279461713
 50
51.6096963118851519
 51
60.5714746830684305
  0
ARC
  5
3C3F7
  8
0
 10
2951.1193755915278416
 20
219.5767927147149976
 30
0.0
 40
0.0223737794604929
 50
60.5714746830684305
 51
105.5301145974527941
  0
ARC
  5
3C3F8
  8
0
 10
2951.0369746750930062
 20
219.5732286026691042
 30
0.0
 40
0.0755403303738664
 50
22.3971973104838717
 51
49.347838265359627
  0
LINE
  5
3C3F9
  8
0
 10
2950.7463033612129948
 20
219.0017654643334026
 30
0.0
 11
2950.7463033612129948
 21
219.6919202188313136
 31
0.0
  0
LINE
  5
3C3FA
  8
0
 10
2950.765988401973118
 20
219.0017654639705995
 30
0.0
 11
2950.765988401973118
 21
219.6919202188122995
 31
0.0
  0
ARC
  5
3C3FB
  8
0
 10
2950.7561458808909265
 20
218.9636455495480902
 30
0.0
 40
0.0393700786999999
 50
104.4775121902354016
 51
75.5224856978186239
  0
ARC
  5
3C3FC
  8
0
 10
2950.7561458808909265
 20
218.9636455495480902
 30
0.0
 40
0.0452755906000002
 50
102.5558577755053022
 51
77.4441404027440541
  0
ARC
  5
3C3FD
  8
0
 10
2950.7561458808909265
 20
218.9636455495480902
 30
0.0
 40
0.0523622047000003
 50
100.8343349754694032
 51
79.1656634591148674
  0
ARC
  5
3C3FE
  8
0
 10
2950.7561458808909265
 20
218.9636455495480902
 30
0.0
 40
0.0594488188000004
 50
99.5299368428314324
 51
80.470061783977286
  0
ARC
  5
3C3FF
  8
0
 10
2950.7561458808909265
 20
218.9636455495480902
 30
0.0
 40
0.0665354329000005
 50
98.5069277716270619
 51
81.4930710049396367
  0
ARC
  5
3C400
  8
0
 10
2950.7561458808909265
 20
218.9636455495480902
 30
0.0
 40
0.0736220470000006
 50
97.6828665072427924
 51
82.3171323893191129
  0
ARC
  5
3C401
  8
0
 10
2950.7561458808909265
 20
218.9636455495480902
 30
0.0
 40
0.0807086611000008
 50
97.0047264316195168
 51
82.995272563385555
  0
ARC
  5
3C402
  8
0
 10
2950.7561458808909265
 20
218.9636455495480902
 30
0.0
 40
0.0877952752000009
 50
96.4368251479881593
 51
83.5631739292113878
  0
ARC
  5
3C403
  8
0
 10
2950.7561458808909265
 20
218.9636455495480902
 30
0.0
 40
0.094881889300001
 50
95.9542571528504453
 51
84.0457419940364758
  0
ARC
  5
3C404
  8
0
 10
2950.7561458808909265
 20
218.9636455495480902
 30
0.0
 40
0.1019685034000011
 50
95.539104882584013
 51
84.4608943241902921
  0
ARC
  5
3C405
  8
0
 10
2950.7561458808909265
 20
218.9636455495480902
 30
0.0
 40
0.1090551175000012
 50
95.178145359718286
 51
84.8218538990112449
  0
ARC
  5
3C406
  8
0
 10
2950.7561458808909265
 20
218.9636455495480902
 30
0.0
 40
0.1161417316000013
 50
94.8614054209304385
 51
85.1385938833968936
  0
ARC
  5
3C407
  8
0
 10
2950.7561458808909265
 20
218.9636455495480902
 30
0.0
 40
0.1232283457000014
 50
94.5812201101090722
 51
85.4187792344651058
  0
ARC
  5
3C408
  8
0
 10
2950.7561458808909265
 20
218.9636455495480902
 30
0.0
 40
0.1303149598000015
 50
94.3316008251280067
 51
85.6683985553096932
  0
ARC
  5
3C409
  8
0
 10
2950.7561458808909265
 20
218.9636455495480902
 30
0.0
 40
0.1374015739000016
 50
94.1078004187711485
 51
85.8921989937925332
  0
ARC
  5
3C40A
  8
0
 10
2950.7561458808909265
 20
218.9636455495480902
 30
0.0
 40
0.1444881880000017
 50
93.9060071139525832
 51
86.0939923275617645
  0
ARC
  5
3C40B
  8
0
 10
2950.7561458808909265
 20
218.9636455495480902
 30
0.0
 40
0.1515748021000018
 50
93.7231247837657548
 51
86.2768746839776384
  0
ARC
  5
3C40C
  8
0
 10
2950.7561458808909265
 20
218.9636455495480902
 30
0.0
 40
0.158661416200002
 50
93.5566124259243423
 51
86.443387065699369
  0
ARC
  5
3C40D
  8
0
 10
2950.7561458808909265
 20
218.9636455495480902
 30
0.0
 40
0.1657480303000021
 50
93.4043650148604456
 51
86.5956344985616937
  0
ARC
  5
3C40E
  8
0
 10
2950.7561458808909265
 20
218.9636455495480902
 30
0.0
 40
0.1728346444000022
 50
93.2646237944545931
 51
86.7353757389751365
  0
ARC
  5
3C40F
  8
0
 10
2950.7561458808909265
 20
218.9636455495480902
 30
0.0
 40
0.1799212585000023
 50
93.1359078559826656
 51
86.8640916958759561
  0
ARC
  5
3C410
  8
0
 10
2950.7561458808909265
 20
218.9636455495480902
 30
0.0
 40
0.1870078726000024
 50
93.0169613304624221
 51
86.9830382384316039
  0
ARC
  5
3C411
  8
0
 10
2950.7561458808909265
 20
218.9636455495480902
 30
0.0
 40
0.1940944867000025
 50
92.906712188979597
 51
87.0932873956887619
  0
ARC
  5
3C412
  8
0
 10
2950.7561458808909265
 20
218.9636455495480902
 30
0.0
 40
0.2011811008000026
 50
92.8042397780428843
 51
87.1957598212970026
  0
ARC
  5
3C413
  8
0
 10
2950.7561458808909265
 20
218.9636455495480902
 30
0.0
 40
0.2082677149000027
 50
92.7087490023736649
 51
87.291250610640418
  0
ARC
  5
3C414
  8
0
 10
2950.7561458808909265
 20
218.9636455495480902
 30
0.0
 40
0.2153543290000028
 50
92.6195496188522611
 51
87.3804500069180534
  0
ARC
  5
3C415
  8
0
 10
2950.7561458808909265
 20
218.9636455495480902
 30
0.0
 40
0.2224409431000029
 50
92.536039498758484
 51
87.4639601389552297
  0
ARC
  5
3C416
  8
0
 10
2950.7561458808909265
 20
218.9636455495480902
 30
0.0
 40
0.2295275572000031
 50
92.4576909977608494
 51
87.5423086511884918
  0
ARC
  5
3C417
  8
0
 10
2950.7561458808909265
 20
218.9636455495480902
 30
0.0
 40
0.2366141713000032
 50
92.3840397809333638
 51
87.6159598785182538
  0
ARC
  5
3C418
  8
0
 10
2950.7561458808909265
 20
218.9636455495480902
 30
0.0
 40
0.2437007854000033
 50
92.3146756015758569
 51
87.6853240678017158
  0
ARC
  5
3C419
  8
0
 10
2950.7561458808909265
 20
218.9636455495480902
 30
0.0
 40
0.2507873995000034
 50
92.2492346464127735
 51
87.7507650323147601
  0
ARC
  5
3C41A
  8
0
 10
2950.7561458808909265
 20
218.9636455495480902
 30
0.0
 40
0.2578740136000035
 50
92.1873931454547062
 51
87.8126065421253656
  0
ARC
  5
3C41B
  8
0
 10
2950.7561458808909265
 20
218.9636455495480902
 30
0.0
 40
0.2720472440999999
 50
92.0733822870997471
 51
87.9266174167985639
  0
ARC
  5
3C41C
  8
0
 10
2950.7561458808909265
 20
218.9636455495480902
 30
0.0
 40
0.2909448818999999
 50
91.9386574306741835
 51
88.0613422924620863
  0
ARC
  5
3C41D
  8
0
 10
2950.7561458808909265
 20
218.9636455495480902
 30
0.0
 40
0.3098425197000001
 50
91.8203754752595245
 51
88.1796242647877904
  0
ARC
  5
3C41E
  8
0
 10
2950.7561458808909265
 20
218.9636455495480902
 30
0.0
 40
0.3287401575
 50
91.7156988926561496
 51
88.2843008623420786
  0
ARC
  5
3C41F
  8
0
 10
2950.7561458808909265
 20
218.9636455495480902
 30
0.0
 40
0.3476377953
 50
91.622407614999716
 51
88.377592153329644
  0
ARC
  5
3C420
  8
0
 10
2950.7561458808909265
 20
218.9636455495480902
 30
0.0
 40
0.3665354331
 50
91.538739727822275
 51
88.4612600524539801
  0
ARC
  5
3C421
  8
0
 10
2950.7561458808909265
 20
218.9636455495480902
 30
0.0
 40
0.3854330709
 50
91.4632790703882961
 51
88.5367207206598152
  0
ARC
  5
3C422
  8
0
 10
2950.7561458808909265
 20
218.9636455495480902
 30
0.0
 40
0.7122040409000001
 50
90.7918416032205755
 51
89.2081582837415965
  0
ARC
  5
3C423
  8
0
 10
2950.7561458808909265
 20
218.9636455495480902
 30
0.0
 40
0.4043307087
 50
91.3948743815783331
 51
88.6051254192495747
  0
ARC
  5
3C424
  8
0
 10
2950.7561458808909265
 20
218.9636455495480902
 30
0.0
 40
0.4303149606000001
 50
91.3106307529978807
 51
88.6893690598514439
  0
ARC
  5
3C425
  8
0
 10
2950.7561458808909265
 20
218.9636455495480902
 30
0.0
 40
0.4421259843000002
 50
91.2756124896388172
 51
88.7243873282169062
  0
ARC
  5
3C426
  8
0
 10
2950.7561458808909265
 20
218.9636455495480902
 30
0.0
 40
0.4610236219999999
 50
91.2233162437770488
 51
88.7766835815618123
  0
ARC
  5
3C427
  8
0
 10
2950.7561458808909265
 20
218.9636455495480902
 30
0.0
 40
0.4799212598000001
 50
91.1751393909408563
 51
88.8248604412810892
  0
ARC
  5
3C428
  8
0
 10
2950.7561458808909265
 20
218.9636455495480902
 30
0.0
 40
0.4988188976
 50
91.1306136154406516
 51
88.8693862231165781
  0
ARC
  5
3C429
  8
0
 10
2950.7561458808909265
 20
218.9636455495480902
 30
0.0
 40
0.5177165354
 50
91.0893390013839905
 51
88.910660843091037
  0
ARC
  5
3C42A
  8
0
 10
2950.7561458808909265
 20
218.9636455495480902
 30
0.0
 40
0.5366141732000002
 50
91.0509719842839331
 51
88.949027865665542
  0
ARC
  5
3C42B
  8
0
 10
2950.7561458808909265
 20
218.9636455495480902
 30
0.0
 40
0.5543307086999999
 50
91.0173790917246777
 51
88.9826207630212451
  0
ARC
  5
3C42C
  8
0
 10
2950.7561458808909265
 20
218.9636455495480902
 30
0.0
 40
0.5728346457000001
 50
90.9845120109924039
 51
89.0154878484456162
  0
ARC
  5
3C42D
  8
0
 10
2950.7561458808909265
 20
218.9636455495480902
 30
0.0
 40
0.5921259842999999
 50
90.9524338146060671
 51
89.0475660494196291
  0
ARC
  5
3C42E
  8
0
 10
2950.7561458808909265
 20
218.9636455495480902
 30
0.0
 40
0.6110236220000002
 50
90.9229745099159885
 51
89.077025358332321
  0
ARC
  5
3C42F
  8
0
 10
2950.7561458808909265
 20
218.9636455495480902
 30
0.0
 40
0.6299212598000001
 50
90.8952829859707947
 51
89.1047168862133248
  0
ARC
  5
3C430
  8
0
 10
2950.7561458808909265
 20
218.9636455495480902
 30
0.0
 40
0.6484251969000003
 50
90.8697325425907962
 51
89.1302673332423154
  0
ARC
  5
3C431
  8
0
 10
2950.7561458808909265
 20
218.9636455495480902
 30
0.0
 40
0.6673228345999997
 50
90.8451011362685108
 51
89.1548987430571742
  0
ARC
  5
3C432
  8
0
 10
2950.7561458808909265
 20
218.9636455495480902
 30
0.0
 40
0.6870078739999999
 50
90.82088452254456
 51
89.1791153602475646
  0
ARC
  5
3C433
  8
0
 10
2950.7561458808909265
 20
218.9636455495480902
 30
0.0
 40
0.7051181102000001
 50
90.799799557077236
 51
89.2002003287381768
  0
ARC
  5
3C434
  8
0
 10
2950.7561458808909265
 20
218.9636455495480902
 30
0.0
 40
0.4232283464999999
 50
91.3325801231714536
 51
88.6674196865487971
  0
CIRCLE
  5
3C435
  8
0
 10
2948.8663858808899931
 20
218.9636455495480902
 30
0.0
 40
0.7283411763130668
  0
CIRCLE
  5
3C436
  8
0
 10
2948.8663858808899931
 20
218.9636455495480902
 30
0.0
 40
0.7440929403776771
  0
LINE
  5
3C437
  8
0
 10
2948.5120627312908255
 20
218.3272997514393978
 30
0.0
 11
2948.5120627312908255
 21
218.3093295635158029
 31
0.0
  0
LINE
  5
3C438
  8
0
 10
2948.3995473177451458
 20
218.4045904314482129
 30
0.0
 11
2948.3753342758159306
 21
218.4045904314482129
 31
0.0
  0
LINE
  5
3C439
  8
0
 10
2948.704884492857218
 20
219.6900005630114094
 30
0.0
 11
2948.7057206817139559
 21
219.6740451292824901
 31
0.0
  0
ARC
  5
3C43A
  8
0
 10
2948.6901093107207998
 20
219.657995963188597
 30
0.0
 40
0.0186575255429824
 50
53.560201398012758
 51
103.0382677404497969
  0
ARC
  5
3C43B
  8
0
 10
2948.8082404514962036
 20
219.1478684675817874
 30
0.0
 40
0.5422843279461715
 50
103.0382677404497969
 51
112.0000461116649006
  0
ARC
  5
3C43C
  8
0
 10
2948.6134781440910047
 20
219.6299209772120946
 30
0.0
 40
0.0223737794604929
 50
112.0000461116363937
 51
156.9586860260160108
  0
ARC
  5
3C43D
  8
0
 10
2948.5648885480350145
 20
219.5632751590462135
 30
0.0
 40
0.0755403303738664
 50
73.8257687390369455
 51
100.7764096939417016
  0
LINE
  5
3C43E
  8
0
 10
2948.1978041954907894
 20
219.2902536233447108
 30
0.0
 11
2948.2108000111220463
 21
219.2809593319043131
 31
0.0
  0
ARC
  5
3C43F
  8
0
 10
2948.2136142238341563
 20
219.2587473791894865
 30
0.0
 40
0.0186575255429824
 50
104.9887728265872937
 51
154.4668391690406111
  0
ARC
  5
3C440
  8
0
 10
2948.6861015215281441
 20
219.0330467329488897
 30
0.0
 40
0.5422843279461715
 50
154.4668391690406111
 51
163.4286175402122012
  0
ARC
  5
3C441
  8
0
 10
2948.1877853808418877
 20
219.1813302531363092
 30
0.0
 40
0.0223737794604929
 50
163.4286175402122012
 51
208.387257454604395
  0
ARC
  5
3C442
  8
0
 10
2948.2095960620417827
 20
219.1017883892563134
 30
0.0
 40
0.0755403303738664
 50
125.2543401676254007
 51
152.2049811225116116
  0
LINE
  5
3C443
  8
0
 10
2948.1941795438128793
 20
218.6445641425185897
 30
0.0
 11
2948.2095488719810419
 21
218.6489297843903046
 31
0.0
  0
ARC
  5
3C444
  8
0
 10
2948.2286695088259876
 20
218.6372810984900923
 30
0.0
 40
0.0186575255429824
 50
156.4173442551575874
 51
205.8954105976166034
  0
ARC
  5
3C445
  8
0
 10
2948.6997203912901568
 20
218.8659644916891125
 30
0.0
 40
0.5422843279461715
 50
205.8954105976166034
 51
214.8571889687983969
  0
ARC
  5
3C446
  8
0
 10
2948.2730926350568552
 20
218.568818507299909
 30
0.0
 40
0.0223737794604929
 50
214.8571889687983969
 51
259.8158288831651248
  0
ARC
  5
3C447
  8
0
 10
2948.3488797057129887
 20
218.5362772435657917
 30
0.0
 40
0.0755403303738664
 50
176.6829115961872105
 51
203.6335525511009905
  0
LINE
  5
3C448
  8
0
 10
2948.6967399744630711
 20
218.2391494692602976
 30
0.0
 11
2948.702909397581152
 21
218.2538876270718902
 31
0.0
  0
ARC
  5
3C449
  8
0
 10
2948.7239382290258618
 20
218.2615739060589988
 30
0.0
 40
0.0186575255429824
 50
207.8459156837172941
 51
257.3239820261802038
  0
ARC
  5
3C44A
  8
0
 10
2948.8388417740779914
 20
218.7724380793277135
 30
0.0
 40
0.5422843279461713
 50
257.3239820261802038
 51
266.2857603973624236
  0
ARC
  5
3C44B
  8
0
 10
2948.8051618043609778
 20
218.2536195772804035
 30
0.0
 40
0.0223737794604929
 50
266.2857603973624236
 51
311.2444003117361149
  0
ARC
  5
3C44C
  8
0
 10
2948.8778560544938045
 20
218.2925831490047131
 30
0.0
 40
0.0755403303738664
 50
228.1114830247707914
 51
255.0621239796709006
  0
LINE
  5
3C44D
  8
0
 10
2949.3270472327999414
 20
218.3792951214855123
 30
0.0
 11
2949.3193710494260813
 21
218.3933076618012024
 31
0.0
  0
ARC
  5
3C44E
  8
0
 10
2949.3264729364818777
 20
218.4145409808268141
 30
0.0
 40
0.0186575255429824
 50
259.2744871123092025
 51
308.7525534547430084
  0
ARC
  5
3C44F
  8
0
 10
2948.9987044310928468
 20
218.8228947919637903
 30
0.0
 40
0.5422843279461715
 50
308.7525534547430084
 51
317.7143318259326747
  0
ARC
  5
3C450
  8
0
 10
2949.3833339520351728
 20
218.4730846862688054
 30
0.0
 40
0.0223737794604929
 50
317.7143318259326747
 51
2.672971740312565
  0
ARC
  5
3C451
  8
0
 10
2949.3981951286032199
 20
218.5542127292312102
 30
0.0
 40
0.0755403303738664
 50
279.5400544533316065
 51
306.4906954082405832
  0
LINE
  5
3C452
  8
0
 10
2949.6104670973700195
 20
218.9594685646183052
 30
0.0
 11
2949.5947256301510606
 21
218.9622037587766954
 31
0.0
  0
ARC
  5
3C453
  8
0
 10
2949.5825527070119279
 20
218.9809949955337061
 30
0.0
 40
0.0186575255429824
 50
310.7030585408813863
 51
0.1811248833185364
  0
ARC
  5
3C454
  8
0
 10
2949.0589285209989612
 20
218.9793396958532128
 30
0.0
 40
0.5422843279461713
 50
0.1811248833185364
 51
9.1429032545122002
  0
ARC
  5
3C455
  8
0
 10
2949.5722336583180549
 20
219.0619521309245101
 30
0.0
 40
0.0223737794604929
 50
9.1429032545122002
 51
54.1015431688873178
  0
ARC
  5
3C456
  8
0
 10
2949.5180709922528877
 20
219.1241535740637971
 30
0.0
 40
0.0755403303738664
 50
330.9686258819124873
 51
357.9192668368045247
  0
LINE
  5
3C457
  8
0
 10
2949.333578629440126
 20
219.5427873625982045
 30
0.0
 11
2949.3216255242591615
 21
219.5321855536101907
 31
0.0
  0
ARC
  5
3C458
  8
0
 10
2949.2993442503320694
 20
219.5343845235491926
 30
0.0
 40
0.0186575255429824
 50
2.1316299694397491
 51
51.6096963118851519
  0
ARC
  5
3C459
  8
0
 10
2948.9741640757501955
 20
219.1239665874726086
 30
0.0
 40
0.5422843279461713
 50
51.6096963118851519
 51
60.5714746830684305
  0
ARC
  5
3C45A
  8
0
 10
2949.2296155915269082
 20
219.5767927147149976
 30
0.0
 40
0.0223737794604929
 50
60.5714746830684305
 51
105.5301145974527941
  0
ARC
  5
3C45B
  8
0
 10
2949.1472146750929824
 20
219.5732286026691042
 30
0.0
 40
0.0755403303738664
 50
22.3971973104838717
 51
49.347838265359627
  0
LINE
  5
3C45C
  8
0
 10
2948.8565433612129709
 20
219.0017654643334026
 30
0.0
 11
2948.8565433612129709
 21
219.6919202188313136
 31
0.0
  0
LINE
  5
3C45D
  8
0
 10
2948.8762284019730942
 20
219.0017654639705995
 30
0.0
 11
2948.8762284019730942
 21
219.6919202188122995
 31
0.0
  0
ARC
  5
3C45E
  8
0
 10
2948.8663858808899931
 20
218.9636455495480902
 30
0.0
 40
0.0393700786999999
 50
104.4775121902354016
 51
75.5224856978186239
  0
ARC
  5
3C45F
  8
0
 10
2948.8663858808899931
 20
218.9636455495480902
 30
0.0
 40
0.0452755906000002
 50
102.5558577755053022
 51
77.4441404027440541
  0
ARC
  5
3C460
  8
0
 10
2948.8663858808899931
 20
218.9636455495480902
 30
0.0
 40
0.0523622047000003
 50
100.8343349754694032
 51
79.1656634591148674
  0
ARC
  5
3C461
  8
0
 10
2948.8663858808899931
 20
218.9636455495480902
 30
0.0
 40
0.0594488188000004
 50
99.5299368428314324
 51
80.470061783977286
  0
ARC
  5
3C462
  8
0
 10
2948.8663858808899931
 20
218.9636455495480902
 30
0.0
 40
0.0665354329000005
 50
98.5069277716270619
 51
81.4930710049396367
  0
ARC
  5
3C463
  8
0
 10
2948.8663858808899931
 20
218.9636455495480902
 30
0.0
 40
0.0736220470000006
 50
97.6828665072427924
 51
82.3171323893191129
  0
ARC
  5
3C464
  8
0
 10
2948.8663858808899931
 20
218.9636455495480902
 30
0.0
 40
0.0807086611000008
 50
97.0047264316195168
 51
82.995272563385555
  0
ARC
  5
3C465
  8
0
 10
2948.8663858808899931
 20
218.9636455495480902
 30
0.0
 40
0.0877952752000009
 50
96.4368251479881593
 51
83.5631739292113878
  0
ARC
  5
3C466
  8
0
 10
2948.8663858808899931
 20
218.9636455495480902
 30
0.0
 40
0.094881889300001
 50
95.9542571528504453
 51
84.0457419940364758
  0
ARC
  5
3C467
  8
0
 10
2948.8663858808899931
 20
218.9636455495480902
 30
0.0
 40
0.1019685034000011
 50
95.539104882584013
 51
84.4608943241902921
  0
ARC
  5
3C468
  8
0
 10
2948.8663858808899931
 20
218.9636455495480902
 30
0.0
 40
0.1090551175000012
 50
95.178145359718286
 51
84.8218538990112449
  0
ARC
  5
3C469
  8
0
 10
2948.8663858808899931
 20
218.9636455495480902
 30
0.0
 40
0.1161417316000013
 50
94.8614054209304385
 51
85.1385938833968936
  0
ARC
  5
3C46A
  8
0
 10
2948.8663858808899931
 20
218.9636455495480902
 30
0.0
 40
0.1232283457000014
 50
94.5812201101090722
 51
85.4187792344651058
  0
ARC
  5
3C46B
  8
0
 10
2948.8663858808899931
 20
218.9636455495480902
 30
0.0
 40
0.1303149598000015
 50
94.3316008251280067
 51
85.6683985553096932
  0
ARC
  5
3C46C
  8
0
 10
2948.8663858808899931
 20
218.9636455495480902
 30
0.0
 40
0.1374015739000016
 50
94.1078004187711485
 51
85.8921989937925332
  0
ARC
  5
3C46D
  8
0
 10
2948.8663858808899931
 20
218.9636455495480902
 30
0.0
 40
0.1444881880000017
 50
93.9060071139525832
 51
86.0939923275617645
  0
ARC
  5
3C46E
  8
0
 10
2948.8663858808899931
 20
218.9636455495480902
 30
0.0
 40
0.1515748021000018
 50
93.7231247837657548
 51
86.2768746839776384
  0
ARC
  5
3C46F
  8
0
 10
2948.8663858808899931
 20
218.9636455495480902
 30
0.0
 40
0.158661416200002
 50
93.5566124259243423
 51
86.443387065699369
  0
ARC
  5
3C470
  8
0
 10
2948.8663858808899931
 20
218.9636455495480902
 30
0.0
 40
0.1657480303000021
 50
93.4043650148604456
 51
86.5956344985616937
  0
ARC
  5
3C471
  8
0
 10
2948.8663858808899931
 20
218.9636455495480902
 30
0.0
 40
0.1728346444000022
 50
93.2646237944545931
 51
86.7353757389751365
  0
ARC
  5
3C472
  8
0
 10
2948.8663858808899931
 20
218.9636455495480902
 30
0.0
 40
0.1799212585000023
 50
93.1359078559826656
 51
86.8640916958759561
  0
ARC
  5
3C473
  8
0
 10
2948.8663858808899931
 20
218.9636455495480902
 30
0.0
 40
0.1870078726000024
 50
93.0169613304624221
 51
86.9830382384316039
  0
ARC
  5
3C474
  8
0
 10
2948.8663858808899931
 20
218.9636455495480902
 30
0.0
 40
0.1940944867000025
 50
92.906712188979597
 51
87.0932873956887619
  0
ARC
  5
3C475
  8
0
 10
2948.8663858808899931
 20
218.9636455495480902
 30
0.0
 40
0.2011811008000026
 50
92.8042397780428843
 51
87.1957598212970026
  0
ARC
  5
3C476
  8
0
 10
2948.8663858808899931
 20
218.9636455495480902
 30
0.0
 40
0.2082677149000027
 50
92.7087490023736649
 51
87.291250610640418
  0
ARC
  5
3C477
  8
0
 10
2948.8663858808899931
 20
218.9636455495480902
 30
0.0
 40
0.2153543290000028
 50
92.6195496188522611
 51
87.3804500069180534
  0
ARC
  5
3C478
  8
0
 10
2948.8663858808899931
 20
218.9636455495480902
 30
0.0
 40
0.2224409431000029
 50
92.536039498758484
 51
87.4639601389552297
  0
ARC
  5
3C479
  8
0
 10
2948.8663858808899931
 20
218.9636455495480902
 30
0.0
 40
0.2295275572000031
 50
92.4576909977608494
 51
87.5423086511884918
  0
ARC
  5
3C47A
  8
0
 10
2948.8663858808899931
 20
218.9636455495480902
 30
0.0
 40
0.2366141713000032
 50
92.3840397809333638
 51
87.6159598785182538
  0
ARC
  5
3C47B
  8
0
 10
2948.8663858808899931
 20
218.9636455495480902
 30
0.0
 40
0.2437007854000033
 50
92.3146756015758569
 51
87.6853240678017158
  0
ARC
  5
3C47C
  8
0
 10
2948.8663858808899931
 20
218.9636455495480902
 30
0.0
 40
0.2507873995000034
 50
92.2492346464127735
 51
87.7507650323147601
  0
ARC
  5
3C47D
  8
0
 10
2948.8663858808899931
 20
218.9636455495480902
 30
0.0
 40
0.2578740136000035
 50
92.1873931454547062
 51
87.8126065421253656
  0
ARC
  5
3C47E
  8
0
 10
2948.8663858808899931
 20
218.9636455495480902
 30
0.0
 40
0.2720472440999999
 50
92.0733822870997471
 51
87.9266174167985639
  0
ARC
  5
3C47F
  8
0
 10
2948.8663858808899931
 20
218.9636455495480902
 30
0.0
 40
0.2909448818999999
 50
91.9386574306741835
 51
88.0613422924620863
  0
ARC
  5
3C480
  8
0
 10
2948.8663858808899931
 20
218.9636455495480902
 30
0.0
 40
0.3098425197000001
 50
91.8203754752595245
 51
88.1796242647877904
  0
ARC
  5
3C481
  8
0
 10
2948.8663858808899931
 20
218.9636455495480902
 30
0.0
 40
0.3287401575
 50
91.7156988926561496
 51
88.2843008623420786
  0
ARC
  5
3C482
  8
0
 10
2948.8663858808899931
 20
218.9636455495480902
 30
0.0
 40
0.3476377953
 50
91.622407614999716
 51
88.377592153329644
  0
ARC
  5
3C483
  8
0
 10
2948.8663858808899931
 20
218.9636455495480902
 30
0.0
 40
0.3665354331
 50
91.538739727822275
 51
88.4612600524539801
  0
ARC
  5
3C484
  8
0
 10
2948.8663858808899931
 20
218.9636455495480902
 30
0.0
 40
0.3854330709
 50
91.4632790703882961
 51
88.5367207206598152
  0
ARC
  5
3C485
  8
0
 10
2948.8663858808899931
 20
218.9636455495480902
 30
0.0
 40
0.7122040409000001
 50
90.7918416032205755
 51
89.2081582837415965
  0
ARC
  5
3C486
  8
0
 10
2948.8663858808899931
 20
218.9636455495480902
 30
0.0
 40
0.4043307087
 50
91.3948743815783331
 51
88.6051254192495747
  0
ARC
  5
3C487
  8
0
 10
2948.8663858808899931
 20
218.9636455495480902
 30
0.0
 40
0.4303149606000001
 50
91.3106307529978807
 51
88.6893690598514439
  0
ARC
  5
3C488
  8
0
 10
2948.8663858808899931
 20
218.9636455495480902
 30
0.0
 40
0.4421259843000002
 50
91.2756124896388172
 51
88.7243873282169062
  0
ARC
  5
3C489
  8
0
 10
2948.8663858808899931
 20
218.9636455495480902
 30
0.0
 40
0.4610236219999999
 50
91.2233162437770488
 51
88.7766835815618123
  0
ARC
  5
3C48A
  8
0
 10
2948.8663858808899931
 20
218.9636455495480902
 30
0.0
 40
0.4799212598000001
 50
91.1751393909408563
 51
88.8248604412810892
  0
ARC
  5
3C48B
  8
0
 10
2948.8663858808899931
 20
218.9636455495480902
 30
0.0
 40
0.4988188976
 50
91.1306136154406516
 51
88.8693862231165781
  0
ARC
  5
3C48C
  8
0
 10
2948.8663858808899931
 20
218.9636455495480902
 30
0.0
 40
0.5177165354
 50
91.0893390013839905
 51
88.910660843091037
  0
ARC
  5
3C48D
  8
0
 10
2948.8663858808899931
 20
218.9636455495480902
 30
0.0
 40
0.5366141732000002
 50
91.0509719842839331
 51
88.949027865665542
  0
ARC
  5
3C48E
  8
0
 10
2948.8663858808899931
 20
218.9636455495480902
 30
0.0
 40
0.5543307086999999
 50
91.0173790917246777
 51
88.9826207630212451
  0
ARC
  5
3C48F
  8
0
 10
2948.8663858808899931
 20
218.9636455495480902
 30
0.0
 40
0.5728346457000001
 50
90.9845120109924039
 51
89.0154878484456162
  0
ARC
  5
3C490
  8
0
 10
2948.8663858808899931
 20
218.9636455495480902
 30
0.0
 40
0.5921259842999999
 50
90.9524338146060671
 51
89.0475660494196291
  0
ARC
  5
3C491
  8
0
 10
2948.8663858808899931
 20
218.9636455495480902
 30
0.0
 40
0.6110236220000002
 50
90.9229745099159885
 51
89.077025358332321
  0
ARC
  5
3C492
  8
0
 10
2948.8663858808899931
 20
218.9636455495480902
 30
0.0
 40
0.6299212598000001
 50
90.8952829859707947
 51
89.1047168862133248
  0
ARC
  5
3C493
  8
0
 10
2948.8663858808899931
 20
218.9636455495480902
 30
0.0
 40
0.6484251969000003
 50
90.8697325425907962
 51
89.1302673332423154
  0
ARC
  5
3C494
  8
0
 10
2948.8663858808899931
 20
218.9636455495480902
 30
0.0
 40
0.6673228345999997
 50
90.8451011362685108
 51
89.1548987430571742
  0
ARC
  5
3C495
  8
0
 10
2948.8663858808899931
 20
218.9636455495480902
 30
0.0
 40
0.6870078739999999
 50
90.82088452254456
 51
89.1791153602475646
  0
ARC
  5
3C496
  8
0
 10
2948.8663858808899931
 20
218.9636455495480902
 30
0.0
 40
0.7051181102000001
 50
90.799799557077236
 51
89.2002003287381768
  0
ARC
  5
3C497
  8
0
 10
2948.8663858808899931
 20
218.9636455495480902
 30
0.0
 40
0.4232283464999999
 50
91.3325801231714536
 51
88.6674196865487971
  0
LINE
  5
3C498
  8
0
 10
2951.1532510875931621
 20
242.4931809826481128
 30
0.0
 11
2952.5530120594889922
 21
242.4931809826481128
 31
0.0
  0
LINE
  5
3C499
  8
0
 10
2954.5897660194909804
 20
242.4931809826481128
 30
0.0
 11
2956.701296711617033
 21
242.4931809826481128
 31
0.0
  0
LINE
  5
3C49A
  8
0
 10
2951.1532513100191863
 20
244.0286140534481092
 30
0.0
 11
2952.5647001286611157
 21
244.0286140534481092
 31
0.0
  0
ARC
  5
3C49B
  8
0
 10
2952.0728488157719767
 20
243.2608973834483947
 30
0.0
 40
1.2007876496117911
 50
140.434808413764614
 51
219.5651748136820061
  0
ARC
  5
3C49C
  8
0
 10
2951.1532510875931621
 20
242.5010809826480909
 30
0.0
 40
0.0079
 50
219.565174813515199
 51
270.000000000104194
  0
ARC
  5
3C49D
  8
0
 10
2951.1532513100191863
 20
244.020714053448188
 30
0.0
 40
0.0079
 50
89.9999999998697291
 51
140.4348084140085859
  0
LINE
  5
3C49E
  8
0
 10
2951.107423933678092
 20
244.0284977792616132
 30
0.0
 11
2950.2132420245479807
 21
244.0222551104540969
 31
0.0
  0
ARC
  5
3C49F
  8
0
 10
2952.0741425061678456
 20
243.2609580784192076
 30
0.0
 40
1.2215270763980071
 50
141.838426020734488
 51
218.1687929776350074
  0
LINE
  5
3C4A0
  8
0
 10
2951.1075196523997874
 20
242.4932965885685121
 30
0.0
 11
2950.2132420271359479
 21
242.4995399256411019
 31
0.0
  0
ARC
  5
3C4A1
  8
0
 10
2951.1075748043558633
 20
242.5011963960511139
 30
0.0
 40
0.0079
 50
269.5999999970629801
 51
38.1687929775919912
  0
ARC
  5
3C4A2
  8
0
 10
2951.1074790856350774
 20
244.0205979717790967
 30
0.0
 40
0.0079
 50
321.8384260208139835
 51
90.4000000010349538
  0
ARC
  5
3C4A3
  8
0
 10
2975.1290192673291131
 20
243.2608975622351011
 30
0.0
 40
24.9577450116193909
 50
178.3220856300000889
 51
181.677914731342014
  0
ARC
  5
3C4A4
  8
0
 10
2950.213461934247789
 20
243.990755878086901
 30
0.0
 40
0.0315
 50
90.4000000010610023
 51
178.3220986989848029
  0
ARC
  5
3C4A5
  8
0
 10
2950.2134619368371204
 20
242.5310391580082978
 30
0.0
 40
0.0315
 50
181.6779015042683056
 51
269.5999999970107979
  0
LINE
  5
3C4A6
  8
0
 10
2956.7406967116171472
 20
242.5325809826481134
 30
0.0
 11
2956.7406967116171472
 21
243.9892140534481086
 31
0.0
  0
ARC
  5
3C4A7
  8
0
 10
2956.701296711617033
 20
242.5325809826481134
 30
0.0
 40
0.0394
 50
270.0
 51
0.0000000000048853
  0
ARC
  5
3C4A8
  8
0
 10
2956.701296711617033
 20
243.9892140534481086
 30
0.0
 40
0.0394
 50
359.9999999999951115
 51
90.0
  0
LINE
  5
3C4A9
  8
0
 10
2950.8771318823701222
 20
243.1506612975481971
 30
0.0
 11
2950.8576051995050875
 21
243.1506612975481971
 31
0.0
  0
LINE
  5
3C4AA
  8
0
 10
2950.8771319071870494
 20
243.3711337385481102
 30
0.0
 11
2950.8575942242291603
 21
243.3711337385481102
 31
0.0
  0
ARC
  5
3C4AB
  8
0
 10
2950.8584490013499817
 20
243.0733328160644078
 30
0.0
 40
0.0853694517810527
 50
88.8545383575408891
 51
90.9966547139580371
  0
ARC
  5
3C4AC
  8
0
 10
2949.5610576999019941
 20
243.2609131479781013
 30
0.0
 40
1.303113926939643
 50
355.500582194750109
 51
4.4994178052499132
  0
ARC
  5
3C4AD
  8
0
 10
2950.8575583971878586
 20
243.4509533271838961
 30
0.0
 40
0.0878506393305641
 50
269.5665618078115813
 51
271.6941306852198181
  0
LINE
  5
3C4AE
  8
0
 10
2957.9818820970240267
 20
242.4767128092481983
 30
0.0
 11
2957.6773102877250494
 21
242.4767128092481983
 31
0.0
  0
LINE
  5
3C4AF
  8
0
 10
2957.0946336696720209
 20
242.4767128092481983
 30
0.0
 11
2956.7997817510167806
 21
242.4767128092481983
 31
0.0
  0
LINE
  5
3C4B0
  8
0
 10
2956.7603817510171211
 20
242.5161128092481988
 30
0.0
 11
2956.7603817510171211
 21
244.0056822269480961
 31
0.0
  0
LINE
  5
3C4B1
  8
0
 10
2957.9819350881530227
 20
244.0450822289008954
 30
0.0
 11
2956.7997817510167806
 21
244.0450822289008954
 31
0.0
  0
ARC
  5
3C4B2
  8
0
 10
2934.5294061401841645
 20
243.2617318361050991
 30
0.0
 40
23.5037256080245101
 50
358.1790221901048881
 51
1.8169012384793
  0
ARC
  5
3C4B3
  8
0
 10
2957.9819350847351416
 20
244.0056822254358053
 30
0.0
 40
0.0394000034651092
 50
1.8169032790457369
 51
89.9999950282432337
  0
ARC
  5
3C4B4
  8
0
 10
2957.9818820970240267
 20
242.5161128092481988
 30
0.0
 40
0.0394
 50
270.0
 51
358.1790221900984079
  0
ARC
  5
3C4B5
  8
0
 10
2956.7997817510167806
 20
242.5161128092481135
 30
0.0
 40
0.0394
 50
179.9999999999901945
 51
270.0
  0
ARC
  5
3C4B6
  8
0
 10
2956.7997817543509882
 20
244.0056822255673126
 30
0.0
 40
0.0394000033335244
 50
90.0000048476302652
 51
179.9999979920519877
  0
LINE
  5
3C4B7
  8
0
 10
2956.7525133154172181
 20
243.9498034321900946
 30
0.0
 11
2956.7525133154172181
 21
242.5720199219402105
 31
0.0
  0
ARC
  5
3C4B8
  8
0
 10
2956.7643242098638439
 20
243.9498075327271067
 30
0.0
 40
0.0118108951588665
 50
109.4994906692457022
 51
180.0198920965478067
  0
ARC
  5
3C4B9
  8
0
 10
2956.7643240062698169
 20
242.571987844072197
 30
0.0
 40
0.0118107344148827
 50
179.8443850203113925
 51
250.4566854125455109
  0
ARC
  5
3C4BA
  8
0
 10
2956.7367975671168097
 20
242.5957806780481008
 30
0.0
 40
0.0157162125000119
 50
284.3649284459818887
 51
359.5596306194948966
  0
ARC
  5
3C4BB
  8
0
 10
2956.7367979389168795
 20
243.9260145774480861
 30
0.0
 40
0.0157158214999822
 50
0.4311719374034885
 51
75.6361057130946506
  0
LINE
  5
3C4BC
  8
0
 10
2957.0353712545879716
 20
243.5474111601776883
 30
0.0
 11
2957.0353712545879716
 21
242.8242139781648916
 31
0.0
  0
LINE
  5
3C4BD
  8
0
 10
2957.7384701007172225
 20
243.5584728342815026
 30
0.0
 11
2957.7384701007172225
 21
242.8189423799105953
 31
0.0
  0
ARC
  5
3C4BE
  8
0
 10
2956.6016787286848739
 20
243.579822258112614
 30
0.0
 40
0.4349019272133665
 50
355.7260653683960072
 51
24.4572599559423409
  0
ARC
  5
3C4BF
  8
0
 10
2958.2261942974519116
 20
244.318693660257992
 30
0.0
 40
1.349749798495441
 50
197.6236025233662872
 51
204.4572599559423054
  0
ARC
  5
3C4C0
  8
0
 10
2958.1968920937179064
 20
243.5766439218051005
 30
0.0
 40
0.4587819875371073
 50
156.4562406432928867
 51
182.2699213422312141
  0
ARC
  5
3C4C1
  8
0
 10
2956.0895851326858974
 20
244.4948414317952938
 30
0.0
 40
1.8398761635079079
 50
336.456240643292972
 51
341.4675626534818775
  0
LINE
  5
3C4C2
  8
0
 10
2957.8340524292161717
 20
243.9100524541482002
 30
0.0
 11
2957.839335799671062
 21
244.0368533456465059
 31
0.0
  0
LINE
  5
3C4C3
  8
0
 10
2956.93979361801712
 20
243.9100400043481045
 30
0.0
 11
2956.934509728762805
 21
244.0368533456428111
 31
0.0
  0
ARC
  5
3C4C4
  8
0
 10
2957.8314426451679537
 20
244.0371822257284862
 30
0.0
 40
0.0079000031723761
 50
357.6140657929893223
 51
89.9999766034025441
  0
ARC
  5
3C4C5
  8
0
 10
2956.9424028832659133
 20
244.0371822257284862
 30
0.0
 40
0.0079000031724241
 50
90.0000233969622485
 51
182.3859342331099072
  0
ARC
  5
3C4C6
  8
0
 10
2958.1562667624830283
 20
242.8155812098748072
 30
0.0
 40
0.4178101818369905
 50
179.5390659612016009
 51
197.2976671288751049
  0
ARC
  5
3C4C7
  8
0
 10
2957.3671708329839021
 20
242.5698404423409045
 30
0.0
 40
0.4086648091817748
 50
5.272420022036397
 51
17.2976671288751795
  0
ARC
  5
3C4C8
  8
0
 10
2957.7020234972001163
 20
242.6152095680330945
 30
0.0
 40
0.0725056536129416
 50
286.4262131311725739
 51
353.8112615420367888
  0
ARC
  5
3C4C9
  8
0
 10
2957.6651339897957769
 20
242.715994556346601
 30
0.0
 40
0.1797405688178833
 50
273.8844051861448179
 51
288.6211069608405069
  0
ARC
  5
3C4CA
  8
0
 10
2956.6268170778312196
 20
242.8144934653934115
 30
0.0
 40
0.4086697978980795
 50
342.4626619414564743
 51
1.3629509423322861
  0
ARC
  5
3C4CB
  8
0
 10
2957.3645863738229309
 20
242.5782392286538141
 30
0.0
 40
0.3660103964346864
 50
161.9987722181857066
 51
175.4313449903191042
  0
ARC
  5
3C4CC
  8
0
 10
2957.0739711008250197
 20
242.616299808522399
 30
0.0
 40
0.0747645667032457
 50
186.8417645319806866
 51
260.1129213153463979
  0
ARC
  5
3C4CD
  8
0
 10
2957.1155797603928477
 20
242.7532616349959937
 30
0.0
 40
0.217539633416703
 50
255.5057999941209061
 51
264.4746400608967178
  0
LINE
  5
3C4CE
  8
0
 10
2957.7717104744351673
 20
242.6277593922480946
 30
0.0
 11
2957.0019414183971094
 21
242.6277593922480946
 31
0.0
  0
LINE
  5
3C4CF
  8
0
 10
2948.6490616684232009
 20
215.9557715338482069
 30
0.0
 11
2949.3986707233580091
 21
215.9557715338482069
 31
0.0
  0
LINE
  5
3C4D0
  8
0
 10
2949.4183536448967971
 20
215.9746514121173107
 30
0.0
 11
2949.4762871851899035
 21
217.3652203527481106
 31
0.0
  0
LINE
  5
3C4D1
  8
0
 10
2948.6293787468839582
 20
215.9746514121169128
 30
0.0
 11
2948.5714702484369809
 21
217.3644553752397997
 31
0.0
  0
ARC
  5
3C4D2
  8
0
 10
2948.6490616684232009
 20
215.9754715338482072
 30
0.0
 40
0.0197
 50
182.3859440316485916
 51
270.0
  0
ARC
  5
3C4D3
  8
0
 10
2949.3986707233580091
 20
215.9754715338482072
 30
0.0
 40
0.0197
 50
270.0
 51
357.6140559696128207
  0
LINE
  5
3C4D4
  8
0
 10
2954.5514368483909493
 20
244.0286140534481945
 30
0.0
 11
2954.5869637599380439
 21
244.0286140534481945
 31
0.0
  0
LINE
  5
3C4D5
  8
0
 10
2954.6015959653909704
 20
244.0286140534481945
 30
0.0
 11
2956.701296711617033
 21
244.0286140534481092
 31
0.0
  0
LINE
  5
3C4D6
  8
0
 10
2950.3457915828998921
 20
259.5097169206482022
 30
0.0
 11
2956.8358136336810276
 21
259.5097169206482022
 31
0.0
  0
LINE
  5
3C4D7
  8
0
 10
2951.2113234688540615
 20
262.2188720832539843
 30
0.0
 11
2955.9702817477268582
 21
262.218872083254098
 31
0.0
  0
ARC
  5
3C4D8
  8
0
 10
2947.1057956355439273
 20
263.1259584516043901
 30
0.0
 40
3.578020946113722
 50
262.77615203924978
 51
269.1832766691678103
  0
ARC
  5
3C4D9
  8
0
 10
2949.3255356087961445
 20
340.967859742458927
 30
0.0
 40
81.4512173614869681
 50
268.4024702209159727
 51
269.5927907392709244
  0
ARC
  5
3C4DA
  8
0
 10
2952.0946483073739728
 20
713.2020679225671529
 30
0.0
 40
453.6957216654034823
 50
269.5771888222072903
 51
269.7791419388661893
  0
LINE
  5
3C4DB
  8
0
 10
2946.6421401557117861
 20
259.5920501806104994
 30
0.0
 11
2946.6511365460642082
 21
260.625331847132486
 31
0.0
  0
ARC
  5
3C4DC
  8
0
 10
2946.6593290092409916
 20
259.5932164535385027
 30
0.0
 40
0.017228374217668
 50
183.8816000872749044
 51
258.4287063099729949
  0
ARC
  5
3C4DD
  8
0
 10
2951.3123876830818517
 20
260.4252767824360149
 30
0.0
 40
4.6655422183550037
 50
172.0665674167557881
 51
177.542445069475491
  0
ARC
  5
3C4DE
  8
0
 10
2948.0444558553072056
 20
260.8806835367245185
 30
0.0
 40
1.3660310814080949
 50
150.6264185367222126
 51
172.0665674167557881
  0
ARC
  5
3C4DF
  8
0
 10
2947.5313429092097977
 20
261.1694961946842
 30
0.0
 40
0.7772207156284248
 50
121.2471839748588991
 51
150.6264185367222126
  0
ARC
  5
3C4E0
  8
0
 10
2948.0514299600290542
 20
260.3123242724520878
 30
0.0
 40
1.779834422243822
 50
101.475770619789003
 51
121.2471839748588991
  0
ARC
  5
3C4E1
  8
0
 10
2949.1253595088369366
 20
253.6146213377166134
 30
0.0
 40
8.5618871311558955
 50
91.9030778922686835
 51
99.6012127865179053
  0
ARC
  5
3C4E2
  8
0
 10
2951.4238753001709483
 20
191.8356899334835077
 30
0.0
 40
70.3835030941822026
 50
90.173028349522184
 51
92.1030415398000173
  0
ARC
  5
3C4E3
  8
0
 10
2952.9699022049758241
 20
-3439.1434556552499089
 30
0.0
 40
3698.7906130826090703
 50
89.9903819987419382
 51
90.0280787676353071
  0
ARC
  5
3C4E4
  8
0
 10
2951.3396714929540394
 20
-112.5967517387782948
 30
0.0
 40
372.2435097050376953
 50
90.0280787676353071
 51
90.4128468009538437
  0
ARC
  5
3C4E5
  8
0
 10
2949.1556106009347786
 20
190.5067368064918014
 30
0.0
 40
69.1321524610493725
 50
90.4128468009538437
 51
91.1660270255611636
  0
ARC
  5
3C4E6
  8
0
 10
2948.5188770398408451
 20
221.7899817570024936
 30
0.0
 40
37.8424282011350215
 50
91.1660270255611636
 51
92.4149791562309417
  0
ARC
  5
3C4E7
  8
0
 10
2946.9780535927448
 20
258.3246218387815247
 30
0.0
 40
1.2753109672013181
 50
92.4149791562309417
 51
100.3126038923028034
  0
ARC
  5
3C4E8
  8
0
 10
2947.0655390005040317
 20
261.8139489567402052
 30
0.0
 40
2.2568208888711618
 50
261.9563863124266732
 51
266.7034813291189153
  0
ARC
  5
3C4E9
  8
0
 10
2948.662028242766155
 20
297.2995057539844197
 30
0.0
 40
37.7781046326484571
 50
267.3809671654549902
 51
268.8686204508222772
  0
ARC
  5
3C4EA
  8
0
 10
2960.0758095810379018
 20
263.1259584516043901
 30
0.0
 40
3.578020946113722
 50
270.816723330832076
 51
277.22384796075022
  0
ARC
  5
3C4EB
  8
0
 10
2957.8560696077861394
 20
340.967859742458927
 30
0.0
 40
81.4512173614869681
 50
270.4072092607290756
 51
271.5975297790840273
  0
ARC
  5
3C4EC
  8
0
 10
2955.0869569092069469
 20
713.2020679225671529
 30
0.0
 40
453.6957216654034823
 50
270.2208580611338107
 51
270.422811177792596
  0
LINE
  5
3C4ED
  8
0
 10
2960.5394505037679664
 20
259.5920501806104994
 30
0.0
 11
2960.5304686705171662
 21
260.625331847132486
 31
0.0
  0
ARC
  5
3C4EE
  8
0
 10
2960.5237644319117862
 20
259.5919011277421191
 30
0.0
 40
0.0156867800081455
 50
277.205486785656376
 51
0.5444220413429885
  0
ARC
  5
3C4EF
  8
0
 10
2955.8692175334999774
 20
260.4252767824360149
 30
0.0
 40
4.6655422183550037
 50
2.4575549305244442
 51
7.9334325832442021
  0
ARC
  5
3C4F0
  8
0
 10
2959.1371493612750783
 20
260.8806835367245185
 30
0.0
 40
1.3660310814080949
 50
7.9334325832442021
 51
29.373581463277791
  0
ARC
  5
3C4F1
  8
0
 10
2959.650262307371122
 20
261.1694961946842
 30
0.0
 40
0.7772207156284248
 50
29.373581463277791
 51
58.7528160251411293
  0
ARC
  5
3C4F2
  8
0
 10
2959.1301752565518655
 20
260.3123242724520878
 30
0.0
 40
1.779834422243822
 50
58.7528160251411293
 51
78.5242293802110112
  0
ARC
  5
3C4F3
  8
0
 10
2958.0562457077439831
 20
253.6146213377166134
 30
0.0
 40
8.5618871311558955
 50
80.3987872134821089
 51
88.0969221077313165
  0
ARC
  5
3C4F4
  8
0
 10
2955.7577299126810431
 20
191.8356897458706953
 30
0.0
 40
70.3835032818054742
 50
87.8969584627551512
 51
89.8269716479243954
  0
ARC
  5
3C4F5
  8
0
 10
2954.2117030116050955
 20
-3439.1434556552499089
 30
0.0
 40
3698.7906130826090703
 50
89.9719212323647071
 51
90.0096180012580902
  0
ARC
  5
3C4F6
  8
0
 10
2955.8419337236277897
 20
-112.5967517387782948
 30
0.0
 40
372.2435097050376953
 50
89.587153199046142
 51
89.9719212323647071
  0
ARC
  5
3C4F7
  8
0
 10
2958.025994615646141
 20
190.5067368064918014
 30
0.0
 40
69.1321524610493725
 50
88.8339729744388364
 51
89.587153199046142
  0
ARC
  5
3C4F8
  8
0
 10
2958.6627281767400746
 20
221.7899817570024936
 30
0.0
 40
37.8424282011350215
 50
87.5850208437690441
 51
88.8339729744388364
  0
ARC
  5
3C4F9
  8
0
 10
2960.2035516238361197
 20
258.3246218387815247
 30
0.0
 40
1.2753109672013181
 50
79.687396107697225
 51
87.5850208437690441
  0
ARC
  5
3C4FA
  8
0
 10
2960.1160662160768879
 20
261.8139489567402052
 30
0.0
 40
2.2568208888711618
 50
273.2965186708811984
 51
278.0436136875733268
  0
ARC
  5
3C4FB
  8
0
 10
2958.5195769738152194
 20
297.2995057539844197
 30
0.0
 40
37.7781046326484571
 50
271.1313795491777228
 51
272.6190328345448961
  0
ARC
  5
3C4FC
  8
0
 10
2953.9668639228898428
 20
241.379399766132309
 30
0.0
 40
1.2505764884517721
 50
62.9505402121745306
 51
81.9735939824790876
  0
ARC
  5
3C4FD
  8
0
 10
2953.1988270380220456
 20
241.3621990128586106
 30
0.0
 40
1.274869021778301
 50
105.8127134491491006
 51
117.4844875663764014
  0
ARC
  5
3C4FE
  8
0
 10
2953.1211181504700107
 20
241.6365839980252872
 30
0.0
 40
0.98969224977616
 50
93.5914086400001253
 51
105.8127134491491006
  0
ARC
  5
3C4FF
  8
0
 10
2953.532336158605176
 20
235.0847840493966885
 30
0.0
 40
7.5543843839941971
 50
89.5683598612193919
 51
93.5914086400001253
  0
ARC
  5
3C500
  8
0
 10
2953.462182624271918
 20
225.7728016072381934
 30
0.0
 40
16.8666310796873518
 50
88.1865307910822764
 51
89.5683598612193919
  0
ARC
  5
3C501
  8
0
 10
2953.956857543445949
 20
241.3966235372461995
 30
0.0
 40
1.234980016019773
 50
81.4023200555489268
 51
88.1865307910822764
  0
ARC
  5
3C502
  8
0
 10
2954.6017319652569313
 20
244.021912096037795
 30
0.0
 40
0.0067033371609903
 50
91.1625184388560541
 51
112.6446122324640982
  0
ARC
  5
3C503
  8
0
 10
2954.5868517388857981
 20
244.016585098340812
 30
0.0
 40
0.0120294490786718
 50
47.9564708505626101
 51
89.4807612127804362
  0
ARC
  5
3C504
  8
0
 10
2953.563413912022952
 20
252.3546555862237994
 30
0.0
 40
8.5208329602986765
 50
270.1841204175725011
 51
273.0309879511497115
  0
ARC
  5
3C505
  8
0
 10
2953.8940176862711269
 20
245.3921804610471042
 30
0.0
 40
1.551082457027237
 50
274.4350734261192883
 51
288.0476529456307162
  0
ARC
  5
3C506
  8
0
 10
2953.8343574835012078
 20
245.3002766776247086
 30
0.0
 40
1.484630212411213
 50
291.3374512806880716
 51
300.0136061273881865
  0
ARC
  5
3C507
  8
0
 10
2954.1796930514701671
 20
244.6950003027521063
 30
0.0
 40
0.7877874293803147
 50
300.2852024482393176
 51
301.8073253646907119
  0
ARC
  5
3C508
  8
0
 10
2956.0369217469428804
 20
241.7018636939914131
 30
0.0
 40
2.7347351532965138
 50
121.7360582379166942
 51
121.8229141376657054
  0
ARC
  5
3C509
  8
0
 10
2954.6007165554110543
 20
244.0244110799771136
 30
0.0
 40
0.0040061291348245
 50
113.0023267880385021
 51
124.7698490251102044
  0
ARC
  5
3C50A
  8
0
 10
2953.9511701146898304
 20
245.1837807924549963
 30
0.0
 40
1.3018183534287631
 50
287.8006831291726826
 51
297.4580474238961756
  0
ARC
  5
3C50B
  8
0
 10
2954.0504668655848945
 20
244.8745202937568024
 30
0.0
 40
0.9770077920342748
 50
275.8196057425652725
 51
287.8006831291726826
  0
ARC
  5
3C50C
  8
0
 10
2953.7870813503400313
 20
247.4587067828084059
 30
0.0
 40
3.5745819949854951
 50
270.674885540465425
 51
275.8196057425652725
  0
ARC
  5
3C50D
  8
0
 10
2953.6721074355668861
 20
252.9945093047892044
 30
0.0
 40
9.1114906185930824
 50
269.4886783594841972
 51
270.9878014719009229
  0
LINE
  5
3C50E
  8
0
 10
2952.630153814589903
 20
244.0286140534481945
 30
0.0
 11
2952.5946269030428084
 21
244.0286140534481945
 31
0.0
  0
ARC
  5
3C50F
  8
0
 10
2953.230420548291022
 20
245.1837807924549963
 30
0.0
 40
1.3018183534287631
 50
242.541952576103796
 51
252.199316870827289
  0
ARC
  5
3C510
  8
0
 10
2953.1311237973959578
 20
244.8745202937568024
 30
0.0
 40
0.9770077920342748
 50
252.199316870827289
 51
264.1803942574346138
  0
ARC
  5
3C511
  8
0
 10
2953.394509312640821
 20
247.4587067828084059
 30
0.0
 40
3.5745819949854951
 50
264.1803942574346138
 51
269.325114459534575
  0
ARC
  5
3C512
  8
0
 10
2953.5550159738641014
 20
250.5599601019754061
 30
0.0
 40
6.7261886451219786
 50
266.4464429621415889
 51
270.3047837062089229
  0
ARC
  5
3C513
  8
0
 10
2953.214863483678073
 20
245.0825452102014879
 30
0.0
 40
1.2382220259444749
 50
246.252223994984007
 51
266.4464429621415889
  0
ARC
  5
3C514
  8
0
 10
2953.1894978966811323
 20
245.0248914579927941
 30
0.0
 40
1.175234978486891
 50
238.9285098593865939
 51
246.252223994984007
  0
ARC
  5
3C515
  8
0
 10
2953.4061839043879445
 20
245.3845004081003083
 30
0.0
 40
1.5950818826473601
 50
238.296841522644911
 51
238.9285098593865939
  0
ARC
  5
3C516
  8
0
 10
2952.5634612101398488
 20
244.0201843140413018
 30
0.0
 40
0.0085202949226489
 50
58.2968415226440584
 51
81.6390972828082937
  0
ARC
  5
3C517
  8
0
 10
2952.5946732671332029
 20
244.0167990610472941
 30
0.0
 40
0.0118150833708643
 50
90.224837473008364
 51
172.8263519732846873
  0
ARC
  5
3C518
  8
0
 10
2953.517866612742182
 20
255.0191871511406987
 30
0.0
 40
11.1360444415021895
 50
269.1473818522401871
 51
270.3752263720804763
  0
ARC
  5
3C519
  8
0
 10
2953.8959238424931755
 20
241.3502088046473943
 30
0.0
 40
1.337087778550496
 50
58.7401016406128278
 51
74.8793573036219868
  0
ARC
  5
3C51A
  8
0
 10
2953.9518310893458874
 20
241.4915958040284067
 30
0.0
 40
1.1861353748328689
 50
75.7049372073094986
 51
88.0320828054660893
  0
ARC
  5
3C51B
  8
0
 10
2953.5454308016751384
 20
233.5389391765610014
 30
0.0
 40
9.1490251062824157
 50
87.1987192547329641
 51
89.839184366858305
  0
ARC
  5
3C51C
  8
0
 10
2953.5841258299960828
 20
234.2985094908341068
 30
0.0
 40
8.3894288513089865
 50
90.0888925563196779
 51
93.0418115041040465
  0
ARC
  5
3C51D
  8
0
 10
2953.2925738477370032
 20
240.9024534907375141
 30
0.0
 40
1.780305902809503
 50
94.9504631480033368
 51
105.3301687316574942
  0
ARC
  5
3C51E
  8
0
 10
2953.2557155046461048
 20
241.3557250890476951
 30
0.0
 40
1.336079261164248
 50
108.9472005690950027
 51
117.7596513482317988
  0
ARC
  5
3C51F
  8
0
 10
2953.1671130831700793
 20
241.5035084663759903
 30
0.0
 40
1.164075973446024
 50
117.2884642287398975
 51
121.6828448301783965
  0
ARC
  5
3C520
  8
0
 10
2952.5514129860571302
 20
242.5023421763341958
 30
0.0
 40
0.0092997045972052
 50
279.9011481909674899
 51
297.5946258732283241
  0
ARC
  5
3C521
  8
0
 10
2952.5750196012081688
 20
242.5050405099759985
 30
0.0
 40
0.0118595547900019
 50
207.9094844521839889
 51
269.7653434618200095
  0
LINE
  5
3C522
  8
0
 10
2952.5749710301902269
 20
242.4931810546480904
 30
0.0
 11
2952.6104642190912273
 21
242.4931809826481128
 31
0.0
  0
LINE
  5
3C523
  8
0
 10
2954.5355754358902232
 20
242.493181059048112
 30
0.0
 11
2954.567275713789968
 21
242.4931810218481871
 31
0.0
  0
ARC
  5
3C524
  8
0
 10
2954.5672756991411916
 20
242.5049898567932019
 30
0.0
 40
0.0118088349450061
 50
270.0000710791574079
 51
336.0726134034673009
  0
LINE
  5
3C525
  8
0
 10
2952.6460243872788851
 20
220.0108896440482056
 30
0.0
 11
2952.6460243872788851
 21
242.5109276909205107
 31
0.0
  0
LINE
  5
3C526
  8
0
 10
2952.6460243872788851
 20
244.020560062898312
 30
0.0
 11
2952.6460243872788851
 21
252.0187545488388139
 31
0.0
  0
LINE
  5
3C527
  8
0
 10
2952.6460243872788851
 20
252.0576438445760914
 30
0.0
 11
2952.6460243872788851
 21
259.5097169206482022
 31
0.0
  0
LINE
  5
3C528
  8
0
 10
2952.6460243872788851
 20
262.2188720832539843
 30
0.0
 11
2952.6460243872788851
 21
262.9861682689307827
 31
0.0
  0
LINE
  5
3C529
  8
0
 10
2952.6460243855472072
 20
262.9920617194867987
 30
0.0
 11
2952.6460243872788851
 21
263.7056805754513107
 31
0.0
  0
LINE
  5
3C52A
  8
0
 10
2954.5355754358902232
 20
220.0108896440482056
 30
0.0
 11
2954.5355754358902232
 21
242.493181059048112
 31
0.0
  0
LINE
  5
3C52B
  8
0
 10
2954.5355754358902232
 20
244.0205089214477994
 30
0.0
 11
2954.5355754358902232
 21
252.0190859419691094
 31
0.0
  0
LINE
  5
3C52C
  8
0
 10
2954.5355754358902232
 20
252.0573187385506913
 30
0.0
 11
2954.5355754358902232
 21
259.5097169206482022
 31
0.0
  0
LINE
  5
3C52D
  8
0
 10
2952.6460243872788851
 20
220.0662858471480945
 30
0.0
 11
2954.5355756866838419
 21
220.0662858471480945
 31
0.0
  0
LINE
  5
3C52E
  8
0
 10
2952.6647790256761255
 20
252.0384395273480891
 30
0.0
 11
2954.5169973859110542
 21
252.0384395273480891
 31
0.0
  0
ARC
  5
3C52F
  8
0
 10
2952.6657682313780242
 20
252.0187204499189875
 30
0.0
 40
0.0197438735454391
 50
92.8718301114021614
 51
179.9010465117661965
  0
ARC
  5
3C530
  8
0
 10
2952.6656779761260623
 20
252.0580773315433021
 30
0.0
 40
0.0196583688417858
 50
181.2635324504699099
 51
267.3790279913254153
  0
ARC
  5
3C531
  8
0
 10
2954.5157870738571546
 20
252.0582109845431944
 30
0.0
 40
0.0198084672522341
 50
273.5029965931944957
 51
357.4183145035233906
  0
ARC
  5
3C532
  8
0
 10
2954.5158067058368943
 20
252.0187029715380902
 30
0.0
 40
0.0197724392597094
 50
1.1098257173163439
 51
86.5476064106906193
  0
ARC
  5
3C533
  8
0
 10
2954.4534817135049707
 20
224.6927862096887054
 30
0.0
 40
39.4416327961220006
 50
91.2532980838027754
 51
91.8582541229542642
  0
ARC
  5
3C534
  8
0
 10
2953.2384350123561489
 20
263.0154134878901004
 30
0.0
 40
1.100122333061669
 50
93.3312156658366092
 51
106.6312212920861953
  0
ARC
  5
3C535
  8
0
 10
2953.0543862964700565
 20
263.6899943530087853
 30
0.0
 40
0.4014331609335417
 50
109.0187229446748063
 51
147.0486086550656069
  0
ARC
  5
3C536
  8
0
 10
2953.1081204474539845
 20
263.6508394722443995
 30
0.0
 40
0.4678347063654183
 50
146.6042025621686093
 51
165.6640568034183048
  0
ARC
  5
3C537
  8
0
 10
2953.0390729849978015
 20
263.679924857173603
 30
0.0
 40
0.3938915551172086
 50
167.2764200974966968
 51
176.2508778446394047
  0
ARC
  5
3C538
  8
0
 10
2953.0910555371237933
 20
263.7262410218939976
 30
0.0
 40
0.449705544331482
 50
188.2682402534067023
 51
204.193083672011312
  0
ARC
  5
3C539
  8
0
 10
2953.0312292884150338
 20
263.6993627195906811
 30
0.0
 40
0.3841187837064368
 50
204.193083672011312
 51
218.2210912591091869
  0
ARC
  5
3C53A
  8
0
 10
2953.1450660747041184
 20
263.7890113107704906
 30
0.0
 40
0.5290176581429039
 50
218.2210912591091869
 51
234.9567276103848883
  0
ARC
  5
3C53B
  8
0
 10
2953.092922605439071
 20
263.7792082966456064
 30
0.0
 40
0.4924478687970745
 50
239.2729312221661075
 51
260.1659009000641731
  0
ARC
  5
3C53C
  8
0
 10
2953.3959671129077833
 20
265.6834378197680167
 30
0.0
 40
2.420602850785591
 50
260.7965533472719812
 51
270.1586283316777894
  0
ARC
  5
3C53D
  8
0
 10
2953.6325445352717907
 20
270.8332997729772273
 30
0.0
 40
7.5739447952028023
 50
268.2607563901892718
 51
269.6841860517233158
  0
ARC
  5
3C53E
  8
0
 10
2952.6623240371109205
 20
263.5436121722789267
 30
0.0
 40
0.0079048855432874
 50
36.1590101104073725
 51
179.2953414396710059
  0
ARC
  5
3C53F
  8
0
 10
2952.5893919532368272
 20
263.5073235054513816
 30
0.0
 40
0.0893813037664702
 50
23.4348326578889186
 51
27.3343535467316592
  0
ARC
  5
3C540
  8
0
 10
2953.0628206644828424
 20
263.7125362091969123
 30
0.0
 40
0.4266099736886868
 50
203.4348326578889044
 51
212.2825174892610107
  0
ARC
  5
3C541
  8
0
 10
2953.0263173527378058
 20
263.6894753598892862
 30
0.0
 40
0.3834324964682199
 50
212.2825174892610107
 51
229.8626669875575033
  0
ARC
  5
3C542
  8
0
 10
2953.0869268956839733
 20
263.7613563936271817
 30
0.0
 40
0.4774558962545788
 50
229.8626669875575033
 51
248.9225129651165105
  0
ARC
  5
3C543
  8
0
 10
2953.2055393424161593
 20
264.1563488752541957
 30
0.0
 40
0.8892316529636234
 50
250.9444863188797115
 51
265.6057695531030163
  0
ARC
  5
3C544
  8
0
 10
2953.5646116404018358
 20
269.9048697648125881
 30
0.0
 40
6.6488771828216633
 50
266.31609086277291
 51
270.2256511446531135
  0
ARC
  5
3C545
  8
0
 10
2935.5360624183022082
 20
263.805106059678792
 30
0.0
 40
17.1203529734145512
 50
358.0036715018002269
 51
359.1251635995511151
  0
ARC
  5
3C546
  8
0
 10
2953.0210899997177876
 20
263.7001510062528951
 30
0.0
 40
0.3986782918153977
 50
203.1151464351115123
 51
218.9800117242122894
  0
ARC
  5
3C547
  8
0
 10
2953.0517812068128478
 20
263.7249865326529061
 30
0.0
 40
0.4381593450499178
 50
218.9800117242122894
 51
238.5708050308606971
  0
ARC
  5
3C548
  8
0
 10
2953.0899777746421933
 20
263.7857286058231239
 30
0.0
 40
0.5099078753927354
 50
238.4675475357742016
 51
254.9295391686733012
  0
ARC
  5
3C549
  8
0
 10
2953.3352190943801361
 20
264.9817131647317865
 30
0.0
 40
1.7301131203648441
 50
257.3861440449422844
 51
269.1141438427627008
  0
ARC
  5
3C54A
  8
0
 10
2953.5573113419332003
 20
272.3691841735279127
 30
0.0
 40
9.1207725177301171
 50
268.4366139945892087
 51
270.2103553691688944
  0
ARC
  5
3C54B
  8
0
 10
2953.5348791242618063
 20
138.7843785314354079
 30
0.0
 40
124.2101433728791022
 50
89.9742060464751603
 51
90.3587898744242324
  0
ARC
  5
3C54C
  8
0
 10
2952.7644859558990902
 20
261.8081965419762014
 30
0.0
 40
1.1839132285536911
 50
90.3587899327366841
 51
95.7425871754135613
  0
ARC
  5
3C54D
  8
0
 10
2952.7998760035297892
 20
261.1861338632843967
 30
0.0
 40
1.8124695141937921
 50
88.8341210116809066
 51
94.8694164454900033
  0
ARC
  5
3C54E
  8
0
 10
2953.8049647322491182
 20
59.052390892935108
 30
0.0
 40
203.9481354863293916
 50
90.0601667532428252
 51
90.2720033509185953
  0
ARC
  5
3C54F
  8
0
 10
2952.6741775193600006
 20
263.0916330663123972
 30
0.0
 40
0.1034748860887401
 50
254.2121046810692064
 51
267.2812693384015006
  0
LINE
  5
3C550
  8
0
 10
2952.8090335883430271
 20
262.6499104025060092
 30
0.0
 11
2953.4853195160899304
 21
262.6499104025060092
 31
0.0
  0
LINE
  5
3C551
  8
0
 10
2952.8004063465191393
 20
262.5515136579343789
 30
0.0
 11
2953.515118173438168
 21
262.5515136579343789
 31
0.0
  0
ARC
  5
3C552
  8
0
 10
2952.8117412702199545
 20
262.600609961136513
 30
0.0
 40
0.0493747411171158
 50
93.143644006211133
 51
263.9122935196263029
  0
LINE
  5
3C553
  8
0
 10
2952.7953255611560053
 20
262.5621821128498254
 30
0.0
 11
2953.5194100961489312
 21
262.5621821128498254
 31
0.0
  0
ARC
  5
3C554
  8
0
 10
2952.8095254529807789
 20
262.6082646891778722
 30
0.0
 40
0.0482207503972829
 50
192.4797348463208095
 51
252.8738338842049984
  0
ARC
  5
3C555
  8
0
 10
2953.5187559121118284
 20
262.5585373808372083
 30
0.0
 40
0.0037029755870552
 50
48.4117688525562428
 51
79.8244683221058438
  0
ARC
  5
3C556
  8
0
 10
2953.5907972142999824
 20
262.60611372881732
 30
0.0
 40
0.0827616538906327
 50
212.7786690688951126
 51
270.0
  0
ARC
  5
3C557
  8
0
 10
2953.5146656765609805
 20
262.5434895550801002
 30
0.0
 40
0.0080368513760896
 50
35.9563001971513074
 51
86.7723829446855746
  0
ARC
  5
3C558
  8
0
 10
2953.5907900518691349
 20
262.6062707686007229
 30
0.0
 40
0.0906532044408581
 50
219.8281700370033889
 51
270.00452689044522
  0
ARC
  5
3C559
  8
0
 10
2953.4842748200971982
 20
262.6712970114508039
 30
0.0
 40
0.0214121094682181
 50
272.7965691385903142
 51
324.911723034476779
  0
ARC
  5
3C55A
  8
0
 10
2953.590793098775066
 20
262.6008441746877793
 30
0.0
 40
0.1063076235624027
 50
89.9977818879372933
 51
146.8423711100496121
  0
LINE
  5
3C55B
  8
0
 10
2953.5033287784331151
 20
262.6612701869270268
 30
0.0
 11
2953.5151170448898483
 21
262.6612617231480726
 31
0.0
  0
ARC
  5
3C55C
  8
0
 10
2953.5151227055271193
 20
262.669145801616196
 30
0.0
 40
0.0078840805002339
 50
269.9588625920512754
 51
320.1759208979319737
  0
ARC
  5
3C55D
  8
0
 10
2953.5907985218259455
 20
262.6060411891215836
 30
0.0
 40
0.0906502855380471
 50
90.0008264254796444
 51
140.1759208979320022
  0
LINE
  5
3C55E
  8
0
 10
2954.5355754358902232
 20
262.218872083254098
 30
0.0
 11
2954.5355754358902232
 21
262.9861572904046056
 31
0.0
  0
LINE
  5
3C55F
  8
0
 10
2954.5355226603969641
 20
262.9920617194867987
 30
0.0
 11
2954.5355754358902232
 21
263.7056805754513107
 31
0.0
  0
ARC
  5
3C560
  8
0
 10
2951.1651834910708203
 20
167.1477201301433126
 30
0.0
 40
97.0075934548029579
 50
88.3212419701992246
 51
88.5672058230432668
  0
ARC
  5
3C561
  8
0
 10
2953.9431594162451802
 20
263.0154134878901004
 30
0.0
 40
1.100122333061669
 50
73.3687787079137763
 51
86.668784334163405
  0
ARC
  5
3C562
  8
0
 10
2954.1272081321308178
 20
263.6899943530087853
 30
0.0
 40
0.4014331609335417
 50
32.9513913449343931
 51
70.9812770553251937
  0
ARC
  5
3C563
  8
0
 10
2954.0734739811468899
 20
263.6508394722443995
 30
0.0
 40
0.4678347063654183
 50
14.3359431965816597
 51
33.3957974378313978
  0
ARC
  5
3C564
  8
0
 10
2954.1416544822350261
 20
263.6797645270871726
 30
0.0
 40
0.3947725412070364
 50
3.7640632719568279
 51
12.7185649833051198
  0
ARC
  5
3C565
  8
0
 10
2954.0905388914761716
 20
263.7262410218939976
 30
0.0
 40
0.449705544331482
 50
335.806916327988688
 51
351.7365403764231928
  0
ARC
  5
3C566
  8
0
 10
2954.1503651401849311
 20
263.6993627195906811
 30
0.0
 40
0.3841187837064368
 50
321.7789087408906994
 51
335.806916327988688
  0
ARC
  5
3C567
  8
0
 10
2954.0365283538972108
 20
263.7890113107704906
 30
0.0
 40
0.5290176581429039
 50
305.0432723896150833
 51
321.7789087408906994
  0
ARC
  5
3C568
  8
0
 10
2954.0886718231618033
 20
263.7792082966456064
 30
0.0
 40
0.4924478687970745
 50
279.8340990999358269
 51
300.7270687778338925
  0
ARC
  5
3C569
  8
0
 10
2953.7856273156921816
 20
265.6834378197680167
 30
0.0
 40
2.420602850785591
 50
269.8413716683222106
 51
279.2034466527280188
  0
ARC
  5
3C56A
  8
0
 10
2953.5490499010979875
 20
270.8332993398178132
 30
0.0
 40
7.5739443620072171
 50
270.3158139075520126
 51
271.7392436505276123
  0
ARC
  5
3C56B
  8
0
 10
2954.5192703914899539
 20
263.5436121722789267
 30
0.0
 40
0.0079048855432874
 50
0.7046585603290491
 51
143.8409898895926062
  0
ARC
  5
3C56C
  8
0
 10
2954.5922024753640471
 20
263.5073235054513816
 30
0.0
 40
0.0893813037664702
 50
152.6656464532682946
 51
156.5651673421110104
  0
ARC
  5
3C56D
  8
0
 10
2954.118773764118032
 20
263.7125362091969123
 30
0.0
 40
0.4266099736886868
 50
327.7174825107388756
 51
336.5651673421111241
  0
ARC
  5
3C56E
  8
0
 10
2954.1552770758630686
 20
263.6894753598892862
 30
0.0
 40
0.3834324964682199
 50
310.1373330124425252
 51
327.7174825107388756
  0
ARC
  5
3C56F
  8
0
 10
2954.0946675329159916
 20
263.7613563936271817
 30
0.0
 40
0.4774558962545788
 50
291.0774870348835179
 51
310.1373330124425252
  0
ARC
  5
3C570
  8
0
 10
2953.9760550861838055
 20
264.1563488752541957
 30
0.0
 40
0.8892316529636234
 50
274.3942304468970974
 51
289.055513681120317
  0
ARC
  5
3C571
  8
0
 10
2953.6169827912349319
 20
269.9048696642498157
 30
0.0
 40
6.6488770822716061
 50
269.7743488257742115
 51
273.6839091668085757
  0
ARC
  5
3C572
  8
0
 10
2970.561450511053863
 20
263.7832455675140864
 30
0.0
 40
16.0360649484989288
 50
180.8558784553769954
 51
182.0426601651097087
  0
ARC
  5
3C573
  8
0
 10
2954.1605044288821773
 20
263.7001510062528951
 30
0.0
 40
0.3986782918153977
 50
321.0199882757876821
 51
336.884853564888374
  0
ARC
  5
3C574
  8
0
 10
2954.1298132217880266
 20
263.7249865326529061
 30
0.0
 40
0.4381593450499178
 50
301.4291949691393029
 51
321.0199882757876821
  0
ARC
  5
3C575
  8
0
 10
2954.0916166539582264
 20
263.7857286058231239
 30
0.0
 40
0.5099078753927354
 50
285.0704608313267272
 51
301.5324524642256847
  0
ARC
  5
3C576
  8
0
 10
2953.846375334221193
 20
264.9817131647317865
 30
0.0
 40
1.7301131203648441
 50
270.8858561572374128
 51
282.6138559550577156
  0
ARC
  5
3C577
  8
0
 10
2953.6242830866672193
 20
272.369184173529618
 30
0.0
 40
9.1207725177318082
 50
269.7896446308309919
 51
271.5633860054107913
  0
ARC
  5
3C578
  8
0
 10
2953.6467153043381586
 20
138.7843785314192075
 30
0.0
 40
124.2101433728953026
 50
89.6412101255757818
 51
90.0257939535248539
  0
ARC
  5
3C579
  8
0
 10
2954.4171084727017842
 20
261.8081965419762014
 30
0.0
 40
1.1839132285536911
 50
84.2520163950041763
 51
89.6412100672633159
  0
ARC
  5
3C57A
  8
0
 10
2954.3817175053509345
 20
261.185970819258614
 30
0.0
 40
1.812632505757207
 50
85.1308221564281666
 51
91.1657450606292059
  0
ARC
  5
3C57B
  8
0
 10
2953.3766296963449349
 20
59.0523908903388133
 30
0.0
 40
203.9481354889256863
 50
89.7279966490814189
 51
89.9398332467571748
  0
ARC
  5
3C57C
  8
0
 10
2954.5074069590400541
 20
263.091734261895283
 30
0.0
 40
0.1035764398635351
 50
272.7215734173736905
 51
285.7808328980621013
  0
LINE
  5
3C57D
  8
0
 10
2954.3725608402578473
 20
262.6499104025060092
 30
0.0
 11
2953.6962749125100345
 21
262.6499104025060092
 31
0.0
  0
LINE
  5
3C57E
  8
0
 10
2954.3811880820821898
 20
262.5515136579343789
 30
0.0
 11
2953.6664762551631611
 21
262.5515136579343789
 31
0.0
  0
ARC
  5
3C57F
  8
0
 10
2954.3698531583809199
 20
262.600609961136513
 30
0.0
 40
0.0493747411171158
 50
276.0877064803735834
 51
86.856355993788867
  0
LINE
  5
3C580
  8
0
 10
2954.3862688674448691
 20
262.5621821128498254
 30
0.0
 11
2953.6621843324510337
 21
262.5621821128498254
 31
0.0
  0
ARC
  5
3C581
  8
0
 10
2954.3720689756191859
 20
262.6082646891778722
 30
0.0
 40
0.0482207503972829
 50
287.1261661157951153
 51
347.5202651536791905
  0
ARC
  5
3C582
  8
0
 10
2953.662838516489046
 20
262.5585373808372083
 30
0.0
 40
0.0037029755870552
 50
100.1755316778940994
 51
131.5882311474437074
  0
ARC
  5
3C583
  8
0
 10
2953.5907972142999824
 20
262.60611372881732
 30
0.0
 40
0.0827616538906327
 50
270.0
 51
327.2213309311048874
  0
ARC
  5
3C584
  8
0
 10
2953.6669287520398939
 20
262.5434895550801002
 30
0.0
 40
0.0080368513760896
 50
93.2276170553144397
 51
144.0436998028486926
  0
ARC
  5
3C585
  8
0
 10
2953.5908043767321942
 20
262.6062707686007229
 30
0.0
 40
0.0906532044408581
 50
269.99547310955478
 51
320.1718299629965827
  0
ARC
  5
3C586
  8
0
 10
2953.6973196085041309
 20
262.6712970114508039
 30
0.0
 40
0.0214121094682181
 50
215.0882769655231925
 51
267.2034308614096858
  0
ARC
  5
3C587
  8
0
 10
2953.5908013298258084
 20
262.6008441746877793
 30
0.0
 40
0.1063076235624027
 50
33.1576288899504519
 51
90.0022181120627067
  0
LINE
  5
3C588
  8
0
 10
2953.6782656501682141
 20
262.6612701869270268
 30
0.0
 11
2953.6664773837101166
 21
262.6612617231480726
 31
0.0
  0
ARC
  5
3C589
  8
0
 10
2953.6664717230742099
 20
262.669145801616196
 30
0.0
 40
0.0078840805002339
 50
219.8240791020679978
 51
270.0411374079487246
  0
ARC
  5
3C58A
  8
0
 10
2953.5907959067749289
 20
262.6060411891215836
 30
0.0
 40
0.0906502855380471
 50
39.824079102068012
 51
89.9991735745203698
  0
LINE
  5
3C58B
  8
0
 10
2957.0946336696720209
 20
242.6277593922480946
 30
0.0
 11
2957.0946336696720209
 21
231.6762851746298963
 31
0.0
  0
LINE
  5
3C58C
  8
0
 10
2957.6773102877250494
 20
242.6277593922480946
 30
0.0
 11
2957.6773102877250494
 21
231.7021740975675925
 31
0.0
  0
ARC
  5
3C58D
  8
0
 10
2964.4441279589559599
 20
232.2298459142079992
 30
0.0
 40
6.7842367237853951
 50
184.1066942085145968
 51
241.1389191613604055
  0
ARC
  5
3C58E
  8
0
 10
2956.8107922500430504
 20
218.7513605704513964
 30
0.0
 40
8.7091088709057551
 50
0.1080487811467515
 51
59.9517426444479824
  0
ARC
  5
3C58F
  8
0
 10
2952.8691648131389229
 20
218.7439274130919955
 30
0.0
 40
12.6507433165614103
 50
327.6978573208257899
 51
0.1080487811467515
  0
ARC
  5
3C590
  8
0
 10
2952.6127563255240602
 20
218.9041051498780917
 30
0.0
 40
12.9530670167879993
 50
301.4083685769127783
 51
327.7050746862140045
  0
ARC
  5
3C591
  8
0
 10
2955.7889019206718331
 20
213.7024519452228049
 30
0.0
 40
6.8583892645948827
 50
245.3043364517374982
 51
301.4083685769127783
  0
ARC
  5
3C592
  8
0
 10
2955.931472813776054
 20
214.0124851053124928
 30
0.0
 40
7.1996326087288898
 50
180.7812074974991106
 51
245.3043364517374982
  0
LINE
  5
3C593
  8
0
 10
2948.7325094130901562
 20
213.9143237266480924
 30
0.0
 11
2948.7325094130901562
 21
215.9557715338482069
 31
0.0
  0
LINE
  5
3C594
  8
0
 10
2949.3152028728900405
 20
215.9557715338482069
 30
0.0
 11
2949.3148563119898427
 21
213.9143190259981111
 31
0.0
  0
ARC
  5
3C595
  8
0
 10
2955.7817553050249444
 20
213.9132211928001936
 30
0.0
 40
6.4668990862192368
 50
179.9902733584800103
 51
217.2440129623392124
  0
ARC
  5
3C596
  8
0
 10
2955.7643397530910079
 20
213.8999809712414049
 30
0.0
 40
6.4450220453755991
 50
217.2440129623392124
 51
267.4655388016569191
  0
ARC
  5
3C597
  8
0
 10
2955.7629202964740216
 20
213.8679126875146039
 30
0.0
 40
6.4129223619150011
 50
267.4655388016569191
 51
297.9132775099466244
  0
ARC
  5
3C598
  8
0
 10
2952.8457408691388082
 20
218.737284790428788
 30
0.0
 40
12.0850917754854503
 50
299.3275040808064205
 51
342.1809185480394717
  0
ARC
  5
3C599
  8
0
 10
2952.7848053040311243
 20
218.7676589891451044
 30
0.0
 40
12.1524033316547104
 50
342.1324976897998908
 51
0.0006127686946626
  0
ARC
  5
3C59A
  8
0
 10
2956.8508333378122188
 20
218.7687848246903002
 30
0.0
 40
8.0863753585007956
 50
359.992943808510006
 51
37.7219850380847603
  0
ARC
  5
3C59B
  8
0
 10
2956.6650593796530302
 20
218.6040391088480135
 30
0.0
 40
8.3341335843935784
 50
37.8364499108870476
 51
59.5267430967246369
  0
ARC
  5
3C59C
  8
0
 10
2965.0500147464558722
 20
232.8540739404265025
 30
0.0
 40
8.1998002852122056
 50
214.390614045498495
 51
239.5267430967246867
  0
ARC
  5
3C59D
  8
0
 10
2963.9601506849539874
 20
232.1080906546781932
 30
0.0
 40
6.8790827775023891
 50
183.5988675107209076
 51
214.390614045498495
  0
ARC
  5
3C59E
  8
0
 10
2948.5793423387408438
 20
217.3651882692217043
 30
0.0
 40
0.0079061330215175
 50
90.1675259808025658
 51
185.3189221679577088
  0
LINE
  5
3C59F
  8
0
 10
2948.5793192221899517
 20
217.3730943684481929
 30
0.0
 11
2949.4684131694912139
 21
217.3730943684481929
 31
0.0
  0
ARC
  5
3C5A0
  8
0
 10
2949.4684131694912139
 20
217.3652203527481106
 30
0.0
 40
0.0078740157000041
 50
0.0000000000260551
 51
89.9999999999739515
  0
ARC
  5
3C5A1
  8
0
 10
2948.2597029907228716
 20
217.4859783445843107
 30
0.0
 40
0.0665339765071488
 50
12.1219795800042203
 51
84.8098669578614732
  0
LINE
  5
3C5A2
  8
0
 10
2948.3247534426409402
 20
217.4999500565481867
 30
0.0
 11
2948.3291326219909934
 21
217.4501188617481091
 31
0.0
  0
ARC
  5
3C5A3
  8
0
 10
2948.3487427537897929
 20
217.4518345259481862
 30
0.0
 40
0.0196850394000024
 50
185.0000000000038085
 51
270.0
  0
LINE
  5
3C5A4
  8
0
 10
2948.3487427537897929
 20
217.4321494865480986
 30
0.0
 11
2949.6989896374898308
 21
217.4321494865480133
 31
0.0
  0
ARC
  5
3C5A5
  8
0
 10
2949.6989896374898308
 20
217.4518345262920889
 30
0.0
 40
0.0196850397441537
 50
270.0
 51
354.9999991699849033
  0
LINE
  5
3C5A6
  8
0
 10
2949.7185997696901723
 20
217.4501188617481091
 30
0.0
 11
2949.722851253276076
 21
217.4987135333882122
 31
0.0
  0
ARC
  5
3C5A7
  8
0
 10
2949.7745249725981012
 20
217.4941926679910011
 30
0.0
 40
0.0518711046010095
 50
129.7519646166286975
 51
174.9999991699849033
  0
ARC
  5
3C5A8
  8
0
 10
2949.7952077971649487
 20
217.4693260088710076
 30
0.0
 40
0.0842150370744609
 50
99.2425605500402952
 51
129.7519646166286975
  0
ARC
  5
3C5A9
  8
0
 10
2948.7068377424220671
 20
215.8749287639415968
 30
0.0
 40
1.734345625920424
 50
98.0833627563307715
 51
104.7345676883582968
  0
ARC
  5
3C5AA
  8
0
 10
2949.0266918402880947
 20
209.2839073097289031
 30
0.0
 40
8.3272386920329673
 50
86.3334724497397445
 51
93.8817063942604619
  0
ARC
  5
3C5AB
  8
0
 10
2949.397000402796948
 20
216.1128184261249032
 30
0.0
 40
1.4901382859687491
 50
75.0396005566285282
 51
83.7505449174573755
  0
LINE
  5
3C5AC
  8
0
 10
2949.3841024162911708
 20
217.4321494865480133
 30
0.0
 11
2949.3841024162911708
 21
217.3927794078481952
 31
0.0
  0
ARC
  5
3C5AD
  8
0
 10
2949.4038353683931746
 20
217.3927794078481952
 30
0.0
 40
0.019732952102858
 50
180.0
 51
266.0064893377314093
  0
LINE
  5
3C5AE
  8
0
 10
2948.6636299753909043
 20
217.4321494865480986
 30
0.0
 11
2948.6636299753909043
 21
217.3927794078481952
 31
0.0
  0
ARC
  5
3C5AF
  8
0
 10
2948.6439449359909304
 20
217.3927794078481952
 30
0.0
 40
0.019685039400001
 50
270.0
 51
0.0000000000016284
  0
ENDSEC
  0
EOF
