  0
SECTION
  2
HEADER
  9
$ACADVER
  1
AC1009
  9
$INSBASE
 10
3159.2541636877240308
 20
200.6278716066939012
 30
0.0
  9
$EXTMIN
 10
3152.3055298918739027
 20
178.7839256420847107
 30
0.0
  9
$EXTMAX
 10
3171.7419683080370305
 20
200.6278716066939012
 30
0.0
  9
$LIMMIN
 10
0.0
 20
0.0
  9
$LIMMAX
 10
11.6929133858000007
 20
8.2677165353999982
  9
$ORTHOMODE
 70
     0
  9
$REGENMODE
 70
     1
  9
$FILLMODE
 70
     1
  9
$QTEXTMODE
 70
     0
  9
$MIRRTEXT
 70
     0
  9
$DRAGMODE
 70
     2
  9
$LTSCALE
 40
0.6431102362
  9
$OSMODE
 70
  4095
  9
$ATTMODE
 70
     1
  9
$TEXTSIZE
 40
0.2
  9
$TRACEWID
 40
0.05
  9
$TEXTSTYLE
  7
STANDARD
  9
$CLAYER
  8
0
  9
$CELTYPE
  6
BYLAYER
  9
$CECOLOR
 62
   256
  9
$DIMSCALE
 40
1.0
  9
$DIMASZ
 40
0.1875
  9
$DIMEXO
 40
0.0625
  9
$DIMDLI
 40
0.4443307087
  9
$DIMRND
 40
0.0
  9
$DIMDLE
 40
0.0
  9
$DIMEXE
 40
0.125
  9
$DIMTP
 40
0.01
  9
$DIMTM
 40
0.01
  9
$DIMTXT
 40
2.0
  9
$DIMCEN
 40
0.1052362205
  9
$DIMTSZ
 40
0.0
  9
$DIMTOL
 70
     1
  9
$DIMLIM
 70
     0
  9
$DIMTIH
 70
     1
  9
$DIMTOH
 70
     1
  9
$DIMSE1
 70
     0
  9
$DIMSE2
 70
     0
  9
$DIMTAD
 70
     0
  9
$DIMZIN
 70
     0
  9
$DIMBLK
  1

  9
$DIMASO
 70
     1
  9
$DIMSHO
 70
     1
  9
$DIMPOST
  1
\X
  9
$DIMAPOST
  1

  9
$DIMALT
 70
     1
  9
$DIMALTD
 70
     2
  9
$DIMALTF
 40
25.3999999999999986
  9
$DIMLFAC
 40
1.0
  9
$DIMTOFL
 70
     0
  9
$DIMTVP
 40
0.0
  9
$DIMTIX
 70
     0
  9
$DIMSOXD
 70
     0
  9
$DIMSAH
 70
     0
  9
$DIMBLK1
  1

  9
$DIMBLK2
  1

  9
$DIMSTYLE
  2
STANDARD
  9
$DIMCLRD
 70
     0
  9
$DIMCLRE
 70
     0
  9
$DIMCLRT
 70
     0
  9
$DIMTFAC
 40
1.0
  9
$DIMGAP
 40
0.09
  9
$LUNITS
 70
     2
  9
$LUPREC
 70
     4
  9
$SKETCHINC
 40
0.1
  9
$FILLETRAD
 40
0.0
  9
$AUNITS
 70
     0
  9
$AUPREC
 70
     0
  9
$MENU
  1
.
  9
$ELEVATION
 40
0.0
  9
$PELEVATION
 40
0.0
  9
$THICKNESS
 40
0.0
  9
$LIMCHECK
 70
     0
  9
$BLIPMODE
 70
     0
  9
$CHAMFERA
 40
0.0
  9
$CHAMFERB
 40
0.0
  9
$SKPOLY
 70
     0
  9
$TDCREATE
 40
2458060.468368056230247
  9
$TDUPDATE
 40
2459423.781770832836628
  9
$TDINDWG
 40
0.7070440972000001
  9
$TDUSRTIMER
 40
0.7070440972000001
  9
$USRTIMER
 70
     1
  9
$ANGBASE
 50
0.0
  9
$ANGDIR
 70
     0
  9
$PDMODE
 70
     0
  9
$PDSIZE
 40
0.3125
  9
$PLINEWID
 40
0.0
  9
$COORDS
 70
     1
  9
$SPLFRAME
 70
     0
  9
$SPLINETYPE
 70
     6
  9
$SPLINESEGS
 70
     8
  9
$ATTDIA
 70
     1
  9
$ATTREQ
 70
     1
  9
$HANDLING
 70
     1
  9
$HANDSEED
  5
3CAAD
  9
$SURFTAB1
 70
     6
  9
$SURFTAB2
 70
     6
  9
$SURFTYPE
 70
     6
  9
$SURFU
 70
     6
  9
$SURFV
 70
     6
  9
$UCSNAME
  2

  9
$UCSORG
 10
0.0
 20
0.0
 30
0.0
  9
$UCSXDIR
 10
1.0
 20
0.0
 30
0.0
  9
$UCSYDIR
 10
0.0
 20
1.0
 30
0.0
  9
$PUCSNAME
  2

  9
$PUCSORG
 10
0.0
 20
0.0
 30
0.0
  9
$PUCSXDIR
 10
1.0
 20
0.0
 30
0.0
  9
$PUCSYDIR
 10
0.0
 20
1.0
 30
0.0
  9
$USERI1
 70
     0
  9
$USERI2
 70
     0
  9
$USERI3
 70
     0
  9
$USERI4
 70
     0
  9
$USERI5
 70
     0
  9
$USERR1
 40
0.0
  9
$USERR2
 40
0.0
  9
$USERR3
 40
0.0
  9
$USERR4
 40
0.0
  9
$USERR5
 40
0.0
  9
$WORLDVIEW
 70
     1
  9
$SHADEDGE
 70
     3
  9
$SHADEDIF
 70
    70
  9
$TILEMODE
 70
     1
  9
$MAXACTVP
 70
    64
  9
$PLIMCHECK
 70
     0
  9
$PEXTMIN
 10
1.0000000000000000E+20
 20
1.0000000000000000E+20
 30
1.0000000000000000E+20
  9
$PEXTMAX
 10
-1.0000000000000000E+20
 20
-1.0000000000000000E+20
 30
-1.0000000000000000E+20
  9
$PLIMMIN
 10
0.0
 20
0.0
  9
$PLIMMAX
 10
12.0
 20
9.0
  9
$UNITMODE
 70
     0
  9
$VISRETAIN
 70
     1
  9
$PLINEGEN
 70
     0
  9
$PSLTSCALE
 70
     1
  0
ENDSEC
  0
SECTION
  2
TABLES
  0
TABLE
  2
VPORT
 70
     1
  0
VPORT
  2
*ACTIVE
 70
     0
 10
0.0
 20
0.0
 11
1.0
 21
1.0
 12
-141.619247480556794
 22
-5.5581948715602598
 13
0.0
 23
0.0
 14
1.0
 24
1.0
 15
0.0
 25
0.0
 16
0.0
 26
0.0
 36
96.5995694866707311
 17
3303.693115234375
 27
195.2615115758877096
 37
0.0
 40
22.0619501413914882
 41
2.8440779610194902
 42
50.0
 43
0.0
 44
0.0
 50
0.0
 51
0.0
 71
     0
 72
   100
 73
     1
 74
     1
 75
     0
 76
     0
 77
     0
 78
     0
  0
ENDTAB
  0
TABLE
  2
LTYPE
 70
     2
  0
LTYPE
  2
CONTINUOUS
 70
     0
  3
Solid line
 72
    65
 73
     0
 40
0.0
  0
LTYPE
  2
PHANTOM2
 70
     0
  3
___ _ _ ___ _ _ ___ _ _ ___ _ _
 72
    65
 73
     6
 40
1.25
 49
0.625
 49
-0.125
 49
0.125
 49
-0.125
 49
0.125
 49
-0.125
  0
ENDTAB
  0
TABLE
  2
LAYER
 70
     2
  0
LAYER
  2
0
 70
     0
 62
   255
  6
CONTINUOUS
  0
LAYER
  2
DEFPOINTS
 70
     0
 62
     7
  6
CONTINUOUS
  0
ENDTAB
  0
TABLE
  2
STYLE
 70
     1
  0
STYLE
  2
STANDARD
 70
     0
 40
0.0
 41
0.8
 50
0.0
 71
     0
 42
0.2
  3
txt
  4

  0
ENDTAB
  0
TABLE
  2
VIEW
 70
     0
  0
ENDTAB
  0
TABLE
  2
UCS
 70
     0
  0
ENDTAB
  0
TABLE
  2
APPID
 70
     9
  0
APPID
  2
ACAD
 70
     0
  0
APPID
  2
ACAD_MLEADERVER
 70
     0
  0
APPID
  2
ACAD_EXEMPT_FROM_CAD_STANDARDS
 70
     0
  0
APPID
  2
ACAD_NAV_VCDISPLAY
 70
     0
  0
APPID
  2
ACAECLAYERSTANDARD
 70
     0
  0
APPID
  2
ACCMTRANSPARENCY
 70
     0
  0
APPID
  2
ACAD_DSTYLE_DIMJAG
 70
     0
  0
APPID
  2
ACAD_DSTYLE_DIMTALN
 70
     0
  0
APPID
  2
ACDBATTR
 70
     0
  0
ENDTAB
  0
TABLE
  2
DIMSTYLE
 70
     1
  0
DIMSTYLE
  2
STANDARD
 70
     0
  3

  4

  5

  6

  7

 40
1.0
 41
0.1875
 42
0.0625
 43
0.38
 44
0.125
 45
0.0
 46
0.0
 47
0.01
 48
0.01
140
0.15625
141
0.09
142
0.0
143
25.3999999999999986
144
1.0
145
0.0
146
1.0
147
0.09
 71
     1
 72
     0
 73
     1
 74
     1
 75
     0
 76
     0
 77
     0
 78
     4
170
     0
171
     2
172
     0
173
     0
174
     0
175
     0
176
     0
177
     0
178
     0
  0
ENDTAB
  0
ENDSEC
  0
SECTION
  2
BLOCKS
  0
BLOCK
  8
0
  2
$MODEL_SPACE
 70
     0
 10
0.0
 20
0.0
 30
0.0
  3
$MODEL_SPACE
  1

  0
ENDBLK
  5
21
  8
0
  0
BLOCK
 67
     1
  8
0
  2
$PAPER_SPACE
 70
     0
 10
0.0
 20
0.0
 30
0.0
  3
$PAPER_SPACE
  1

  0
ENDBLK
  5
1D
 67
     1
  8
0
  0
ENDSEC
  0
SECTION
  2
ENTITIES
  0
ATTDEF
  5
340AC
  8
DEFPOINTS
 10
3159.2487888724717777
 20
200.6252024371777907
 30
0.0
 40
0.001
  1
K-26329T-9
  3

  2
MODELNUMBER
 70
     0
1001
ACDBATTR
1070
     0
1070
     1
  0
ATTDEF
  5
340AD
  8
DEFPOINTS
 10
3159.2487888724717777
 20
200.6235357705110971
 30
0.0
 40
0.001
  1

  3

  2
TRADENAME
 70
     0
1001
ACDBATTR
1070
     0
1070
     1
  0
ATTDEF
  5
340AE
  8
DEFPOINTS
 10
3159.2487888724717777
 20
200.6218691038444888
 30
0.0
 40
0.001
  1
BATH AND SHOWER FAUCET
  3

  2
PRODUCT
 70
     0
1001
ACDBATTR
1070
     0
1070
     1
  0
LINE
  5
3C834
  8
0
 10
3161.4690276222859211
 20
198.6655987392896066
 30
0.0
 11
3161.4667819324859011
 21
198.5432420703895957
 31
0.0
  0
LINE
  5
3C835
  8
0
 10
3161.6416960647861742
 20
198.646134671589607
 30
0.0
 11
3161.6409863544859036
 21
198.5586896615897103
 31
0.0
  0
LINE
  5
3C836
  8
0
 10
3161.5622315862860887
 20
198.7464669562895949
 30
0.0
 11
3161.5610787029859239
 21
198.6208259149896094
 31
0.0
  0
LINE
  5
3C837
  8
0
 10
3161.9900050866858692
 20
198.6544611416896089
 30
0.0
 11
3161.9907875865419555
 21
198.5649764158808921
 31
0.0
  0
LINE
  5
3C838
  8
0
 10
3161.6865454896860683
 20
198.5596680332897108
 30
0.0
 11
3161.9990661124861617
 21
198.5651208586895962
 31
0.0
  0
LINE
  5
3C839
  8
0
 10
3161.6664066026860382
 20
198.6441944504896071
 30
0.0
 11
3161.9808630830871152
 21
198.6494816709895872
 31
0.0
  0
ARC
  5
3C83A
  8
0
 10
3162.2572580676678626
 20
196.3822777325229936
 30
0.0
 40
2.533476420689547
 50
90.0009172358545442
 51
90.2115718988430189
  0
ARC
  5
3C83B
  8
0
 10
3162.4472349980010222
 20
208.5799944304056055
 30
0.0
 40
12.6976378885206405
 50
265.9589192022644966
 51
269.1425486692527898
  0
ARC
  5
3C83C
  8
0
 10
3162.0239155940830642
 20
201.6997463934181951
 30
0.0
 40
5.805001128563358
 50
255.9207146292905861
 51
265.3410815060228742
  0
ARC
  5
3C83D
  8
0
 10
3161.160684273066181
 20
198.4085033386782015
 30
0.0
 40
2.4029131502870662
 50
240.5765427078717948
 51
256.7948274736485246
  0
ARC
  5
3C83E
  8
0
 10
3160.3091485988711611
 20
196.9144693873799952
 30
0.0
 40
0.6833085898620213
 50
214.1474121587806962
 51
241.2254530957017096
  0
ARC
  5
3C83F
  8
0
 10
3160.0148211321020426
 20
196.6993445907856994
 30
0.0
 40
0.3192272651252471
 50
186.3027359535986136
 51
211.8452192327787031
  0
ARC
  5
3C840
  8
0
 10
3101.8634485323859735
 20
198.1952055890027111
 30
0.0
 40
57.8543333404283189
 50
358.4836967903767118
 51
359.1950460982765208
  0
ARC
  5
3C841
  8
0
 10
3160.5659866205669459
 20
197.3355190727683066
 30
0.0
 40
0.8552018692195856
 50
126.262263383842793
 51
176.8554564468574029
  0
ARC
  5
3C842
  8
0
 10
3161.2560562127400772
 20
196.3326280652474054
 30
0.0
 40
2.0723412282736251
 50
103.3438674759181026
 51
125.2454140659577035
  0
ARC
  5
3C843
  8
0
 10
3162.0072721333540358
 20
193.7447562793774978
 30
0.0
 40
4.7655984844829202
 50
96.9919178026945445
 51
104.9511363030296991
  0
ARC
  5
3C844
  8
0
 10
3161.3847803191629282
 20
198.5451422363703955
 30
0.0
 40
0.0820236259763817
 50
301.1087735361945761
 51
358.6725625685311911
  0
ARC
  5
3C845
  8
0
 10
3161.5665917672358773
 20
198.6685062316024926
 30
0.0
 40
0.0976074581743703
 50
181.7069564860223068
 51
223.1319803619153106
  0
ARC
  5
3C846
  8
0
 10
3161.8052814081920587
 20
198.933087812053401
 30
0.0
 40
0.4536743293831392
 50
226.9107372045399984
 51
256.8556067548336728
  0
ARC
  5
3C847
  8
0
 10
3162.1505730423550631
 20
200.0229408900756027
 30
0.0
 40
1.595945144308156
 50
253.6801307702531005
 51
264.1237258885263941
  0
ARC
  5
3C848
  8
0
 10
3162.2758945407308602
 20
201.2451649791507862
 30
0.0
 40
2.8245773421351479
 50
264.1332413917294843
 51
269.6211387702919069
  0
ARC
  5
3C849
  8
0
 10
3161.5863181155250459
 20
198.6566329207788044
 30
0.0
 40
0.1176326727814848
 50
130.2389961285934987
 51
175.6287464216692058
  0
ARC
  5
3C84A
  8
0
 10
3161.7190010477002033
 20
198.5194566004142871
 30
0.0
 40
0.3083177940288064
 50
117.7534978849595007
 51
132.5944645634708081
  0
ARC
  5
3C84B
  8
0
 10
3161.6181868133940043
 20
198.6577811184442055
 30
0.0
 40
0.0692626025345171
 50
144.5175826051871013
 51
194.7295193791009922
  0
ARC
  5
3C84C
  8
0
 10
3161.6210524969669677
 20
198.6636457830080928
 30
0.0
 40
0.0736912278467113
 50
198.57589256253641
 51
215.525937488593712
  0
ARC
  5
3C84D
  8
0
 10
3161.7340147030267872
 20
198.7607737839041988
 30
0.0
 40
0.2224685733399309
 50
218.9813974804775114
 51
245.2812726977475961
  0
ARC
  5
3C84E
  8
0
 10
3162.0449127220308583
 20
199.4257184874508084
 30
0.0
 40
0.9565016964292768
 50
245.0204025911305905
 51
261.5792542452412022
  0
ARC
  5
3C84F
  8
0
 10
3162.2278445073898183
 20
200.3785774765393057
 30
0.0
 40
1.9263224221314561
 50
260.3471243934283734
 51
266.0890536926207233
  0
ARC
  5
3C850
  8
0
 10
3162.2655739811129934
 20
201.0027836774324044
 30
0.0
 40
2.5516531538652099
 50
266.1998196597775745
 51
269.8123603148255256
  0
ARC
  5
3C851
  8
0
 10
3161.6555686669639726
 20
198.7444163088995879
 30
0.0
 40
0.0933596046698338
 50
149.1393617269592085
 51
178.7413947296298034
  0
ARC
  5
3C852
  8
0
 10
3161.7398228213360198
 20
198.6855201074536978
 30
0.0
 40
0.1960331825096723
 50
118.8308286141170953
 51
146.993782170124291
  0
ARC
  5
3C853
  8
0
 10
3161.9745676842881039
 20
198.2674152551954023
 30
0.0
 40
0.6755246967545333
 50
103.4463184872973045
 51
119.1723836297174017
  0
ARC
  5
3C854
  8
0
 10
3162.1903768231040885
 20
197.438641177163305
 30
0.0
 40
1.5318598939332939
 50
95.4915158627331948
 51
104.0887273588905941
  0
ARC
  5
3C855
  8
0
 10
3162.2543989815858367
 20
196.868684493303391
 30
0.0
 40
2.1053475417258989
 50
90.6922095296549884
 51
95.7414647096475164
  0
ARC
  5
3C856
  8
0
 10
3162.2289895191611322
 20
198.9554287582203926
 30
0.0
 40
0.0184496492055265
 50
359.3006163337529983
 51
90.078658608843682
  0
ARC
  5
3C857
  8
0
 10
3131.3561492222370362
 20
198.6037363132666087
 30
0.0
 40
30.8933292168407192
 50
0.1693495229571831
 51
0.6516127673929856
  0
ARC
  5
3C858
  8
0
 10
3162.269627742465218
 20
194.4303846363416142
 30
0.0
 40
4.2647114053102531
 50
90.1667299123595853
 51
90.2725169654004844
  0
ARC
  5
3C859
  8
0
 10
3162.2558321626838733
 20
197.8825874327980898
 30
0.0
 40
0.8124862798708015
 50
90.457579767526525
 51
93.8151731251650318
  0
ARC
  5
3C85A
  8
0
 10
3162.2429475302228639
 20
198.0275088952681983
 30
0.0
 40
0.6670364005419654
 50
93.5391645306918917
 51
102.097562234482794
  0
ARC
  5
3C85B
  8
0
 10
3162.1554357919758331
 20
198.4054072209135882
 30
0.0
 40
0.2792625866911651
 50
100.7906288362108995
 51
120.5916136247786028
  0
ARC
  5
3C85C
  8
0
 10
3162.0599073302528268
 20
198.5726697940889949
 30
0.0
 40
0.0867124658870795
 50
122.5015684218904966
 51
143.4272032636052074
  0
ARC
  5
3C85D
  8
0
 10
3161.9701739083670873
 20
198.6542933124453896
 30
0.0
 40
0.0198318884673371
 50
0.4848767765354411
 51
60.6001499040661287
  0
ARC
  5
3C85E
  8
0
 10
3162.0129788242511495
 20
198.7233790373201998
 30
0.0
 40
0.0614625326698044
 50
218.4192360674927897
 51
237.4495640954137059
  0
ARC
  5
3C85F
  8
0
 10
3161.9805167451731904
 20
198.6974596511502114
 30
0.0
 40
0.0199228552504548
 50
157.3545106918087981
 51
218.030532836535798
  0
ARC
  5
3C860
  8
0
 10
3162.019441793920123
 20
198.6801173175352915
 30
0.0
 40
0.0625325455450941
 50
120.3043947299159981
 51
156.4216456101551103
  0
ARC
  5
3C861
  8
0
 10
3162.1677446693211095
 20
198.4049629271002004
 30
0.0
 40
0.3750772956195036
 50
97.092800744494653
 51
118.6539437098865051
  0
ARC
  5
3C862
  8
0
 10
3162.2472733719428106
 20
197.9733586003069092
 30
0.0
 40
0.8136024039693825
 50
91.1280070353553526
 51
98.8978117169042861
  0
ARC
  5
3C863
  8
0
 10
3162.2310684210269756
 20
198.8274170837686938
 30
0.0
 40
0.040614184810835
 50
270.2655570309843256
 51
288.3594194203656116
  0
ARC
  5
3C864
  8
0
 10
3162.2414066768828889
 20
198.7969173010349948
 30
0.0
 40
0.0084130548519539
 50
286.9610855217978838
 51
332.93073275401008
  0
ARC
  5
3C865
  8
0
 10
3161.6664935684930242
 20
198.7571832942030881
 30
0.0
 40
0.1048112629065504
 50
185.8684130097163063
 51
229.1489782894815903
  0
ARC
  5
3C866
  8
0
 10
3161.7683609009782231
 20
198.8666314529054944
 30
0.0
 40
0.2542888344134617
 50
227.9176731063627983
 51
240.1246965113043927
  0
ARC
  5
3C867
  8
0
 10
3161.6587495129488161
 20
198.7050002796144099
 30
0.0
 40
0.0612860496263377
 50
253.8436243070194109
 51
277.1773009515291051
  0
ARC
  5
3C868
  8
0
 10
3161.9781425246837898
 20
198.6653582648048939
 30
0.0
 40
0.0161080001695033
 50
279.7235701895154989
 51
317.42896295184471
  0
ARC
  5
3C869
  8
0
 10
3161.6866152589059311
 20
198.5403882260683019
 30
0.0
 40
0.0192799334603073
 50
90.2073394364318375
 51
161.6049144805348874
  0
ARC
  5
3C86A
  8
0
 10
3161.9995283318030488
 20
198.5484252454666034
 30
0.0
 40
0.0167020102859609
 50
68.8481077252098146
 51
91.5858329190108833
  0
ARC
  5
3C86B
  8
0
 10
3162.1446374357087734
 20
198.8882079272252952
 30
0.0
 40
0.3527795068513307
 50
246.7809695500598934
 51
256.290869048120328
  0
ARC
  5
3C86C
  8
0
 10
3162.2277267721979115
 20
199.2256791665058984
 30
0.0
 40
0.7003286348942306
 50
256.2300067716507215
 51
264.5471713954510733
  0
ARC
  5
3C86D
  8
0
 10
3162.2864370618572138
 20
200.1008023866361043
 30
0.0
 40
1.5772643868442979
 50
265.4450076329811736
 51
268.9385084698321862
  0
LINE
  5
3C86E
  8
0
 10
3163.0454073972859987
 20
198.6655987392896066
 30
0.0
 11
3163.0476530870860188
 21
198.5432420703895957
 31
0.0
  0
LINE
  5
3C86F
  8
0
 10
3162.8727389547862003
 20
198.646134671589607
 30
0.0
 11
3162.8734486650860163
 21
198.5586896615897103
 31
0.0
  0
LINE
  5
3C870
  8
0
 10
3162.9522034332858311
 20
198.7464669562895949
 30
0.0
 11
3162.953356316585996
 21
198.6208259149896094
 31
0.0
  0
LINE
  5
3C871
  8
0
 10
3162.5244299328860507
 20
198.6544611416896089
 30
0.0
 11
3162.5236474330299643
 21
198.5649764158808921
 31
0.0
  0
LINE
  5
3C872
  8
0
 10
3162.8278895298858515
 20
198.5596680332897108
 30
0.0
 11
3162.5153689070871224
 21
198.5651208586895962
 31
0.0
  0
LINE
  5
3C873
  8
0
 10
3162.8480284168858816
 20
198.6441944504896071
 30
0.0
 11
3162.5335719364861689
 21
198.6494816709895872
 31
0.0
  0
ARC
  5
3C874
  8
0
 10
3162.2571769519049667
 20
196.3822777325229936
 30
0.0
 40
2.533476420689547
 50
89.7884281011569954
 51
89.9990827641194073
  0
ARC
  5
3C875
  8
0
 10
3162.0672000215708977
 20
208.5799944304052929
 30
0.0
 40
12.6976378885203403
 50
270.8574513307472102
 51
274.0410807977355034
  0
ARC
  5
3C876
  8
0
 10
3162.4905194254888556
 20
201.6997463934181951
 30
0.0
 40
5.805001128563358
 50
274.6589184939771258
 51
284.0792853707093855
  0
ARC
  5
3C877
  8
0
 10
3163.353750746507103
 20
198.4085033386782015
 30
0.0
 40
2.4029131502870662
 50
283.2051725263261233
 51
299.4234572921282052
  0
ARC
  5
3C878
  8
0
 10
3164.2052864207012135
 20
196.9144693873799952
 30
0.0
 40
0.6833085898620213
 50
298.7745469042982904
 51
325.8525878412194174
  0
ARC
  5
3C879
  8
0
 10
3164.4978580200408942
 20
196.7001803905573922
 30
0.0
 40
0.3211598962710814
 50
328.1933959702269021
 51
353.4344506837696827
  0
ARC
  5
3C87A
  8
0
 10
3072.6465609181041145
 20
195.1579437884398942
 30
0.0
 40
92.1826454951798553
 50
0.9357889813105924
 51
1.3827561079646811
  0
ARC
  5
3C87B
  8
0
 10
3163.9484483990058834
 20
197.3355190727683066
 30
0.0
 40
0.8552018692195856
 50
3.14454355314261
 51
53.7377366161571715
  0
ARC
  5
3C87C
  8
0
 10
3163.2583788068318427
 20
196.3326280652474054
 30
0.0
 40
2.0723412282736251
 50
54.7545859340422467
 51
76.6561325240818547
  0
ARC
  5
3C87D
  8
0
 10
3162.5071628862178841
 20
193.7447562793774978
 30
0.0
 40
4.7655984844829202
 50
75.0488636969703151
 51
83.0080821973054555
  0
ARC
  5
3C87E
  8
0
 10
3163.1296547004089916
 20
198.5451422363703955
 30
0.0
 40
0.0820236259763817
 50
181.3274374314686952
 51
238.8912264638053955
  0
ARC
  5
3C87F
  8
0
 10
3162.947843252336952
 20
198.6685062316024926
 30
0.0
 40
0.0976074581743703
 50
316.8680196380847178
 51
358.2930435139776932
  0
ARC
  5
3C880
  8
0
 10
3162.7091536113812253
 20
198.933087812053401
 30
0.0
 40
0.4536743293831392
 50
283.1443932451663272
 51
313.0892627954600016
  0
ARC
  5
3C881
  8
0
 10
3162.363861977218221
 20
200.0229408900756027
 30
0.0
 40
1.595945144308156
 50
275.8762741114734922
 51
286.3198692297469279
  0
ARC
  5
3C882
  8
0
 10
3162.2385404788419692
 20
201.2451649791507862
 30
0.0
 40
2.8245773421351479
 50
270.378861229682002
 51
275.8667586082705157
  0
ARC
  5
3C883
  8
0
 10
3162.9281169040477835
 20
198.6566329207788044
 30
0.0
 40
0.1176326727814848
 50
4.3712535783307924
 51
49.7610038714065013
  0
ARC
  5
3C884
  8
0
 10
3162.7954339718730807
 20
198.5194566004142871
 30
0.0
 40
0.3083177940288064
 50
47.4055354365292132
 51
62.246502115040478
  0
ARC
  5
3C885
  8
0
 10
3162.8962482061788251
 20
198.6577811184442055
 30
0.0
 40
0.0692626025345171
 50
345.2704806208989794
 51
35.4824173948128703
  0
ARC
  5
3C886
  8
0
 10
3162.8933825226058616
 20
198.6636457830080928
 30
0.0
 40
0.0736912278467113
 50
324.474062511405009
 51
341.42410743746359
  0
ARC
  5
3C887
  8
0
 10
3162.7804203165460422
 20
198.7607737839041988
 30
0.0
 40
0.2224685733399309
 50
294.7187273022524892
 51
321.018602519522517
  0
ARC
  5
3C888
  8
0
 10
3162.4695222975410616
 20
199.4257184874508084
 30
0.0
 40
0.9565016964292768
 50
278.4207457547331046
 51
294.9795974088693811
  0
ARC
  5
3C889
  8
0
 10
3162.2865905121821015
 20
200.3785774765393057
 30
0.0
 40
1.9263224221314561
 50
273.9109463073792767
 51
279.6528756065973198
  0
ARC
  5
3C88A
  8
0
 10
3162.248861038459836
 20
201.0027836774324044
 30
0.0
 40
2.5516531538652099
 50
270.1876396851744744
 51
273.8001803402223118
  0
ARC
  5
3C88B
  8
0
 10
3162.8588663526088567
 20
198.7444163088995879
 30
0.0
 40
0.0933596046698338
 50
1.2586052703702371
 51
30.8606382730407702
  0
ARC
  5
3C88C
  8
0
 10
3162.7746121982368095
 20
198.6855201074536978
 30
0.0
 40
0.1960331825096723
 50
33.0062178298757303
 51
61.1691713858828834
  0
ARC
  5
3C88D
  8
0
 10
3162.5398673352851802
 20
198.2674152551954023
 30
0.0
 40
0.6755246967545333
 50
60.8276163702826196
 51
76.5536815126773149
  0
ARC
  5
3C88E
  8
0
 10
3162.3240581964691955
 20
197.438641177163305
 30
0.0
 40
1.5318598939332939
 50
75.9112726411093632
 51
84.5084841372408846
  0
ARC
  5
3C88F
  8
0
 10
3162.2600360379869926
 20
196.868684493303391
 30
0.0
 40
2.1053475417258989
 50
84.2585352903524836
 51
89.3077904703450116
  0
ARC
  5
3C890
  8
0
 10
3162.2854455004121519
 20
198.9554287582203926
 30
0.0
 40
0.0184496492055265
 50
89.921341391156318
 51
180.6993836662470017
  0
ARC
  5
3C891
  8
0
 10
3193.1582857973357932
 20
198.6037363132666087
 30
0.0
 40
30.8933292168407192
 50
179.3483872326054041
 51
179.8306504770428091
  0
ARC
  5
3C892
  8
0
 10
3162.2448072771071566
 20
194.4303846363416142
 30
0.0
 40
4.2647114053102531
 50
89.7274830345995156
 51
89.8332700876404147
  0
ARC
  5
3C893
  8
0
 10
3162.2586028568880465
 20
197.8825874327980898
 30
0.0
 40
0.8124862798708015
 50
86.1848268748349682
 51
89.542420232473475
  0
ARC
  5
3C894
  8
0
 10
3162.2714874893499655
 20
198.0275088952681983
 30
0.0
 40
0.6670364005419654
 50
77.9024377655172344
 51
86.4608354693081225
  0
ARC
  5
3C895
  8
0
 10
3162.3589992275969962
 20
198.4054072209135882
 30
0.0
 40
0.2792625866911651
 50
59.408386375221383
 51
79.2093711637890436
  0
ARC
  5
3C896
  8
0
 10
3162.454527689319093
 20
198.5726697940889949
 30
0.0
 40
0.0867124658870795
 50
36.5727967363960573
 51
57.4984315781094892
  0
ARC
  5
3C897
  8
0
 10
3162.5442611112061968
 20
198.6542933124453896
 30
0.0
 40
0.0198318884673371
 50
119.3998500959338998
 51
179.5151232234645136
  0
ARC
  5
3C898
  8
0
 10
3162.5014561953212251
 20
198.7233790373201998
 30
0.0
 40
0.0614625326698044
 50
302.5504359045863225
 51
321.5807639325072955
  0
ARC
  5
3C899
  8
0
 10
3162.5339182744000937
 20
198.6974596511502114
 30
0.0
 40
0.0199228552504548
 50
321.9694671634641736
 51
22.6454893081926301
  0
ARC
  5
3C89A
  8
0
 10
3162.4949932256517968
 20
198.6801173175352915
 30
0.0
 40
0.0625325455450941
 50
23.5783543898448897
 51
59.6956052700839805
  0
ARC
  5
3C89B
  8
0
 10
3162.3466903502508103
 20
198.4049629271002004
 30
0.0
 40
0.3750772956195036
 50
61.3460562901135233
 51
82.907199255505347
  0
ARC
  5
3C89C
  8
0
 10
3162.2671616476300187
 20
197.9733586003069092
 30
0.0
 40
0.8136024039693825
 50
81.1021882830957139
 51
88.8719929646446616
  0
ARC
  5
3C89D
  8
0
 10
3162.2833665985449443
 20
198.8274170837686938
 30
0.0
 40
0.040614184810835
 50
251.6405805796345021
 51
269.7344429690156744
  0
ARC
  5
3C89E
  8
0
 10
3162.2730283426899405
 20
198.7969173010349948
 30
0.0
 40
0.0084130548519539
 50
207.0692672459898063
 51
253.0389144782020878
  0
ARC
  5
3C89F
  8
0
 10
3162.8479414510788956
 20
198.7571832942030881
 30
0.0
 40
0.1048112629065504
 50
310.851021710518296
 51
354.1315869902837221
  0
ARC
  5
3C8A0
  8
0
 10
3162.7460741185941515
 20
198.8666314529054944
 30
0.0
 40
0.2542888344134617
 50
299.8753034886955788
 51
312.0823268936371733
  0
ARC
  5
3C8A1
  8
0
 10
3162.8556855066240132
 20
198.7050002796144099
 30
0.0
 40
0.0612860496263377
 50
262.8226990484708949
 51
286.1563756929804754
  0
ARC
  5
3C8A2
  8
0
 10
3162.5362924948890395
 20
198.6653582648048939
 30
0.0
 40
0.0161080001695033
 50
222.57103704815529
 51
260.2764298104589216
  0
ARC
  5
3C8A3
  8
0
 10
3162.8278197606659887
 20
198.5403882260683019
 30
0.0
 40
0.0192799334603073
 50
18.3950855194651091
 51
89.7926605635681483
  0
ARC
  5
3C8A4
  8
0
 10
3162.5149066877688711
 20
198.5484252454666034
 30
0.0
 40
0.0167020102859609
 50
88.4141670809891451
 51
111.1518922747901996
  0
ARC
  5
3C8A5
  8
0
 10
3162.3697975838640559
 20
198.8882079272252952
 30
0.0
 40
0.3527795068513307
 50
283.7091309518539788
 51
293.2190304499400781
  0
ARC
  5
3C8A6
  8
0
 10
3162.2867082473740084
 20
199.2256791665058984
 30
0.0
 40
0.7003286348942306
 50
275.4528286045489267
 51
283.7699932283492785
  0
ARC
  5
3C8A7
  8
0
 10
3162.2279979577151607
 20
200.1008023866361043
 30
0.0
 40
1.5772643868442979
 50
271.0614915301678138
 51
274.5549923670188264
  0
LINE
  5
3C8A8
  8
0
 10
3153.0140062074237903
 20
200.5688164885939102
 30
0.0
 11
3153.0140062074237903
 21
195.0963747562938977
 31
0.0
  0
LINE
  5
3C8A9
  8
0
 10
3165.4943211680238164
 20
195.0963747562938977
 30
0.0
 11
3165.4943211680238164
 21
198.5959115844511018
 31
0.0
  0
LINE
  5
3C8AA
  8
0
 10
3165.4943211680238164
 20
199.1896475255013002
 30
0.0
 11
3165.4943211680238164
 21
200.5688164885939102
 31
0.0
  0
LINE
  5
3C8AB
  8
0
 10
3153.4077062074238711
 20
194.7026747562939022
 30
0.0
 11
3158.8480075085408316
 21
194.7026747562939022
 31
0.0
  0
LINE
  5
3C8AC
  8
0
 10
3159.6603198669067751
 20
194.7026747562939022
 30
0.0
 11
3165.1006211680241904
 21
194.7026747562939022
 31
0.0
  0
LINE
  5
3C8AD
  8
0
 10
3153.0730613255241224
 20
200.6278716066939012
 30
0.0
 11
3165.4352660499239391
 21
200.6278716066939012
 31
0.0
  0
LINE
  5
3C8AE
  8
0
 10
3153.0140062074237903
 20
200.5688164885939102
 30
0.0
 11
3158.1721636877241508
 21
200.5688164885939102
 31
0.0
  0
LINE
  5
3C8AF
  8
0
 10
3160.3361636877239107
 20
200.5688164885939102
 30
0.0
 11
3161.3298321130241675
 21
200.5688164885939102
 31
0.0
  0
LINE
  5
3C8B0
  8
0
 10
3163.1802258138241086
 20
200.5688164885939102
 30
0.0
 11
3165.4943211680238164
 21
200.5688164885939102
 31
0.0
  0
LINE
  5
3C8B1
  8
0
 10
3153.0730613255241224
 20
200.6278716066939012
 30
0.0
 11
3153.0730613255241224
 21
200.5688164885939102
 31
0.0
  0
ARC
  5
3C8B2
  8
0
 10
3153.4077062074238711
 20
195.0963747562938977
 30
0.0
 40
0.3937
 50
180.0000000000015916
 51
270.0
  0
ARC
  5
3C8B3
  8
0
 10
3165.1006211680241904
 20
195.0963747562938977
 30
0.0
 40
0.3937
 50
270.0
 51
359.9999999999984084
  0
LINE
  5
3C8B4
  8
0
 10
3165.4352660499239391
 20
200.5688164885939102
 30
0.0
 11
3165.4352660499239391
 21
200.6278716066939012
 31
0.0
  0
LINE
  5
3C8B5
  8
0
 10
3167.2070298295238899
 20
195.9231771184938111
 30
0.0
 11
3167.2070298295238899
 21
197.891621212993897
 31
0.0
  0
LINE
  5
3C8B6
  8
0
 10
3167.1282896720240387
 20
195.8837771184938106
 30
0.0
 11
3167.1282896720240387
 21
197.9310212129938975
 31
0.0
  0
LINE
  5
3C8B7
  8
0
 10
3167.1676298295237757
 20
197.9310212129938975
 30
0.0
 11
3167.1282896720240387
 21
197.9310212129938975
 31
0.0
  0
LINE
  5
3C8B8
  8
0
 10
3167.1203896720239754
 20
197.9310212129938975
 30
0.0
 11
3166.2406378786599817
 21
197.9310212129938975
 31
0.0
  0
ARC
  5
3C8B9
  8
0
 10
3167.1676298295237757
 20
197.891621212993897
 30
0.0
 40
0.0394
 50
359.9999999999984084
 51
90.0
  0
ARC
  5
3C8BA
  8
0
 10
3167.1203896720239754
 20
197.923121212993891
 30
0.0
 40
0.0079
 50
0.0000000000065138
 51
89.9999999999739515
  0
ARC
  5
3C8BB
  8
0
 10
3165.939805932703166
 20
197.2755998036986114
 30
0.0
 40
0.6004480354141279
 50
118.266235134803793
 51
137.8952789410371906
  0
ARC
  5
3C8BC
  8
0
 10
3166.1064055350047965
 20
196.9657534710362938
 30
0.0
 40
0.9522436825607575
 50
102.5066835126842051
 51
118.266235134803793
  0
ARC
  5
3C8BD
  8
0
 10
3166.2096321263661594
 20
196.5003853121187944
 30
0.0
 40
1.4289230847781269
 50
92.9477029335470917
 51
102.5066835126842051
  0
ARC
  5
3C8BE
  8
0
 10
3166.2945304606218997
 20
194.8516357744896936
 30
0.0
 40
3.0798569916900931
 50
91.0026358698195423
 51
92.9477029335470917
  0
LINE
  5
3C8BF
  8
0
 10
3167.1676298295237757
 20
195.8837771184938106
 30
0.0
 11
3167.1282896720240387
 21
195.8837771184938106
 31
0.0
  0
LINE
  5
3C8C0
  8
0
 10
3167.1203896720239754
 20
195.8837771184938106
 30
0.0
 11
3166.2406378786599817
 21
195.8837771184938106
 31
0.0
  0
ARC
  5
3C8C1
  8
0
 10
3167.1676298295237757
 20
195.9231771184938111
 30
0.0
 40
0.0394
 50
270.0
 51
0.0
  0
ARC
  5
3C8C2
  8
0
 10
3167.1203896720239754
 20
195.8916771184939023
 30
0.0
 40
0.0079
 50
270.0000000000259774
 51
359.9999999999935199
  0
ARC
  5
3C8C3
  8
0
 10
3165.939805932703166
 20
196.5391985277892104
 30
0.0
 40
0.6004480354141279
 50
222.1047210589628094
 51
241.733764865196207
  0
ARC
  5
3C8C4
  8
0
 10
3166.1064055350047965
 20
196.8490448604514995
 30
0.0
 40
0.9522436825607575
 50
241.733764865196207
 51
257.4933164873157807
  0
ARC
  5
3C8C5
  8
0
 10
3166.2096321263661594
 20
197.3144130193689989
 30
0.0
 40
1.4289230847781269
 50
257.4933164873157807
 51
267.0522970664529225
  0
ARC
  5
3C8C6
  8
0
 10
3166.2945304606218997
 20
198.9631625569980997
 30
0.0
 40
3.0798569916900931
 50
267.0522970664529225
 51
268.9973641301804719
  0
LINE
  5
3C8C7
  8
0
 10
3153.8034968271449543
 20
194.6306267146736104
 30
0.0
 11
3153.8024907813260143
 21
194.7026747562939022
 31
0.0
  0
LINE
  5
3C8C8
  8
0
 10
3153.810770909024086
 20
194.6234534964939087
 30
0.0
 11
3155.2487375689238434
 21
194.6234534964939087
 31
0.0
  0
LINE
  5
3C8C9
  8
0
 10
3153.8175501981240814
 20
194.6227534964939139
 30
0.0
 11
3155.241958279823848
 21
194.6227534964939139
 31
0.0
  0
LINE
  5
3C8CA
  8
0
 10
3153.8175501981240814
 20
194.6227534964939139
 30
0.0
 11
3153.8175501981240814
 21
194.6234534964939087
 31
0.0
  0
LINE
  5
3C8CB
  8
0
 10
3153.8034968271449543
 20
194.6306267146736104
 30
0.0
 11
3153.810770909024086
 21
194.6234534964939087
 31
0.0
  0
LINE
  5
3C8CC
  8
0
 10
3155.2560116508038845
 20
194.6306267146736104
 30
0.0
 11
3155.2570176966228246
 21
194.7026747562939022
 31
0.0
  0
LINE
  5
3C8CD
  8
0
 10
3155.241958279823848
 20
194.6227534964939139
 30
0.0
 11
3155.241958279823848
 21
194.6234534964939087
 31
0.0
  0
LINE
  5
3C8CE
  8
0
 10
3155.2560116508038845
 20
194.6306267146736104
 30
0.0
 11
3155.2487375689238434
 21
194.6234534964939087
 31
0.0
  0
LINE
  5
3C8D0
  8
0
 10
3171.4518061190460685
 20
199.4950368017510129
 30
0.0
 11
3165.4943211680238164
 21
199.4950358689939094
 31
0.0
  0
LINE
  5
3C8D1
  8
0
 10
3171.4519684446941028
 20
198.9150371204939063
 30
0.0
 11
3168.0445487340361979
 21
198.9150371204939063
 31
0.0
  0
ARC
  5
3C8D2
  8
0
 10
3171.4519684446941028
 20
199.2050369838376866
 30
0.0
 40
0.2899998633437448
 50
270.0
 51
90.032070963209037
  0
ARC
  5
3C8D3
  8
0
 10
3168.6960312275118667
 20
183.5996520104069987
 30
0.0
 40
15.3292351573578909
 50
92.4357668702441941
 51
100.3521647819435998
  0
ARC
  5
3C8D4
  8
0
 10
3176.5826201840918657
 20
140.4260306206356859
 30
0.0
 40
59.2172730410154315
 50
100.3521647819435998
 51
102.3070862806978027
  0
ARC
  5
3C8D5
  8
0
 10
3173.855835418415154
 20
154.6731220948414034
 30
0.0
 40
45.2965441697449123
 50
101.3051837299777986
 51
103.6318661111761941
  0
ARC
  5
3C8D6
  8
0
 10
3170.8703835326891749
 20
169.6068175758155121
 30
0.0
 40
30.0673556266723701
 50
99.241328367968535
 51
101.3051837299777986
  0
ARC
  5
3C8D7
  8
0
 10
3169.483044401474217
 20
178.1335332754032947
 30
0.0
 40
21.4285136622308485
 50
96.3837509230029355
 51
99.241328367968535
  0
ARC
  5
3C8D8
  8
0
 10
3168.4541581437351851
 20
187.3298040991591904
 30
0.0
 40
12.1748655170273192
 50
92.2794132590493348
 51
96.3837509230029355
  0
LINE
  5
3C8D9
  8
0
 10
3163.1802258138241086
 20
198.4625857814671974
 30
0.0
 11
3163.1802258138241086
 21
200.6278716066939012
 31
0.0
  0
LINE
  5
3C8DA
  8
0
 10
3161.3298321130241675
 20
198.4619592572194904
 30
0.0
 11
3161.3298321130241675
 21
200.6278716066939012
 31
0.0
  0
ARC
  5
3C8DB
  8
0
 10
3160.8472136343698367
 20
197.3272374838724943
 30
0.0
 40
18.5361274010726689
 50
270.7281859823642094
 51
275.6698169630938082
  0
ARC
  5
3C8DC
  8
0
 10
3162.2825650504141777
 20
182.8698114041391989
 30
0.0
 40
4.0076242937840876
 50
275.6698169630938082
 51
298.1313666355089822
  0
ARC
  5
3C8DD
  8
0
 10
3162.3928326084619584
 20
182.6635704408732863
 30
0.0
 40
3.773756234214888
 50
298.1313666355089822
 51
315.2019410632764789
  0
ARC
  5
3C8DE
  8
0
 10
3162.0962623601380983
 20
182.958057477626113
 30
0.0
 40
4.1916994444795224
 50
315.2019410632764789
 51
330.3618083609417226
  0
ARC
  5
3C8DF
  8
0
 10
3162.8954551385131708
 20
182.5033478910883957
 30
0.0
 40
3.2722050697840102
 50
330.3618083609417226
 51
347.4268451703359801
  0
ARC
  5
3C8E0
  8
0
 10
3161.8419344610138069
 20
182.7798597057609982
 30
0.0
 40
4.3608612907702851
 50
358.1280205606310005
 51
359.9992138920612206
  0
ARC
  5
3C8E1
  8
0
 10
3161.8429225866020715
 20
182.7798274100271101
 30
0.0
 40
4.3598726375495058
 50
346.8916100248773091
 51
358.1280205606310005
  0
ARC
  5
3C8E2
  8
0
 10
3157.6611120088791722
 20
197.3272374838724943
 30
0.0
 40
18.5361274010726689
 50
264.3301830369061918
 51
269.2718140176359043
  0
ARC
  5
3C8E3
  8
0
 10
3156.2257605928339217
 20
182.8698114041391989
 30
0.0
 40
4.0076242937840876
 50
241.8686333644909894
 51
264.3301830369061918
  0
ARC
  5
3C8E4
  8
0
 10
3156.1154930347870504
 20
182.6635704408732863
 30
0.0
 40
3.773756234214888
 50
224.7980589367234074
 51
241.8686333644909894
  0
ARC
  5
3C8E5
  8
0
 10
3156.4120632831109106
 20
182.958057477626113
 30
0.0
 40
4.1916994444795224
 50
209.6381916390581921
 51
224.7980589367234074
  0
ARC
  5
3C8E6
  8
0
 10
3155.6128705047349285
 20
182.5033478910883957
 30
0.0
 40
3.2722050697840102
 50
192.5731548296639062
 51
209.6381916390581921
  0
ARC
  5
3C8E7
  8
0
 10
3156.6663911822338378
 20
182.7798597057609982
 30
0.0
 40
4.3608612907702851
 50
180.0007861079388078
 51
181.8719794393689142
  0
ARC
  5
3C8E8
  8
0
 10
3156.6654030566469373
 20
182.7798274100271101
 30
0.0
 40
4.3598726375495058
 50
181.8719794393689142
 51
193.1083899751226909
  0
ARC
  5
3C8E9
  8
0
 10
3159.6230839400550394
 20
71.9194828555753531
 30
0.0
 40
114.8567857951722999
 50
89.2718140176358474
 51
89.9814250287586503
  0
ARC
  5
3C8EA
  8
0
 10
3160.8472136343698367
 20
168.2323622641173131
 30
0.0
 40
18.5361274010726689
 50
84.3301830369061776
 51
89.2718140176358474
  0
ARC
  5
3C8EB
  8
0
 10
3162.2825650504141777
 20
182.6897883438506085
 30
0.0
 40
4.0076242937840876
 50
61.868633364490961
 51
84.3301830369061776
  0
ARC
  5
3C8EC
  8
0
 10
3162.3928326084619584
 20
182.8960293071164926
 30
0.0
 40
3.773756234214888
 50
44.798058936723443
 51
61.868633364490961
  0
ARC
  5
3C8ED
  8
0
 10
3162.0962623601380983
 20
182.6015422703636943
 30
0.0
 40
4.1916994444795224
 50
29.6381916390582383
 51
44.798058936723443
  0
ARC
  5
3C8EE
  8
0
 10
3162.8954551385131708
 20
183.0562518569014117
 30
0.0
 40
3.2722050697840102
 50
12.5731548296639506
 51
29.6381916390582383
  0
ARC
  5
3C8EF
  8
0
 10
3161.8419344610138069
 20
182.7797400422288092
 30
0.0
 40
4.3608612907702851
 50
0.0007861079387924
 51
1.8719794393689899
  0
ARC
  5
3C8F0
  8
0
 10
3161.8429225866020715
 20
182.7797723379626973
 30
0.0
 40
4.3598726375495058
 50
1.8719794393689899
 51
13.1083899751227193
  0
ARC
  5
3C8F1
  8
0
 10
3158.8852417031930599
 20
71.9194828555753531
 30
0.0
 40
114.8567857951722999
 50
90.0185741071237686
 51
90.7281859823641668
  0
ARC
  5
3C8F2
  8
0
 10
3157.6611120088791722
 20
168.2323622641173131
 30
0.0
 40
18.5361274010726689
 50
90.7281859823641668
 51
95.6698169630938082
  0
ARC
  5
3C8F3
  8
0
 10
3156.2257605928339217
 20
182.6897883438506085
 30
0.0
 40
4.0076242937840876
 50
95.6698169630938082
 51
118.1313666355089964
  0
ARC
  5
3C8F4
  8
0
 10
3156.1154930347870504
 20
182.8960293071164926
 30
0.0
 40
3.773756234214888
 50
118.1313666355089964
 51
135.2019410632765073
  0
ARC
  5
3C8F5
  8
0
 10
3156.4120632831109106
 20
182.6015422703636943
 30
0.0
 40
4.1916994444795224
 50
135.2019410632765073
 51
150.3618083609416942
  0
ARC
  5
3C8F6
  8
0
 10
3155.6128705047349285
 20
183.0562518569014117
 30
0.0
 40
3.2722050697840102
 50
150.3618083609416942
 51
167.4268451703360086
  0
ARC
  5
3C8F7
  8
0
 10
3156.6654030566469373
 20
182.7797723379626973
 30
0.0
 40
4.3598726375495058
 50
166.8916100248773091
 51
178.1280205606310005
  0
LINE
  5
3C8F8
  8
0
 10
3159.2541636877240308
 20
178.7839256420847107
 30
0.0
 11
3161.0827874390711258
 21
178.7926070853094984
 31
0.0
  0
LINE
  5
3C8F9
  8
0
 10
3159.2541636876740085
 20
178.7839256420847107
 30
0.0
 11
3157.4255382041769735
 21
178.7926070853094984
 31
0.0
  0
ARC
  5
3C8FA
  8
0
 10
3156.6663911822338378
 20
182.7798597057609982
 30
0.0
 40
4.3608612907702851
 50
180.0007861079388078
 51
181.8719794393689142
  0
ARC
  5
3C8FB
  8
0
 10
3156.6663911822338378
 20
182.7797400422288092
 30
0.0
 40
4.3608612907702851
 50
178.1280205606310005
 51
179.9992138920611922
  0
LINE
  5
3C8FC
  8
0
 10
3159.6603198669067751
 20
200.2341716066939057
 30
0.0
 11
3159.6603198669067751
 21
182.780254962156107
 31
0.0
  0
LINE
  5
3C8FD
  8
0
 10
3158.8480075085408316
 20
200.2341716066939057
 30
0.0
 11
3158.8480075085408316
 21
182.780254962156107
 31
0.0
  0
LINE
  5
3C8FE
  8
0
 10
3160.2761636877239653
 20
200.2341716066939057
 30
0.0
 11
3158.2321636877250057
 21
200.2341716066939057
 31
0.0
  0
LINE
  5
3C8FF
  8
0
 10
3160.1634939362252226
 20
182.4438735087315138
 30
0.0
 11
3160.1634939362252226
 21
183.1156701229564021
 31
0.0
  0
LINE
  5
3C900
  8
0
 10
3158.3448334392251127
 20
183.1156701229564021
 30
0.0
 11
3158.3448334392251127
 21
182.4438735087314001
 31
0.0
  0
LINE
  5
3C901
  8
0
 10
3160.3361636877239107
 20
200.2941716066939932
 30
0.0
 11
3160.3361636877239107
 21
200.6278716066939012
 31
0.0
  0
LINE
  5
3C902
  8
0
 10
3158.1721636877241508
 20
200.2941716066939932
 30
0.0
 11
3158.1721636877241508
 21
200.6278716066939012
 31
0.0
  0
ARC
  5
3C903
  8
0
 10
3160.2761636877239653
 20
200.2941716066939932
 30
0.0
 40
0.06
 50
270.0
 51
0.0000000000065138
  0
ARC
  5
3C904
  8
0
 10
3158.2321636877250057
 20
200.2941716066939932
 30
0.0
 40
0.06
 50
180.0
 51
270.0
  0
CIRCLE
  5
3C905
  8
0
 10
3159.2535541322240533
 20
200.4610216066938904
 30
0.0
 40
0.06725
  0
CIRCLE
  5
3C906
  8
0
 10
3159.2541636877240308
 20
200.4610216066938904
 30
0.0
 40
0.0383904444613113
  0
LINE
  5
3C907
  8
0
 10
3155.6932606066447988
 20
194.6306267146736104
 30
0.0
 11
3155.6922545608258588
 21
194.7026747562939022
 31
0.0
  0
LINE
  5
3C908
  8
0
 10
3155.7005346885239305
 20
194.6234534964939087
 30
0.0
 11
3157.1385013484241426
 21
194.6234534964939087
 31
0.0
  0
LINE
  5
3C909
  8
0
 10
3155.7073139776239259
 20
194.6227534964939139
 30
0.0
 11
3157.1317220593241473
 21
194.6227534964939139
 31
0.0
  0
LINE
  5
3C90A
  8
0
 10
3155.7073139776239259
 20
194.6227534964939139
 30
0.0
 11
3155.7073139776239259
 21
194.6234534964939087
 31
0.0
  0
LINE
  5
3C90B
  8
0
 10
3155.6932606066447988
 20
194.6306267146736104
 30
0.0
 11
3155.7005346885239305
 21
194.6234534964939087
 31
0.0
  0
LINE
  5
3C90C
  8
0
 10
3157.1457754303028196
 20
194.6306267146736104
 30
0.0
 11
3157.1467814761231239
 21
194.7026747562939022
 31
0.0
  0
LINE
  5
3C90D
  8
0
 10
3157.1317220593241473
 20
194.6227534964939139
 30
0.0
 11
3157.1317220593241473
 21
194.6234534964939087
 31
0.0
  0
LINE
  5
3C90E
  8
0
 10
3157.1457754303028196
 20
194.6306267146736104
 30
0.0
 11
3157.1385013484241426
 21
194.6234534964939087
 31
0.0
  0
LINE
  5
3C90F
  8
0
 10
3158.9182653805619339
 20
181.8704415672939092
 30
0.0
 11
3159.5900619948870371
 21
181.8704415672939092
 31
0.0
  0
LINE
  5
3C910
  8
0
 10
3159.6596413021629814
 20
181.8992622600324864
 30
0.0
 11
3160.1346732435008562
 21
182.3742942014700077
 31
0.0
  0
LINE
  5
3C911
  8
0
 10
3158.3736541319481148
 20
182.3742942014700077
 30
0.0
 11
3158.8486860732859896
 21
181.8992622600324864
 31
0.0
  0
LINE
  5
3C912
  8
0
 10
3160.134673243494035
 20
183.1852494302250989
 30
0.0
 11
3159.6603198669067751
 21
183.6596028068111082
 31
0.0
  0
LINE
  5
3C913
  8
0
 10
3158.3736541319558455
 20
183.1852494302252126
 30
0.0
 11
3158.8480075085408316
 21
183.6596028068105113
 31
0.0
  0
ARC
  5
3C914
  8
0
 10
3158.4432334392240591
 20
183.1156701229564021
 30
0.0
 40
0.0984
 50
135.0000000000034106
 51
179.9999999999917861
  0
ARC
  5
3C915
  8
0
 10
3158.4432334392240591
 20
182.4438735087314001
 30
0.0
 40
0.0984
 50
179.9999999999951115
 51
224.9999999939811914
  0
ARC
  5
3C916
  8
0
 10
3158.9182653805619339
 20
181.9688415672939072
 30
0.0
 40
0.0984
 50
224.9999999939558961
 51
270.0
  0
ARC
  5
3C917
  8
0
 10
3159.5900619948870371
 20
181.9688415672939925
 30
0.0
 40
0.0984
 50
270.0
 51
315.0000000060188086
  0
ARC
  5
3C918
  8
0
 10
3160.0650939362249119
 20
182.4438735087315138
 30
0.0
 40
0.0984
 50
315.0000000060441039
 51
0.0
  0
ARC
  5
3C919
  8
0
 10
3160.0650939362240024
 20
183.1156701229564021
 30
0.0
 40
0.0984
 50
0.0
 51
44.9999999999907772
  0
ARC
  5
3C91A
  8
0
 10
3159.2541636877240308
 20
182.780254962156107
 30
0.0
 40
0.4061561791831565
 50
180.0
 51
0.0
  0
ARC
  5
3C91B
  8
0
 10
3159.2541636877240308
 20
182.780254962156107
 30
0.0
 40
0.5040325271860502
 50
143.6888858494129977
 51
36.3111141505870307
  0
ARC
  5
3C91C
  8
0
 10
3159.2540999411239682
 20
182.7797718157939073
 30
0.0
 40
0.4960020793248198
 50
144.9579940208834898
 51
35.0163481929449318
  0
ARC
  5
3C91D
  8
0
 10
3159.2540999411239682
 20
182.7797718157939073
 30
0.0
 40
0.4350886046678261
 50
158.9641013315230111
 51
20.9890759854071298
  0
ARC
  5
3C91E
  8
0
 10
3159.2541636877240308
 20
182.7797718157939073
 30
0.0
 40
0.5000000000000006
 50
184.2620093789226132
 51
35.6775257389995204
  0
ARC
  5
3C91F
  8
0
 10
3159.2541636877240308
 20
182.7797718157939073
 30
0.0
 40
0.5000000000000006
 50
144.3224742611022862
 51
175.9961304652318859
  0
LINE
  5
3C920
  8
0
 10
3158.7515252838438755
 20
182.7427926690214974
 30
0.0
 11
3158.7555463728158429
 21
182.7426130580942925
 31
0.0
  0
LINE
  5
3C921
  8
0
 10
3158.7512794053568541
 20
182.8142577121896011
 30
0.0
 11
3158.7553840192731514
 21
182.8146837383901868
 31
0.0
  0
ENDSEC
  0
EOF
