  0
SECTION
  2
HEADER
  9
$ACADVER
  1
AC1009
  9
$INSBASE
 10
2982.6397783769471062
 20
170.5364229581244899
 30
0.0
  9
$EXTMIN
 10
2976.6346602667467778
 20
154.2277233123726887
 30
0.0
  9
$EXTMAX
 10
2982.6520050417461789
 20
195.9513976849281107
 30
0.0
  9
$LIMMIN
 10
0.0
 20
0.0
  9
$LIMMAX
 10
11.6929133858000007
 20
8.2677165353999982
  9
$ORTHOMODE
 70
     0
  9
$REGENMODE
 70
     1
  9
$FILLMODE
 70
     1
  9
$QTEXTMODE
 70
     0
  9
$MIRRTEXT
 70
     0
  9
$DRAGMODE
 70
     2
  9
$LTSCALE
 40
0.6431102362
  9
$OSMODE
 70
  4095
  9
$ATTMODE
 70
     1
  9
$TEXTSIZE
 40
0.2
  9
$TRACEWID
 40
0.05
  9
$TEXTSTYLE
  7
STANDARD
  9
$CLAYER
  8
0
  9
$CELTYPE
  6
BYLAYER
  9
$CECOLOR
 62
   256
  9
$DIMSCALE
 40
1.0
  9
$DIMASZ
 40
0.1875
  9
$DIMEXO
 40
0.0625
  9
$DIMDLI
 40
0.4443307087
  9
$DIMRND
 40
0.0
  9
$DIMDLE
 40
0.0
  9
$DIMEXE
 40
0.125
  9
$DIMTP
 40
0.01
  9
$DIMTM
 40
0.01
  9
$DIMTXT
 40
2.0
  9
$DIMCEN
 40
0.1052362205
  9
$DIMTSZ
 40
0.0
  9
$DIMTOL
 70
     1
  9
$DIMLIM
 70
     0
  9
$DIMTIH
 70
     1
  9
$DIMTOH
 70
     1
  9
$DIMSE1
 70
     0
  9
$DIMSE2
 70
     0
  9
$DIMTAD
 70
     0
  9
$DIMZIN
 70
     0
  9
$DIMBLK
  1

  9
$DIMASO
 70
     1
  9
$DIMSHO
 70
     1
  9
$DIMPOST
  1
\X
  9
$DIMAPOST
  1

  9
$DIMALT
 70
     1
  9
$DIMALTD
 70
     2
  9
$DIMALTF
 40
25.3999999999999986
  9
$DIMLFAC
 40
1.0
  9
$DIMTOFL
 70
     0
  9
$DIMTVP
 40
0.0
  9
$DIMTIX
 70
     0
  9
$DIMSOXD
 70
     0
  9
$DIMSAH
 70
     0
  9
$DIMBLK1
  1

  9
$DIMBLK2
  1

  9
$DIMSTYLE
  2
STANDARD
  9
$DIMCLRD
 70
     0
  9
$DIMCLRE
 70
     0
  9
$DIMCLRT
 70
     0
  9
$DIMTFAC
 40
1.0
  9
$DIMGAP
 40
0.09
  9
$LUNITS
 70
     2
  9
$LUPREC
 70
     4
  9
$SKETCHINC
 40
0.1
  9
$FILLETRAD
 40
0.0
  9
$AUNITS
 70
     0
  9
$AUPREC
 70
     0
  9
$MENU
  1
.
  9
$ELEVATION
 40
0.0
  9
$PELEVATION
 40
0.0
  9
$THICKNESS
 40
0.0
  9
$LIMCHECK
 70
     0
  9
$BLIPMODE
 70
     0
  9
$CHAMFERA
 40
0.0
  9
$CHAMFERB
 40
0.0
  9
$SKPOLY
 70
     0
  9
$TDCREATE
 40
2458060.468368056230247
  9
$TDUPDATE
 40
2459423.626273148227483
  9
$TDINDWG
 40
0.7011297453999999
  9
$TDUSRTIMER
 40
0.7011297453999999
  9
$USRTIMER
 70
     1
  9
$ANGBASE
 50
0.0
  9
$ANGDIR
 70
     0
  9
$PDMODE
 70
     0
  9
$PDSIZE
 40
0.3125
  9
$PLINEWID
 40
0.0
  9
$COORDS
 70
     1
  9
$SPLFRAME
 70
     0
  9
$SPLINETYPE
 70
     6
  9
$SPLINESEGS
 70
     8
  9
$ATTDIA
 70
     1
  9
$ATTREQ
 70
     1
  9
$HANDLING
 70
     1
  9
$HANDSEED
  5
3AE51
  9
$SURFTAB1
 70
     6
  9
$SURFTAB2
 70
     6
  9
$SURFTYPE
 70
     6
  9
$SURFU
 70
     6
  9
$SURFV
 70
     6
  9
$UCSNAME
  2

  9
$UCSORG
 10
0.0
 20
0.0
 30
0.0
  9
$UCSXDIR
 10
1.0
 20
0.0
 30
0.0
  9
$UCSYDIR
 10
0.0
 20
1.0
 30
0.0
  9
$PUCSNAME
  2

  9
$PUCSORG
 10
0.0
 20
0.0
 30
0.0
  9
$PUCSXDIR
 10
1.0
 20
0.0
 30
0.0
  9
$PUCSYDIR
 10
0.0
 20
1.0
 30
0.0
  9
$USERI1
 70
     0
  9
$USERI2
 70
     0
  9
$USERI3
 70
     0
  9
$USERI4
 70
     0
  9
$USERI5
 70
     0
  9
$USERR1
 40
0.0
  9
$USERR2
 40
0.0
  9
$USERR3
 40
0.0
  9
$USERR4
 40
0.0
  9
$USERR5
 40
0.0
  9
$WORLDVIEW
 70
     1
  9
$SHADEDGE
 70
     3
  9
$SHADEDIF
 70
    70
  9
$TILEMODE
 70
     1
  9
$MAXACTVP
 70
    64
  9
$PLIMCHECK
 70
     0
  9
$PEXTMIN
 10
1.0000000000000000E+20
 20
1.0000000000000000E+20
 30
1.0000000000000000E+20
  9
$PEXTMAX
 10
-1.0000000000000000E+20
 20
-1.0000000000000000E+20
 30
-1.0000000000000000E+20
  9
$PLIMMIN
 10
0.0
 20
0.0
  9
$PLIMMAX
 10
12.0
 20
9.0
  9
$UNITMODE
 70
     0
  9
$VISRETAIN
 70
     1
  9
$PLINEGEN
 70
     0
  9
$PSLTSCALE
 70
     1
  0
ENDSEC
  0
SECTION
  2
TABLES
  0
TABLE
  2
VPORT
 70
     1
  0
VPORT
  2
*ACTIVE
 70
     0
 10
0.0
 20
0.0
 11
1.0
 21
1.0
 12
-324.0412006000988185
 22
-17.9295989080142384
 13
0.0
 23
0.0
 14
1.0
 24
1.0
 15
0.0
 25
0.0
 16
0.0
 26
0.0
 36
96.5995694866707311
 17
3303.693115234375
 27
195.2615115758877096
 37
0.0
 40
42.0549612744421211
 41
2.8440779610194902
 42
50.0
 43
0.0
 44
0.0
 50
0.0
 51
0.0
 71
     0
 72
   100
 73
     1
 74
     1
 75
     0
 76
     0
 77
     0
 78
     0
  0
ENDTAB
  0
TABLE
  2
LTYPE
 70
     2
  0
LTYPE
  2
CONTINUOUS
 70
     0
  3
Solid line
 72
    65
 73
     0
 40
0.0
  0
LTYPE
  2
PHANTOM2
 70
     0
  3
___ _ _ ___ _ _ ___ _ _ ___ _ _
 72
    65
 73
     6
 40
1.25
 49
0.625
 49
-0.125
 49
0.125
 49
-0.125
 49
0.125
 49
-0.125
  0
ENDTAB
  0
TABLE
  2
LAYER
 70
     2
  0
LAYER
  2
0
 70
     0
 62
   255
  6
CONTINUOUS
  0
LAYER
  2
DEFPOINTS
 70
     0
 62
     7
  6
CONTINUOUS
  0
ENDTAB
  0
TABLE
  2
STYLE
 70
     1
  0
STYLE
  2
STANDARD
 70
     0
 40
0.0
 41
0.8
 50
0.0
 71
     0
 42
0.2
  3
txt
  4

  0
ENDTAB
  0
TABLE
  2
VIEW
 70
     0
  0
ENDTAB
  0
TABLE
  2
UCS
 70
     0
  0
ENDTAB
  0
TABLE
  2
APPID
 70
     9
  0
APPID
  2
ACAD
 70
     0
  0
APPID
  2
ACAD_MLEADERVER
 70
     0
  0
APPID
  2
ACAD_EXEMPT_FROM_CAD_STANDARDS
 70
     0
  0
APPID
  2
ACAD_NAV_VCDISPLAY
 70
     0
  0
APPID
  2
ACAECLAYERSTANDARD
 70
     0
  0
APPID
  2
ACCMTRANSPARENCY
 70
     0
  0
APPID
  2
ACAD_DSTYLE_DIMJAG
 70
     0
  0
APPID
  2
ACAD_DSTYLE_DIMTALN
 70
     0
  0
APPID
  2
ACDBATTR
 70
     0
  0
ENDTAB
  0
TABLE
  2
DIMSTYLE
 70
     1
  0
DIMSTYLE
  2
STANDARD
 70
     0
  3

  4

  5

  6

  7

 40
1.0
 41
0.1875
 42
0.0625
 43
0.38
 44
0.125
 45
0.0
 46
0.0
 47
0.01
 48
0.01
140
0.15625
141
0.09
142
0.0
143
25.3999999999999986
144
1.0
145
0.0
146
1.0
147
0.09
 71
     1
 72
     0
 73
     1
 74
     1
 75
     0
 76
     0
 77
     0
 78
     4
170
     0
171
     2
172
     0
173
     0
174
     0
175
     0
176
     0
177
     0
178
     0
  0
ENDTAB
  0
ENDSEC
  0
SECTION
  2
BLOCKS
  0
BLOCK
  8
0
  2
$MODEL_SPACE
 70
     0
 10
0.0
 20
0.0
 30
0.0
  3
$MODEL_SPACE
  1

  0
ENDBLK
  5
21
  8
0
  0
BLOCK
 67
     1
  8
0
  2
$PAPER_SPACE
 70
     0
 10
0.0
 20
0.0
 30
0.0
  3
$PAPER_SPACE
  1

  0
ENDBLK
  5
1D
 67
     1
  8
0
  0
ENDSEC
  0
SECTION
  2
ENTITIES
  0
ATTDEF
  5
340AC
  8
DEFPOINTS
 10
2982.6413383750759749
 20
170.5387179757665876
 30
0.0
 40
0.001
  1
K-26328T-9
  3

  2
MODELNUMBER
 70
     0
1001
ACDBATTR
1070
     0
1070
     1
  0
ATTDEF
  5
340AD
  8
DEFPOINTS
 10
2982.6413383750759749
 20
170.5370513090998941
 30
0.0
 40
0.001
  1

  3

  2
TRADENAME
 70
     0
1001
ACDBATTR
1070
     0
1070
     1
  0
ATTDEF
  5
340AE
  8
DEFPOINTS
 10
2982.6413383750759749
 20
170.5353846424333142
 30
0.0
 40
0.001
  1
BATH AND SHOWER FAUCET
  3

  2
PRODUCT
 70
     0
1001
ACDBATTR
1070
     0
1070
     1
  0
LINE
  5
3AC26
  8
0
 10
2978.0148751727119816
 20
195.3226604162506135
 30
0.0
 11
2978.0255218623301516
 21
195.3344847629701064
 31
0.0
  0
LINE
  5
3AC27
  8
0
 10
2980.442096545612003
 20
192.9407199991505877
 30
0.0
 11
2980.3429351561121621
 21
192.910403320050591
 31
0.0
  0
LINE
  5
3AC28
  8
0
 10
2980.6646315969119314
 20
192.5336252923505924
 30
0.0
 11
2980.593825588639902
 21
192.5113002436592069
 31
0.0
  0
LINE
  5
3AC29
  8
0
 10
2978.0132453113119482
 20
195.314936188850595
 30
0.0
 11
2978.0457026794119884
 21
195.2150426813506101
 31
0.0
  0
LINE
  5
3AC2A
  8
0
 10
2977.9052771623119042
 20
195.7045598966506077
 30
0.0
 11
2978.6923148481118915
 21
193.2823069679006096
 31
0.0
  0
LINE
  5
3AC2B
  8
0
 10
2980.9819278992122236
 20
191.5571995206506131
 30
0.0
 11
2980.91148479825506
 21
191.5336457237440015
 31
0.0
  0
LINE
  5
3AC2C
  8
0
 10
2980.9366230578120849
 20
191.4562781161505995
 30
0.0
 11
2980.4567912043121396
 21
192.9330487123505975
 31
0.0
  0
LINE
  5
3AC2D
  8
0
 10
2980.9943525115118064
 20
191.5819948861505964
 30
0.0
 11
2980.6893508968119022
 21
192.520693224250607
 31
0.0
  0
LINE
  5
3AC2E
  8
0
 10
2978.0515614520118106
 20
195.209751658650589
 30
0.0
 11
2978.0671249813849499
 21
195.2064435283562887
 31
0.0
  0
ARC
  5
3AC2F
  8
0
 10
2977.9178563037239655
 20
195.7075354711192006
 30
0.0
 40
0.0129262849295429
 50
112.6077108168674954
 51
193.3085903267806884
  0
ARC
  5
3AC30
  8
0
 10
2978.0207268260078308
 20
195.3173916106171077
 30
0.0
 40
0.0078741449185835
 50
138.0002519395787033
 51
198.1697574213044959
  0
ARC
  5
3AC31
  8
0
 10
2980.3102262626471202
 20
193.0372809958801952
 30
0.0
 40
0.1310260139913434
 50
199.7940327759658032
 51
284.4560113033439279
  0
ARC
  5
3AC32
  8
0
 10
2980.4455497493140683
 20
192.9294250013184921
 30
0.0
 40
0.0118110792102484
 50
17.8668556576474487
 51
106.9998896356869977
  0
ARC
  5
3AC33
  8
0
 10
2980.9253906699859726
 20
191.4526277946044104
 30
0.0
 40
0.0118106470466835
 50
289.1459614161889817
 51
18.0032181266377016
  0
ARC
  5
3AC34
  8
0
 10
2978.053198612658889
 20
195.2174537274721899
 30
0.0
 40
0.007874144946368
 50
197.8302429421030126
 51
257.9997480062372119
  0
LINE
  5
3AC35
  8
0
 10
2979.6396169596118852
 20
187.9236666569507008
 30
0.0
 11
2979.6396169596118852
 21
190.7658989950506054
 31
0.0
  0
ARC
  5
3AC36
  8
0
 10
2973.3203301048620233
 20
186.7419627287443973
 30
0.0
 40
6.4123549680544647
 50
5.1780312178236647
 51
9.0280006441370073
  0
ARC
  5
3AC37
  8
0
 10
2979.7185673632789076
 20
187.3217744409060117
 30
0.0
 40
0.0121
 50
185.1780312178235874
 51
270.0
  0
ARC
  5
3AC38
  8
0
 10
2980.9587353039341906
 20
187.9378429200816925
 30
0.0
 40
1.319194516651677
 50
180.6157209343438126
 51
188.266552326649304
  0
LINE
  5
3AC39
  8
0
 10
2980.7026169596119871
 20
187.9236666569507008
 30
0.0
 11
2980.7026169596119871
 21
190.9385788913506019
 31
0.0
  0
ARC
  5
3AC3A
  8
0
 10
2987.0219038143618491
 20
186.7419627287443973
 30
0.0
 40
6.4123549680544647
 50
170.9719993558630051
 51
174.8219687821755031
  0
ARC
  5
3AC3B
  8
0
 10
2979.3834986152901365
 20
187.9378429200816925
 30
0.0
 40
1.319194516651677
 50
351.7334476733490192
 51
359.3842790656561874
  0
LINE
  5
3AC3C
  8
0
 10
2977.9128871869070281
 20
195.7194684808038971
 30
0.0
 11
2978.5119243957701656
 21
195.9066755504024968
 31
0.0
  0
ARC
  5
3AC3D
  8
0
 10
2978.8233933161109235
 20
194.861957989097391
 30
0.0
 40
1.090159470553723
 50
93.14407868307363
 51
106.6012636401253957
  0
ARC
  5
3AC3E
  8
0
 10
2978.7940647788900606
 20
195.4472159872433963
 30
0.0
 40
0.5041816976847163
 50
64.542198834318441
 51
93.464008329950147
  0
ARC
  5
3AC3F
  8
0
 10
2900.892451607222938
 20
168.0838846816604075
 30
0.0
 40
83.1128429090838949
 50
17.947765163520959
 51
18.9711248473766609
  0
ARC
  5
3AC40
  8
0
 10
2971.6121504695679505
 20
192.0123806280662109
 30
0.0
 40
8.4632352122849532
 50
21.4200219053637611
 51
25.7723697545727504
  0
ARC
  5
3AC41
  8
0
 10
2978.7296033751908908
 20
195.3814570888264086
 30
0.0
 40
0.5920213954253148
 50
31.6569379885055895
 51
61.6437472692602668
  0
LINE
  5
3AC42
  8
0
 10
2978.067213415812148
 20
195.1615798672006008
 30
0.0
 11
2978.0778601054039427
 21
195.1734042138920984
 31
0.0
  0
LINE
  5
3AC43
  8
0
 10
2978.0655835544121146
 20
195.1538556398006108
 30
0.0
 11
2978.0980409225121548
 21
195.0539621323005974
 31
0.0
  0
LINE
  5
3AC44
  8
0
 10
2978.1038996951119771
 20
195.0486711096006047
 30
0.0
 11
2978.1194632244478271
 21
195.0453629793140919
 31
0.0
  0
ARC
  5
3AC45
  8
0
 10
2978.0730650691079973
 20
195.1563110615672088
 30
0.0
 40
0.0078741449185835
 50
138.0002519395787033
 51
198.1697574213044959
  0
ARC
  5
3AC46
  8
0
 10
2978.105536855758146
 20
195.0563731784222909
 30
0.0
 40
0.007874144946368
 50
197.8302429421030126
 51
257.9997480062372119
  0
LINE
  5
3AC47
  8
0
 10
2978.1676555555618506
 20
194.8524507472506002
 30
0.0
 11
2978.1783022451541001
 21
194.8642750939418988
 31
0.0
  0
LINE
  5
3AC48
  8
0
 10
2978.1660256941618172
 20
194.8447265198506102
 30
0.0
 11
2978.1984830622618574
 21
194.7448330123505116
 31
0.0
  0
LINE
  5
3AC49
  8
0
 10
2978.2043418348621344
 20
194.7395419896506041
 30
0.0
 11
2978.2199053641979845
 21
194.736233859364205
 31
0.0
  0
ARC
  5
3AC4A
  8
0
 10
2978.1735072088581546
 20
194.8471819416172082
 30
0.0
 40
0.0078741449185835
 50
138.0002519395787033
 51
198.1697574213044959
  0
ARC
  5
3AC4B
  8
0
 10
2978.2059789955092128
 20
194.7472440584722051
 30
0.0
 40
0.007874144946368
 50
197.8302429421030126
 51
257.9997480062372119
  0
LINE
  5
3AC4C
  8
0
 10
2978.3080585803618305
 20
194.4203346691506056
 30
0.0
 11
2978.3187052699781816
 21
194.432159015868109
 31
0.0
  0
LINE
  5
3AC4D
  8
0
 10
2978.3064287189617971
 20
194.4126104417505871
 30
0.0
 11
2978.3388860870618373
 21
194.3127169342506022
 31
0.0
  0
LINE
  5
3AC4E
  8
0
 10
2978.3447448596621143
 20
194.3074259115506095
 30
0.0
 11
2978.3603083890329799
 21
194.304117781256906
 31
0.0
  0
ARC
  5
3AC4F
  8
0
 10
2978.3139102336581345
 20
194.4150658635170998
 30
0.0
 40
0.0078741449185835
 50
138.0002519395787033
 51
198.1697574213044959
  0
ARC
  5
3AC50
  8
0
 10
2978.3463820203078285
 20
194.3151279803722105
 30
0.0
 40
0.007874144946368
 50
197.8302429421030126
 51
257.9997480062372119
  0
LINE
  5
3AC51
  8
0
 10
2978.4770498546618001
 20
193.9002330063005957
 30
0.0
 11
2978.4876965442790606
 21
193.9120573530192928
 31
0.0
  0
LINE
  5
3AC52
  8
0
 10
2978.4754199932622214
 20
193.8925087789006056
 30
0.0
 11
2978.5078773613618068
 21
193.792615271400507
 31
0.0
  0
LINE
  5
3AC53
  8
0
 10
2978.5137361339620838
 20
193.7873242487005996
 30
0.0
 11
2978.5292996633352232
 21
193.7840161184064982
 31
0.0
  0
ARC
  5
3AC54
  8
0
 10
2978.482901507958104
 20
193.8949642006672036
 30
0.0
 40
0.0078741449185835
 50
138.0002519395787033
 51
198.1697574213044959
  0
ARC
  5
3AC55
  8
0
 10
2978.515373294607798
 20
193.7950263175222005
 30
0.0
 40
0.007874144946368
 50
197.8302429421030126
 51
257.9997480062372119
  0
LINE
  5
3AC56
  8
0
 10
2979.3453401795909485
 20
191.2340089855634062
 30
0.0
 11
2979.3609066031099246
 21
191.2307145001788911
 31
0.0
  0
LINE
  5
3AC57
  8
0
 10
2979.3394767709869484
 20
191.2392948702245121
 30
0.0
 11
2979.3069318444831879
 21
191.3391598858381997
 31
0.0
  0
LINE
  5
3AC58
  8
0
 10
2979.4814756803621094
 20
190.8607449202650912
 30
0.0
 11
2978.6923148481118915
 21
193.2823069679006096
 31
0.0
  0
LINE
  5
3AC59
  8
0
 10
2979.3085549339612044
 20
191.3468855390879924
 30
0.0
 11
2979.319191253705867
 21
191.3587192145473068
 31
0.0
  0
ARC
  5
3AC5A
  8
0
 10
2979.4970209601137867
 20
190.8690359763936897
 30
0.0
 40
0.0176180967832905
 50
208.0731763655475959
 51
267.9867054591492206
  0
ARC
  5
3AC5B
  8
0
 10
2979.3469705877168963
 20
191.2417124866142046
 30
0.0
 40
0.0078741449185835
 50
197.880470476669899
 51
258.0499759584025128
  0
ARC
  5
3AC5C
  8
0
 10
2979.3144112038198728
 20
191.341621865233094
 30
0.0
 40
0.007874144946368
 50
138.0504798917326923
 51
198.2199849558739118
  0
ARC
  5
3AC5D
  8
0
 10
2900.9618895210669507
 20
167.8704950590012004
 30
0.0
 40
83.1128429090838949
 50
17.0791030505984907
 51
18.1024627344477587
  0
LINE
  5
3AC5E
  8
0
 10
2979.2928607466737958
 20
191.3950435908313921
 30
0.0
 11
2979.3084271701582111
 21
191.3917491054546076
 31
0.0
  0
LINE
  5
3AC5F
  8
0
 10
2979.2869973380697957
 20
191.400329475492498
 30
0.0
 11
2979.2544524115669446
 21
191.5001944911061003
 31
0.0
  0
LINE
  5
3AC60
  8
0
 10
2979.2560755010449611
 20
191.5079201443560066
 30
0.0
 11
2979.2667118207641579
 21
191.519753819787411
 31
0.0
  0
ARC
  5
3AC61
  8
0
 10
2979.2944911548011078
 20
191.4027470918821905
 30
0.0
 40
0.0078741449185835
 50
197.880470476669899
 51
258.0499759584025128
  0
ARC
  5
3AC62
  8
0
 10
2979.2619317709040843
 20
191.5026564705011083
 30
0.0
 40
0.007874144946368
 50
138.0504798917326923
 51
198.2199849558739118
  0
LINE
  5
3AC63
  8
0
 10
2979.1921476499219352
 20
191.7040845401909905
 30
0.0
 11
2979.2077140734049863
 21
191.700790054814405
 31
0.0
  0
LINE
  5
3AC64
  8
0
 10
2979.1862842413170256
 20
191.7093704248522101
 30
0.0
 11
2979.1537393148141746
 21
191.8092354404658124
 31
0.0
  0
LINE
  5
3AC65
  8
0
 10
2979.1553624042921911
 20
191.8169610937156904
 30
0.0
 11
2979.1659987240109331
 21
191.8287947691468958
 31
0.0
  0
ARC
  5
3AC66
  8
0
 10
2979.193778058047883
 20
191.7117880412419026
 30
0.0
 40
0.0078741449185835
 50
197.880470476669899
 51
258.0499759584025128
  0
ARC
  5
3AC67
  8
0
 10
2979.1612186741522237
 20
191.811697419860792
 30
0.0
 40
0.007874144946368
 50
138.0504798917326923
 51
198.2199849558739118
  0
LINE
  5
3AC68
  8
0
 10
2979.0513658678719366
 20
192.1360773690300903
 30
0.0
 11
2979.0669322913890937
 21
192.1327828836462004
 31
0.0
  0
LINE
  5
3AC69
  8
0
 10
2979.0455024592679365
 20
192.1413632536911962
 30
0.0
 11
2979.0129575327650855
 21
192.2412282693049121
 31
0.0
  0
LINE
  5
3AC6A
  8
0
 10
2979.014580622243102
 20
192.2489539225547048
 30
0.0
 11
2979.0252169419850361
 21
192.2607875980120866
 31
0.0
  0
ARC
  5
3AC6B
  8
0
 10
2979.0529962759978844
 20
192.1437808700808887
 30
0.0
 40
0.0078741449185835
 50
197.880470476669899
 51
258.0499759584025128
  0
ARC
  5
3AC6C
  8
0
 10
2979.0204368921008609
 20
192.2436902486998065
 30
0.0
 40
0.007874144946368
 50
138.0504798917326923
 51
198.2199849558739118
  0
LINE
  5
3AC6D
  8
0
 10
2978.8819187154949759
 20
192.6560306871656962
 30
0.0
 11
2978.897485139013952
 21
192.6527362017814937
 31
0.0
  0
LINE
  5
3AC6E
  8
0
 10
2978.8760553068909758
 20
192.6613165718268874
 30
0.0
 11
2978.8435103803881248
 21
192.7611815874404897
 31
0.0
  0
LINE
  5
3AC6F
  8
0
 10
2978.8451334698661412
 20
192.7689072406903961
 30
0.0
 11
2978.8557697896098944
 21
192.7807409161491989
 31
0.0
  0
ARC
  5
3AC70
  8
0
 10
2978.8835491236209236
 20
192.6637341882166083
 30
0.0
 40
0.0078741449185835
 50
197.880470476669899
 51
258.0499759584025128
  0
ARC
  5
3AC71
  8
0
 10
2978.8509897397248096
 20
192.7636435668354977
 30
0.0
 40
0.007874144946368
 50
138.0504798917326923
 51
198.2199849558739118
  0
LINE
  5
3AC72
  8
0
 10
2978.6609387104617781
 20
193.3342813022505879
 30
0.0
 11
2978.6715854000499348
 21
193.346105648936998
 31
0.0
  0
LINE
  5
3AC73
  8
0
 10
2978.6593088490621994
 20
193.3265570748505979
 30
0.0
 11
2978.6917662171617849
 21
193.226663567350613
 31
0.0
  0
LINE
  5
3AC74
  8
0
 10
2978.6976249897620619
 20
193.2213725446505919
 30
0.0
 11
2978.7132554354939202
 21
193.2180501908451902
 31
0.0
  0
ARC
  5
3AC75
  8
0
 10
2978.6667903637580821
 20
193.3290124966171959
 30
0.0
 40
0.0078741449185835
 50
138.0002519395787033
 51
198.1697574213044959
  0
ARC
  5
3AC76
  8
0
 10
2978.6992621504091403
 20
193.2290746134723065
 30
0.0
 40
0.007874144946368
 50
197.8302429421030126
 51
257.9997480062372119
  0
ARC
  5
3AC77
  8
0
 10
2979.5189796889058016
 20
190.7265661377091135
 30
0.0
 40
0.1268874491433998
 50
18.0581609676327908
 51
100.249483498402796
  0
ARC
  5
3AC78
  8
0
 10
2977.1312486859460478
 20
191.5015195430711969
 30
0.0
 40
3.369399877324363
 50
2.1743784588578099
 51
13.3593954604139604
  0
ARC
  5
3AC79
  8
0
 10
2980.0734505489381263
 20
191.6146869012783043
 30
0.0
 40
0.4250252664242371
 50
296.1599227761486191
 51
1.9781107973407801
  0
ARC
  5
3AC7A
  8
0
 10
2977.9506739597209162
 20
195.8909471864855902
 30
0.0
 40
5.1991796098468077
 50
291.5781000438767023
 51
296.3805966739203086
  0
ARC
  5
3AC7B
  8
0
 10
2980.5834735476828428
 20
189.3361157130869969
 30
0.0
 40
1.8649123677872701
 50
112.7340002917809016
 51
125.6553065285353057
  0
ARC
  5
3AC7C
  8
0
 10
2981.928637176878965
 20
190.9402420965357976
 30
0.0
 40
1.226021345409092
 50
163.3103641550547138
 51
180.0777267599501101
  0
ARC
  5
3AC7D
  8
0
 10
2980.9995683637298498
 20
191.1817244215179983
 30
0.0
 40
0.2690922870074254
 50
105.1450678156696057
 51
155.7280217674095866
  0
ARC
  5
3AC7E
  8
0
 10
2980.9737952289428904
 20
191.5767852712862123
 30
0.0
 40
0.0212071203530966
 50
292.5498882199613035
 51
14.2204889466561699
  0
ARC
  5
3AC7F
  8
0
 10
2980.6698815956128783
 20
192.5135693514075115
 30
0.0
 40
0.0207316968304208
 50
20.0977170222485384
 51
104.6690470430593933
  0
LINE
  5
3AC80
  8
0
 10
2976.793351605245789
 20
169.903418460674601
 30
0.0
 11
2978.344324407979002
 21
169.903418460674601
 31
0.0
  0
LINE
  5
3AC81
  8
0
 10
2979.4942874641142225
 20
169.903418460674601
 30
0.0
 11
2980.9269446496809906
 21
169.903418460674601
 31
0.0
  0
LINE
  5
3AC82
  8
0
 10
2981.50694350144704
 20
169.903418460674601
 30
0.0
 11
2982.5807232588467741
 21
169.903418460674601
 31
0.0
  0
LINE
  5
3AC83
  8
0
 10
2976.7145815265471356
 20
171.6790090118745127
 30
0.0
 11
2978.4905834571231935
 21
171.6790090118745127
 31
0.0
  0
LINE
  5
3AC84
  8
0
 10
2979.348028414970031
 20
171.6790090118745127
 30
0.0
 11
2980.9269446496809906
 21
171.6790090118745127
 31
0.0
  0
LINE
  5
3AC85
  8
0
 10
2981.50694350144704
 20
171.6790090118745127
 30
0.0
 11
2982.5807232588467741
 21
171.6790090118745127
 31
0.0
  0
LINE
  5
3AC86
  8
0
 10
2976.7736366446470129
 20
171.8364893267745117
 30
0.0
 11
2980.9269446496809906
 21
171.8364893267745117
 31
0.0
  0
LINE
  5
3AC87
  8
0
 10
2981.50694350144704
 20
171.8364893267745117
 30
0.0
 11
2982.5807232588467741
 21
171.8364893267745117
 31
0.0
  0
LINE
  5
3AC88
  8
0
 10
2982.5807232588467741
 20
169.2717896603087979
 30
0.0
 11
2982.5807232588467741
 21
171.8364893267745117
 31
0.0
  0
LINE
  5
3AC89
  8
0
 10
2982.5807232588467741
 20
169.2717896603087979
 30
0.0
 11
2981.50694350144704
 21
169.3543917408815958
 31
0.0
  0
LINE
  5
3AC8A
  8
0
 10
2980.9269446496809906
 20
169.3990090020616037
 30
0.0
 11
2977.6355368829908912
 21
169.6522053653457931
 31
0.0
  0
ARC
  5
3AC8B
  8
0
 10
2977.6385588573480163
 20
169.6914893018974055
 30
0.0
 40
0.0394
 50
211.4759999987900017
 51
265.6011016831392908
  0
LINE
  5
3AC8C
  8
0
 10
2977.6049562145908567
 20
169.6709169320851061
 30
0.0
 11
2977.5086907322538536
 21
169.8281557257868997
 31
0.0
  0
LINE
  5
3AC8D
  8
0
 10
2976.7539516052461295
 20
169.9428184606746015
 30
0.0
 11
2976.7539516052461295
 21
171.6790090118745127
 31
0.0
  0
ARC
  5
3AC8E
  8
0
 10
2976.793351605245789
 20
169.9428184606744878
 30
0.0
 40
0.0394
 50
179.9999999999886029
 51
270.0
  0
LINE
  5
3AC8F
  8
0
 10
2976.7145815265471356
 20
171.7774342086744923
 30
0.0
 11
2976.7145815265471356
 21
171.6790090118745127
 31
0.0
  0
LINE
  5
3AC90
  8
0
 10
2976.7736366446470129
 20
171.8364893267745117
 30
0.0
 11
2976.7145815265471356
 21
171.7774342086744923
 31
0.0
  0
ARC
  5
3AC91
  8
0
 10
2977.3743654471181799
 20
169.7459184606744884
 30
0.0
 40
0.1575
 50
31.475999998794471
 51
90.0
  0
LINE
  5
3AC92
  8
0
 10
2976.6346602667467778
 20
170.0770411914745921
 30
0.0
 11
2976.6346602667467778
 21
171.5013607160746005
 31
0.0
  0
LINE
  5
3AC93
  8
0
 10
2976.6425334844211648
 20
170.0629878205006946
 30
0.0
 11
2976.7539516052461295
 21
170.0614320289745081
 31
0.0
  0
LINE
  5
3AC94
  8
0
 10
2976.6353602667468294
 20
170.0702619019745043
 30
0.0
 11
2976.6425334844211648
 21
170.0629878205006946
 31
0.0
  0
LINE
  5
3AC95
  8
0
 10
2976.6353602667468294
 20
170.0702619019745043
 30
0.0
 11
2976.6353602667468294
 21
171.5081426968745006
 31
0.0
  0
LINE
  5
3AC96
  8
0
 10
2976.6346602667467778
 20
170.0770411914745921
 30
0.0
 11
2976.6353602667468294
 21
170.0770411914745921
 31
0.0
  0
LINE
  5
3AC97
  8
0
 10
2976.6426002446810344
 20
171.5155035763409046
 30
0.0
 11
2976.7539516052461295
 21
171.5170584356746133
 31
0.0
  0
LINE
  5
3AC98
  8
0
 10
2976.6353602667468294
 20
171.5081426968745006
 30
0.0
 11
2976.6426002446810344
 21
171.5155035763409046
 31
0.0
  0
LINE
  5
3AC99
  8
0
 10
2976.6346602667467778
 20
171.5013607160746005
 30
0.0
 11
2976.6353602667468294
 21
171.5013626519744889
 31
0.0
  0
LINE
  5
3AC9A
  8
0
 10
2976.6426002446810344
 20
171.5155035763409046
 30
0.0
 11
2976.6425334844211648
 21
170.0629878205006946
 31
0.0
  0
LINE
  5
3AC9B
  8
0
 10
2978.7609957564468459
 20
169.6854481090234117
 30
0.0
 11
2978.7607626552471629
 21
169.7388706357745036
 31
0.0
  0
LINE
  5
3AC9C
  8
0
 10
2978.9094634163470801
 20
170.7879950683746131
 30
0.0
 11
2978.9094634163470801
 21
171.757523076174607
 31
0.0
  0
LINE
  5
3AC9D
  8
0
 10
2978.9291484556470095
 20
170.7879950683746131
 30
0.0
 11
2978.9291484556470095
 21
171.7575230773744863
 31
0.0
  0
LINE
  5
3AC9E
  8
0
 10
2979.0776161155458794
 20
169.6854481090095135
 30
0.0
 11
2979.0778492156468928
 21
169.7388703836745094
 31
0.0
  0
ARC
  5
3AC9F
  8
0
 10
2978.9193059360468396
 20
170.7695601929744953
 30
0.0
 40
1.102362204699999
 50
262.1009305192678767
 51
277.8990694754447759
  0
ARC
  5
3ACA0
  8
0
 10
2978.7688956812448851
 20
169.6854825791629935
 30
0.0
 40
0.0079
 50
180.2499999726904036
 51
262.1009305192416718
  0
ARC
  5
3ACA1
  8
0
 10
2979.0697161907478403
 20
169.6854825791490953
 30
0.0
 40
0.0079
 50
277.8990694754447759
 51
359.7500000272997909
  0
CIRCLE
  5
3ACA2
  8
0
 10
2978.9193059360468396
 20
170.749875153574493
 30
0.0
 40
1.0236220471999991
  0
CIRCLE
  5
3ACA3
  8
0
 10
2978.9193059360468396
 20
170.749875153574493
 30
0.0
 40
1.0232754715000001
  0
ARC
  5
3ACA4
  8
0
 10
2978.9193059360468396
 20
170.749875153574493
 30
0.0
 40
1.0076959915000001
 50
89.4403631555948806
 51
90.5596368444051336
  0
ARC
  5
3ACA5
  8
0
 10
2978.9193059360468396
 20
170.749875153574493
 30
0.0
 40
0.9839068919
 50
90.5728648323999579
 51
89.427112293410417
  0
ARC
  5
3ACA6
  8
0
 10
2978.9193059360468396
 20
170.749875153574493
 30
0.0
 40
0.9822834645999998
 50
90.5741156144057697
 51
89.4258843855942445
  0
ARC
  5
3ACA7
  8
0
 10
2978.9193059360468396
 20
170.749875153574493
 30
0.0
 40
0.9751968504
 50
90.5782877705020724
 51
89.4217122294979276
  0
ARC
  5
3ACA8
  8
0
 10
2978.9193059360468396
 20
170.749875153574493
 30
0.0
 40
0.9633858268
 50
90.5853777718045023
 51
89.4146222281955261
  0
ARC
  5
3ACA9
  8
0
 10
2978.9193059360468396
 20
170.749875153574493
 30
0.0
 40
0.9562992126000001
 50
90.5897158411959253
 51
89.4102841588040747
  0
ARC
  5
3ACAA
  8
0
 10
2978.9193059360468396
 20
170.749875153574493
 30
0.0
 40
0.9444881890000001
 50
90.597090627306315
 51
89.4029093726936708
  0
ARC
  5
3ACAB
  8
0
 10
2978.9193059360468396
 20
170.749875153574493
 30
0.0
 40
0.9374015748000001
 50
90.601604707413145
 51
89.3983952926129462
  0
ARC
  5
3ACAC
  8
0
 10
2978.9193059360468396
 20
170.749875153574493
 30
0.0
 40
0.9255905512
 50
90.6092817883054522
 51
89.390718211694562
  0
ARC
  5
3ACAD
  8
0
 10
2978.9193059360468396
 20
170.749875153574493
 30
0.0
 40
0.918503937
 50
90.6139828129066416
 51
89.3860171870933442
  0
ARC
  5
3ACAE
  8
0
 10
2978.9193059360468396
 20
170.749875153574493
 30
0.0
 40
0.9066929134
 50
90.6219811643994859
 51
89.3780188356004999
  0
ARC
  5
3ACAF
  8
0
 10
2978.9193059360468396
 20
170.749875153574493
 30
0.0
 40
0.8996062992
 50
90.6268809918896352
 51
89.3731190081103932
  0
ARC
  5
3ACB0
  8
0
 10
2978.9193059360468396
 20
170.749875153574493
 30
0.0
 40
0.8877952756
 50
90.6352212114911424
 51
89.3647787885088718
  0
ARC
  5
3ACB1
  8
0
 10
2978.9193059360468396
 20
170.749875153574493
 30
0.0
 40
0.8807086614000001
 50
90.6403327252060507
 51
89.3596672747939635
  0
ARC
  5
3ACB2
  8
0
 10
2978.9193059360468396
 20
170.749875153574493
 30
0.0
 40
0.8688976378000001
 50
90.6490372099862043
 51
89.3509627900138099
  0
ARC
  5
3ACB3
  8
0
 10
2978.9193059360468396
 20
170.749875153574493
 30
0.0
 40
0.8618110235999999
 50
90.6543744304956647
 51
89.3456255695043637
  0
ARC
  5
3ACB4
  8
0
 10
2978.9193059360468396
 20
170.749875153574493
 30
0.0
 40
0.85
 50
90.6634675775093655
 51
89.3365324224906345
  0
ARC
  5
3ACB5
  8
0
 10
2978.9193059360468396
 20
170.749875153574493
 30
0.0
 40
0.8429133858
 50
90.6690457919061856
 51
89.330954208093857
  0
ARC
  5
3ACB6
  8
0
 10
2978.9193059360468396
 20
170.749875153574493
 30
0.0
 40
0.8311023622
 50
90.6785542264853746
 51
89.3214457734885769
  0
ARC
  5
3ACB7
  8
0
 10
2978.9193059360468396
 20
170.749875153574493
 30
0.0
 40
0.824015748
 50
90.6843901340997576
 51
89.3156098659002282
  0
ARC
  5
3ACB8
  8
0
 10
2978.9193059360468396
 20
170.749875153574493
 30
0.0
 40
0.8122047244
 50
90.694342970707666
 51
89.305657029292334
  0
ARC
  5
3ACB9
  8
0
 10
2978.9193059360468396
 20
170.749875153574493
 30
0.0
 40
0.8051181101999999
 50
90.7004548501997334
 51
89.299545149800224
  0
ARC
  5
3ACBA
  8
0
 10
2978.9193059360468396
 20
170.749875153574493
 30
0.0
 40
0.7933070866
 50
90.7108839896034738
 51
89.2891160103965547
  0
ARC
  5
3ACBB
  8
0
 10
2978.9193059360468396
 20
170.749875153574493
 30
0.0
 40
0.7862204724
 50
90.717291890094117
 51
89.282708109905883
  0
ARC
  5
3ACBC
  8
0
 10
2978.9193059360468396
 20
170.749875153574493
 30
0.0
 40
0.7744094488
 50
90.7282323613029433
 51
89.2717676386970851
  0
ARC
  5
3ACBD
  8
0
 10
2978.9193059360468396
 20
170.749875153574493
 30
0.0
 40
0.7673228345999999
 50
90.734958322393183
 51
89.265041677606817
  0
ARC
  5
3ACBE
  8
0
 10
2978.9193059360468396
 20
170.749875153574493
 30
0.0
 40
0.755511811
 50
90.746448675492374
 51
89.253551324507626
  0
ARC
  5
3ACBF
  8
0
 10
2978.9193059360468396
 20
170.749875153574493
 30
0.0
 40
0.7484251969
 50
90.7535169801879391
 51
89.2464830198120467
  0
ARC
  5
3ACC0
  8
0
 10
2978.9193059360468396
 20
170.749875153574493
 30
0.0
 40
0.7366141731999999
 50
90.7655997403938954
 51
89.2344002596061188
  0
ARC
  5
3ACC1
  8
0
 10
2978.9193059360468396
 20
170.749875153574493
 30
0.0
 40
0.7295275591000001
 50
90.7730372080020373
 51
89.2269627919979911
  0
ARC
  5
3ACC2
  8
0
 10
2978.9193059360468396
 20
170.749875153574493
 30
0.0
 40
0.7177165354000001
 50
90.7857594013979536
 51
89.2142405986020464
  0
ARC
  5
3ACC3
  8
0
 10
2978.9193059360468396
 20
170.749875153574493
 30
0.0
 40
0.7106299212999999
 50
90.7935957279073875
 51
89.2064042720926267
  0
ARC
  5
3ACC4
  8
0
 10
2978.9193059360468396
 20
170.749875153574493
 30
0.0
 40
0.6988188976
 50
90.8070094930997556
 51
89.1929905069002444
  0
ARC
  5
3ACC5
  8
0
 10
2978.9193059360468396
 20
170.749875153574493
 30
0.0
 40
0.6917322835
 50
90.8152776468958933
 51
89.1847223531041067
  0
ARC
  5
3ACC6
  8
0
 10
2978.9193059360468396
 20
170.749875153574493
 30
0.0
 40
0.6799212598000001
 50
90.8294409494925361
 51
89.1705590505074781
  0
ARC
  5
3ACC7
  8
0
 10
2978.9193059360468396
 20
170.749875153574493
 30
0.0
 40
0.6728346457
 50
90.8381776357081776
 51
89.1618223642918366
  0
ARC
  5
3ACC8
  8
0
 10
2978.9193059360468396
 20
170.749875153574493
 30
0.0
 40
0.661023622
 50
90.8531551052087849
 51
89.1468448947912293
  0
ARC
  5
3ACC9
  8
0
 10
2978.9193059360468396
 20
170.749875153574493
 30
0.0
 40
0.6539370079
 50
90.8624013095909362
 51
89.1375986904090638
  0
ARC
  5
3ACCA
  8
0
 10
2978.9193059360468396
 20
170.749875153574493
 30
0.0
 40
0.6421259843
 50
90.8782652258957455
 51
89.1217347741042545
  0
ARC
  5
3ACCB
  8
0
 10
2978.9193059360468396
 20
170.749875153574493
 30
0.0
 40
0.6350393701
 50
90.8880668584020697
 51
89.1119331415979445
  0
ARC
  5
3ACCC
  8
0
 10
2978.9193059360468396
 20
170.749875153574493
 30
0.0
 40
0.6232283465
 50
90.9048983179932577
 51
89.0951016820067281
  0
ARC
  5
3ACCD
  8
0
 10
2978.9193059360468396
 20
170.749875153574493
 30
0.0
 40
0.6161417323000001
 50
90.915306974592383
 51
89.0846930254076028
  0
ARC
  5
3ACCE
  8
0
 10
2978.9193059360468396
 20
170.749875153574493
 30
0.0
 40
0.6043307087000001
 50
90.9331972770865065
 51
89.0668027229135078
  0
ARC
  5
3ACCF
  8
0
 10
2978.9193059360468396
 20
170.749875153574493
 30
0.0
 40
0.5972440945
 50
90.9442711486151865
 51
89.0557288513848135
  0
ARC
  5
3ACD0
  8
0
 10
2978.9193059360468396
 20
170.749875153574493
 30
0.0
 40
0.5854330709000001
 50
90.9633234536003954
 51
89.0366765463995762
  0
ARC
  5
3ACD1
  8
0
 10
2978.9193059360468396
 20
170.749875153574493
 30
0.0
 40
0.5783464567000001
 50
90.9751284136956571
 51
89.0248715863043287
  0
ARC
  5
3ACD2
  8
0
 10
2978.9193059360468396
 20
170.749875153574493
 30
0.0
 40
0.5665354331
 50
90.9954597314956857
 51
89.0045402685043143
  0
ARC
  5
3ACD3
  8
0
 10
2978.9193059360468396
 20
170.749875153574493
 30
0.0
 40
0.5594488189
 50
91.0080706481961244
 51
88.9919293518038756
  0
ARC
  5
3ACD4
  8
0
 10
2978.9193059360468396
 20
170.749875153574493
 30
0.0
 40
0.5476377953
 50
91.0298142442088363
 51
88.9701857557911922
  0
ARC
  5
3ACD5
  8
0
 10
2978.9193059360468396
 20
170.749875153574493
 30
0.0
 40
0.5405511811000001
 50
91.04331656919598
 51
88.9566834308040342
  0
ARC
  5
3ACD6
  8
0
 10
2978.9193059360468396
 20
170.749875153574493
 30
0.0
 40
0.5287401575000001
 50
91.0666248891992325
 51
88.9333751108007533
  0
ARC
  5
3ACD7
  8
0
 10
2978.9193059360468396
 20
170.749875153574493
 30
0.0
 40
0.5216535433000001
 50
91.0811165960900411
 51
88.9188834039099589
  0
ARC
  5
3ACD8
  8
0
 10
2978.9193059360468396
 20
170.749875153574493
 30
0.0
 40
0.5098425197000001
 50
91.1061648450914134
 51
88.8938351549085723
  0
ARC
  5
3ACD9
  8
0
 10
2978.9193059360468396
 20
170.749875153574493
 30
0.0
 40
0.5027559055
 50
91.1217588105955372
 51
88.8782411894044628
  0
ARC
  5
3ACDA
  8
0
 10
2978.9193059360468396
 20
170.749875153574493
 30
0.0
 40
0.4909448819
 50
91.1487493650087117
 51
88.8512506349912883
  0
ARC
  5
3ACDB
  8
0
 10
2978.9193059360468396
 20
170.749875153574493
 30
0.0
 40
0.4838582677
 50
91.1655763145067084
 51
88.8344236854933058
  0
ARC
  5
3ACDC
  8
0
 10
2978.9193059360468396
 20
170.749875153574493
 30
0.0
 40
0.4720472441
 50
91.1947442014872109
 51
88.8052557985128033
  0
ARC
  5
3ACDD
  8
0
 10
2978.9193059360468396
 20
170.749875153574493
 30
0.0
 40
0.4649606299000001
 50
91.2129563815953475
 51
88.7870436184046383
  0
ARC
  5
3ACDE
  8
0
 10
2978.9193059360468396
 20
170.749875153574493
 30
0.0
 40
0.4531496063000001
 50
91.2445761410039324
 51
88.7554238589960818
  0
ARC
  5
3ACDF
  8
0
 10
2978.9193059360468396
 20
170.749875153574493
 30
0.0
 40
0.4460629921
 50
91.264351938985584
 51
88.7356480609883533
  0
ARC
  5
3ACE0
  8
0
 10
2978.9193059360468396
 20
170.749875153574493
 30
0.0
 40
0.4342519685
 50
91.2987462906149432
 51
88.7012537094110769
  0
ARC
  5
3ACE1
  8
0
 10
2978.9193059360468396
 20
170.749875153574493
 30
0.0
 40
0.4271653543000001
 50
91.3202960953027656
 51
88.6797039046972486
  0
ARC
  5
3ACE2
  8
0
 10
2978.9193059360468396
 20
170.749875153574493
 30
0.0
 40
0.4153543307
 50
91.3578469931929078
 51
88.6421530068071064
  0
ARC
  5
3ACE3
  8
0
 10
2978.9193059360468396
 20
170.749875153574493
 30
0.0
 40
0.4082677165
 50
91.3814207082103422
 51
88.618579291789672
  0
ARC
  5
3ACE4
  8
0
 10
2978.9193059360468396
 20
170.749875153574493
 30
0.0
 40
0.3964566929
 50
91.4225835840914414
 51
88.5774164159085444
  0
ARC
  5
3ACE5
  8
0
 10
2978.9193059360468396
 20
170.749875153574493
 30
0.0
 40
0.3893700786999999
 50
91.4484803610071992
 51
88.5515196389927866
  0
ARC
  5
3ACE6
  8
0
 10
2978.9193059360468396
 20
170.749875153574493
 30
0.0
 40
0.3775590551
 50
91.4938026862097047
 51
88.5061973137902953
  0
ARC
  5
3ACE7
  8
0
 10
2978.9193059360468396
 20
170.749875153574493
 30
0.0
 40
0.3704724409
 50
91.5223836833941533
 51
88.4776163166058751
  0
ARC
  5
3ACE8
  8
0
 10
2978.9193059360468396
 20
170.749875153574493
 30
0.0
 40
0.3586614173
 50
91.5725294557873752
 51
88.4274705442125963
  0
ARC
  5
3ACE9
  8
0
 10
2978.9193059360468396
 20
170.749875153574493
 30
0.0
 40
0.3515748031
 50
91.6042347818055589
 51
88.3957652181944695
  0
ARC
  5
3ACEA
  8
0
 10
2978.9193059360468396
 20
170.749875153574493
 30
0.0
 40
0.3397637795
 50
91.6600172706148726
 51
88.3399827294111759
  0
ARC
  5
3ACEB
  8
0
 10
2978.9193059360468396
 20
170.749875153574493
 30
0.0
 40
0.3326771654
 50
91.6953888015916334
 51
88.304611198408395
  0
ARC
  5
3ACEC
  8
0
 10
2978.9193059360468396
 20
170.749875153574493
 30
0.0
 40
0.3208661417
 50
91.7578149906094609
 51
88.2421850093905533
  0
ARC
  5
3ACED
  8
0
 10
2978.9193059360468396
 20
170.749875153574493
 30
0.0
 40
0.3137795276
 50
91.7975275876903964
 51
88.2024724123096462
  0
ARC
  5
3ACEE
  8
0
 10
2978.9193059360468396
 20
170.749875153574493
 30
0.0
 40
0.3019685039
 50
91.8678595035011512
 51
88.1321404964988346
  0
ARC
  5
3ACEF
  8
0
 10
2978.9193059360468396
 20
170.749875153574493
 30
0.0
 40
0.2948818898
 50
91.9127644703025624
 51
88.0872355296974661
  0
ARC
  5
3ACF0
  8
0
 10
2978.9193059360468396
 20
170.749875153574493
 30
0.0
 40
0.2830708661
 50
91.9926053821099856
 51
88.0073946178900286
  0
ARC
  5
3ACF1
  8
0
 10
2978.9193059360468396
 20
170.749875153574493
 30
0.0
 40
0.275984252
 50
92.0437921530012062
 51
87.9562078469988364
  0
ARC
  5
3ACF2
  8
0
 10
2978.9193059360468396
 20
170.749875153574493
 30
0.0
 40
0.2641732283
 50
92.1352102686946637
 51
87.8647897313053363
  0
ARC
  5
3ACF3
  8
0
 10
2978.9193059360468396
 20
170.749875153574493
 30
0.0
 40
0.2570866142
 50
92.1940959201065624
 51
87.8059040798934518
  0
ARC
  5
3ACF4
  8
0
 10
2978.9193059360468396
 20
170.749875153574493
 30
0.0
 40
0.2452755906
 50
92.2998060914001712
 51
87.7001939085998288
  0
ARC
  5
3ACF5
  8
0
 10
2978.9193059360468396
 20
170.749875153574493
 30
0.0
 40
0.2381889764
 50
92.368268504105373
 51
87.631731495894627
  0
ARC
  5
3ACF6
  8
0
 10
2978.9193059360468396
 20
170.749875153574493
 30
0.0
 40
0.2263779528
 50
92.4919063690025922
 51
87.508093630997422
  0
ARC
  5
3ACF7
  8
0
 10
2978.9193059360468396
 20
170.749875153574493
 30
0.0
 40
0.2192913386
 50
92.5724880670897932
 51
87.4275119329102353
  0
ARC
  5
3ACF8
  8
0
 10
2978.9193059360468396
 20
170.749875153574493
 30
0.0
 40
0.207480315
 50
92.7190365747019314
 51
87.2809634252980686
  0
ARC
  5
3ACF9
  8
0
 10
2978.9193059360468396
 20
170.749875153574493
 30
0.0
 40
0.2003937008
 50
92.8152672406867794
 51
87.1847327593132349
  0
ARC
  5
3ACFA
  8
0
 10
2978.9193059360468396
 20
170.749875153574493
 30
0.0
 40
0.1885826772
 50
92.991744459695397
 51
87.0082555403046172
  0
ARC
  5
3ACFB
  8
0
 10
2978.9193059360468396
 20
170.749875153574493
 30
0.0
 40
0.181496063
 50
93.1086713739080238
 51
86.8913286260919762
  0
ARC
  5
3ACFC
  8
0
 10
2978.9193059360468396
 20
170.749875153574493
 30
0.0
 40
0.1696850394
 50
93.3252875423071657
 51
86.6747124576928343
  0
ARC
  5
3ACFD
  8
0
 10
2978.9193059360468396
 20
170.749875153574493
 30
0.0
 40
0.1625984252
 50
93.4703890997147937
 51
86.5294934825095083
  0
ARC
  5
3ACFE
  8
0
 10
2978.9193059360468396
 20
170.749875153574493
 30
0.0
 40
0.1507874016
 50
93.7425942918060002
 51
86.257405708194014
  0
ARC
  5
3ACFF
  8
0
 10
2978.9193059360468396
 20
170.749875153574493
 30
0.0
 40
0.1437007874
 50
93.927443361588729
 51
86.0725566384112852
  0
ARC
  5
3AD00
  8
0
 10
2978.9193059360468396
 20
170.749875153574493
 30
0.0
 40
0.1318897638
 50
94.2797832003107459
 51
85.7202167996892541
  0
ARC
  5
3AD01
  8
0
 10
2978.9193059360468396
 20
170.749875153574493
 30
0.0
 40
0.1248031496
 50
94.5232917218990707
 51
85.4767082781009151
  0
ARC
  5
3AD02
  8
0
 10
2978.9193059360468396
 20
170.749875153574493
 30
0.0
 40
0.112992126
 50
94.9972549004010176
 51
85.0027450995989682
  0
ARC
  5
3AD03
  8
0
 10
2978.9193059360468396
 20
170.749875153574493
 30
0.0
 40
0.1059055118
 50
95.3325819149984568
 51
84.6674180850015574
  0
ARC
  5
3AD04
  8
0
 10
2978.9193059360468396
 20
170.749875153574493
 30
0.0
 40
0.0940944882
 50
96.0042659776915315
 51
83.9957340223084685
  0
ARC
  5
3AD05
  8
0
 10
2978.9193059360468396
 20
170.749875153574493
 30
0.0
 40
0.087007874
 50
96.4953266260944673
 51
83.5046733739055469
  0
ARC
  5
3AD06
  8
0
 10
2978.9193059360468396
 20
170.749875153574493
 30
0.0
 40
0.0751968504
 50
97.5217080146075546
 51
82.4789719477956567
  0
ARC
  5
3AD07
  8
0
 10
2978.9193059360468396
 20
170.749875153574493
 30
0.0
 40
0.0681102362
 50
98.3088284290090115
 51
81.6911715709909885
  0
ARC
  5
3AD08
  8
0
 10
2978.9193059360468396
 20
170.749875153574493
 30
0.0
 40
0.0562992126
 50
100.0684845267969934
 51
79.9315154732030066
  0
ARC
  5
3AD09
  8
0
 10
2978.9193059360468396
 20
170.749875153574493
 30
0.0
 40
0.0492125984
 50
101.5369590328049014
 51
78.4630409671951128
  0
ARC
  5
3AD0A
  8
0
 10
2978.9193059360468396
 20
170.749875153574493
 30
0.0
 40
0.0393700787
 50
104.4775121859029952
 51
75.5224878140970048
  0
LINE
  5
3AD0B
  8
0
 10
2979.2743797466328033
 20
169.4531988979950086
 30
0.0
 11
2979.2790523960588871
 21
169.513940664547107
 31
0.0
  0
LINE
  5
3AD0C
  8
0
 10
2979.3063334912371829
 20
169.4249608973659917
 30
0.0
 11
2980.9269446496809906
 21
169.3002930105718065
 31
0.0
  0
LINE
  5
3AD0D
  8
0
 10
2979.2817892713687797
 20
169.4360940801763036
 30
0.0
 11
2979.2802386177982044
 21
169.4376125339240104
 31
0.0
  0
ARC
  5
3AD0E
  8
0
 10
2979.3093554655888511
 20
169.4642448339180021
 30
0.0
 40
0.0394
 50
225.6011019248340972
 51
265.6011016913187177
  0
ARC
  5
3AD0F
  8
0
 10
2979.2940217149071032
 20
169.4516879107949023
 30
0.0
 40
0.0197
 50
175.6011016207268085
 51
225.6011019247524132
  0
ARC
  5
3AD10
  8
0
 10
2979.2908176359378558
 20
169.5130356062242072
 30
0.0
 40
0.0118
 50
85.6011016831393619
 51
175.6011016207137914
  0
LINE
  5
3AD11
  8
0
 10
2982.6397783769471062
 20
171.7971192480744946
 30
0.0
 11
2982.6397783769471062
 21
169.2757266681745136
 31
0.0
  0
LINE
  5
3AD12
  8
0
 10
2982.6397783769471062
 20
169.2757266681745136
 30
0.0
 11
2982.5807232588467741
 21
169.2757266681745136
 31
0.0
  0
LINE
  5
3AD13
  8
0
 10
2982.6397783769471062
 20
171.7971192480744946
 30
0.0
 11
2982.5807232588467741
 21
171.7971192480744946
 31
0.0
  0
LINE
  5
3AD14
  8
0
 10
2980.6738979473880136
 20
192.5668766566683985
 30
0.0
 11
2980.5767830389950177
 21
192.8657656113350924
 31
0.0
  0
LINE
  5
3AD15
  8
0
 10
2980.6742812967149803
 20
192.5646638854458104
 30
0.0
 11
2980.6751796546609512
 21
192.5336126501329943
 31
0.0
  0
ARC
  5
3AD16
  8
0
 10
2980.666384600910078
 20
192.5644354224120889
 30
0.0
 40
0.0079
 50
1.657188972513947
 51
18.0000000059093495
  0
LINE
  5
3AD17
  8
0
 10
2980.4817369908942055
 20
192.8562734756607995
 30
0.0
 11
2980.5521233213598862
 21
192.8784662004690915
 31
0.0
  0
ARC
  5
3AD18
  8
0
 10
2980.5580472256237954
 20
192.8596779765439067
 30
0.0
 40
0.0197
 50
18.0000000062901684
 51
107.5000000437316032
  0
LINE
  5
3AD19
  8
0
 10
2980.8459537303451725
 20
168.2836006839744982
 30
0.0
 11
2980.9269446496809906
 21
168.2836006839744982
 31
0.0
  0
LINE
  5
3AD1A
  8
0
 10
2981.50694350144704
 20
168.2836006839744982
 30
0.0
 11
2981.5879337323481195
 21
168.2836006839744982
 31
0.0
  0
LINE
  5
3AD1B
  8
0
 10
2981.6379237353471581
 20
168.3326008839160011
 30
0.0
 11
2981.6563925502209713
 21
169.2560416288744989
 31
0.0
  0
LINE
  5
3AD1C
  8
0
 10
2980.7959637273452245
 20
168.3326008839140968
 30
0.0
 11
2980.7774949124368504
 21
169.2560416288744989
 31
0.0
  0
ARC
  5
3AD1D
  8
0
 10
2981.5879337323481195
 20
168.3336006839745096
 30
0.0
 40
0.05
 50
270.0
 51
358.8542371634528081
  0
ARC
  5
3AD1E
  8
0
 10
2980.8459537303451725
 20
168.3336006839745096
 30
0.0
 40
0.05
 50
181.145762838746009
 51
270.0
  0
LINE
  5
3AD1F
  8
0
 10
2979.7185673632789076
 20
187.3096744409060079
 30
0.0
 11
2980.6236665559449648
 21
187.3096744409060079
 31
0.0
  0
ARC
  5
3AD20
  8
0
 10
2980.6236665559449648
 20
187.3217744409060117
 30
0.0
 40
0.0121
 50
270.0
 51
354.8219687821763841
  0
LINE
  5
3AD21
  8
0
 10
2981.50694350144704
 20
154.5177227382554861
 30
0.0
 11
2981.50694350144704
 21
176.1567941451918102
 31
0.0
  0
LINE
  5
3AD22
  8
0
 10
2980.9269446496809906
 20
154.5177227382554861
 30
0.0
 11
2980.9269446496809906
 21
175.9755086271989057
 31
0.0
  0
ARC
  5
3AD23
  8
0
 10
2981.2169440755637879
 20
154.5177227382554861
 30
0.0
 40
0.2899994258828187
 50
180.0
 51
0.0
  0
LINE
  5
3AD24
  8
0
 10
2981.6456503544741281
 20
185.4585611629244966
 30
0.0
 11
2982.6397783769471062
 21
185.4585611629244966
 31
0.0
  0
LINE
  5
3AD25
  8
0
 10
2981.5613506365189096
 20
186.1672225802244895
 30
0.0
 11
2979.7776035738470455
 21
186.1672225802244895
 31
0.0
  0
LINE
  5
3AD26
  8
0
 10
2979.7776035738470455
 20
187.308954863624507
 30
0.0
 11
2982.6397783769471062
 21
187.308954863624507
 31
0.0
  0
LINE
  5
3AD27
  8
0
 10
2982.6397783769471062
 20
185.4585611629244966
 30
0.0
 11
2982.6397783769471062
 21
187.308954863624507
 31
0.0
  0
LINE
  5
3AD28
  8
0
 10
2981.6007491362870496
 20
186.1281664057271996
 30
0.0
 11
2981.6062518547059881
 21
185.4976173374219002
 31
0.0
  0
ARC
  5
3AD29
  8
0
 10
2981.5613506365189096
 20
186.127822580224489
 30
0.0
 40
0.0394
 50
0.5000000058378928
 51
90.0
  0
ARC
  5
3AD2A
  8
0
 10
2981.6456503544741281
 20
185.4979611629244971
 30
0.0
 40
0.0394
 50
180.5000000058215903
 51
270.0
  0
LINE
  5
3AD2B
  8
0
 10
2979.7382035738469312
 20
186.2066225802244901
 30
0.0
 11
2979.7382035738469312
 21
187.2695548636245064
 31
0.0
  0
ARC
  5
3AD2C
  8
0
 10
2979.7776035738470455
 20
186.2066225802244901
 30
0.0
 40
0.0394
 50
179.9999999999951115
 51
270.0
  0
ARC
  5
3AD2D
  8
0
 10
2979.7776035738470455
 20
187.2695548636245064
 30
0.0
 40
0.0394
 50
89.9999999999739515
 51
180.0000000000163141
  0
LINE
  5
3AD2E
  8
0
 10
2979.7382035738469312
 20
187.1577970695254862
 30
0.0
 11
2979.7311120834019675
 21
187.3096744409060079
 31
0.0
  0
LINE
  5
3AD2F
  8
0
 10
2980.6110882372458946
 20
187.308954863624507
 30
0.0
 11
2980.6111218358901169
 21
187.3096744409060079
 31
0.0
  0
LINE
  5
3AD30
  8
0
 10
2980.5033977903481173
 20
186.0245740167549968
 30
0.0
 11
2979.8388361289448767
 21
186.0245740167549968
 31
0.0
  0
LINE
  5
3AD31
  8
0
 10
2980.5577782311470401
 20
186.1672225802244895
 30
0.0
 11
2980.5533433752398196
 21
186.0722419468960993
 31
0.0
  0
LINE
  5
3AD32
  8
0
 10
2979.7844556881468634
 20
186.1672225802244895
 30
0.0
 11
2979.7888905440540839
 21
186.0722419468960993
 31
0.0
  0
ARC
  5
3AD33
  8
0
 10
2980.5033977903481173
 20
186.0745740167550082
 30
0.0
 40
0.05
 50
270.0
 51
357.3266749255889181
  0
ARC
  5
3AD34
  8
0
 10
2979.8388361289448767
 20
186.0745740167550082
 30
0.0
 40
0.05
 50
182.6733250744061934
 51
270.0
  0
LINE
  5
3AD35
  8
0
 10
2980.4611169596469153
 20
186.0245740167549968
 30
0.0
 11
2980.4611169596469153
 21
184.3034231661152944
 31
0.0
  0
LINE
  5
3AD36
  8
0
 10
2979.8811169596469881
 20
186.0245740167549968
 30
0.0
 11
2979.8811169596469881
 21
184.2124427503202924
 31
0.0
  0
ARC
  5
3AD37
  8
0
 10
2997.0831535314327994
 20
184.2732244479709891
 30
0.0
 40
16.6220640040989593
 50
179.8959058244626874
 51
187.4089620525724058
  0
ARC
  5
3AD38
  8
0
 10
3003.5405626683627816
 20
185.1129225740141919
 30
0.0
 40
23.1338399296505806
 50
187.4089620525724058
 51
191.583377786795495
  0
ARC
  5
3AD39
  8
0
 10
2624.3368865052079855
 20
107.3882269689149069
 30
0.0
 40
363.9534323004710927
 50
11.3917802367179899
 51
11.5833777867955501
  0
ARC
  5
3AD3A
  8
0
 10
2952.6922858582420304
 20
173.5472689193559859
 30
0.0
 40
28.999275562432139
 50
7.8181766746766712
 51
11.3917802367179899
  0
ARC
  5
3AD3B
  8
0
 10
2972.3259449043580389
 20
176.2430914532291979
 30
0.0
 40
9.1814041663094983
 50
359.4614609868513071
 51
7.8181766746766712
  0
ARC
  5
3AD3C
  8
0
 10
2969.1503563787209714
 20
176.0521870818826073
 30
0.0
 40
11.7768378985667805
 50
359.6269471557412203
 51
9.2867623107126338
  0
ARC
  5
3AD3D
  8
0
 10
2948.9554367038308555
 20
172.7499329580620042
 30
0.0
 40
32.2399672529340506
 50
9.2867623107126338
 51
11.3728927103540407
  0
ARC
  5
3AD3E
  8
0
 10
3231.4811157921021731
 20
229.5780153003987891
 30
0.0
 40
255.9443319151438914
 50
190.9228122293266097
 51
191.3728927103539945
  0
ARC
  5
3AD3F
  8
0
 10
2994.3464092352178341
 20
183.8151449554434862
 30
0.0
 40
14.4342713461713092
 50
185.0348071114005961
 51
190.9228122293266097
  0
ARC
  5
3AD40
  8
0
 10
3003.1485800228319931
 20
184.5906236378359893
 30
0.0
 40
23.2705362675719485
 50
180.9311827802941082
 51
185.0348071114005961
  0
LINE
  5
3AD41
  8
0
 10
2981.8925346745768366
 20
169.2560416288744989
 30
0.0
 11
2981.50694350144704
 21
169.2560416288744989
 31
0.0
  0
LINE
  5
3AD42
  8
0
 10
2980.9269446496809906
 20
169.2560416288744989
 30
0.0
 11
2980.5422663777389971
 21
169.2560416288744989
 31
0.0
  0
LINE
  5
3AD43
  8
0
 10
2980.5223424837768107
 20
169.2742985140276915
 30
0.0
 11
2980.5173113486289367
 21
169.3318046521748101
 31
0.0
  0
ARC
  5
3AD44
  8
0
 10
2981.9703702788510782
 20
169.2591857950139911
 30
0.0
 40
0.0596398168486422
 50
90.9437315433767424
 51
167.780886952268304
  0
ARC
  5
3AD45
  8
0
 10
2981.8925346745768366
 20
169.2760416288755891
 30
0.0
 40
0.02
 50
270.0000000011464181
 51
347.7808869493654811
  0
ARC
  5
3AD46
  8
0
 10
2980.5422663777389971
 20
169.2760416288745091
 30
0.0
 40
0.02
 50
184.9999999765709049
 51
269.9999999999739089
  0
ENDSEC
  0
EOF
