  0
SECTION
  2
HEADER
  9
$ACADVER
  1
AC1009
  9
$INSBASE
 10
4764.0467280459070025
 20
238.5382355698810954
 30
0.0
  9
$EXTMIN
 10
4762.9647280459066678
 20
235.7617528538810916
 30
0.0
  9
$EXTMAX
 10
4765.1287280459073372
 20
238.5496460603552009
 30
0.0
  9
$LIMMIN
 10
0.0
 20
0.0
  9
$LIMMAX
 10
11.6929133858000007
 20
8.2677165353999982
  9
$ORTHOMODE
 70
     1
  9
$REGENMODE
 70
     1
  9
$FILLMODE
 70
     1
  9
$QTEXTMODE
 70
     0
  9
$MIRRTEXT
 70
     0
  9
$DRAGMODE
 70
     2
  9
$LTSCALE
 40
0.6431102362
  9
$OSMODE
 70
  4095
  9
$ATTMODE
 70
     1
  9
$TEXTSIZE
 40
0.2
  9
$TRACEWID
 40
0.05
  9
$TEXTSTYLE
  7
STANDARD
  9
$CLAYER
  8
0
  9
$CELTYPE
  6
BYLAYER
  9
$CECOLOR
 62
   256
  9
$DIMSCALE
 40
1.0
  9
$DIMASZ
 40
0.1875
  9
$DIMEXO
 40
0.0625
  9
$DIMDLI
 40
0.4443307087
  9
$DIMRND
 40
0.0
  9
$DIMDLE
 40
0.0
  9
$DIMEXE
 40
0.125
  9
$DIMTP
 40
0.01
  9
$DIMTM
 40
0.01
  9
$DIMTXT
 40
2.0
  9
$DIMCEN
 40
0.1052362205
  9
$DIMTSZ
 40
0.0
  9
$DIMTOL
 70
     1
  9
$DIMLIM
 70
     0
  9
$DIMTIH
 70
     1
  9
$DIMTOH
 70
     1
  9
$DIMSE1
 70
     0
  9
$DIMSE2
 70
     0
  9
$DIMTAD
 70
     0
  9
$DIMZIN
 70
     0
  9
$DIMBLK
  1

  9
$DIMASO
 70
     1
  9
$DIMSHO
 70
     1
  9
$DIMPOST
  1
\X
  9
$DIMAPOST
  1

  9
$DIMALT
 70
     1
  9
$DIMALTD
 70
     2
  9
$DIMALTF
 40
25.3999999999999986
  9
$DIMLFAC
 40
1.0
  9
$DIMTOFL
 70
     0
  9
$DIMTVP
 40
0.0
  9
$DIMTIX
 70
     0
  9
$DIMSOXD
 70
     0
  9
$DIMSAH
 70
     0
  9
$DIMBLK1
  1

  9
$DIMBLK2
  1

  9
$DIMSTYLE
  2
STANDARD
  9
$DIMCLRD
 70
     0
  9
$DIMCLRE
 70
     0
  9
$DIMCLRT
 70
     0
  9
$DIMTFAC
 40
1.0
  9
$DIMGAP
 40
0.09
  9
$LUNITS
 70
     2
  9
$LUPREC
 70
     4
  9
$SKETCHINC
 40
0.1
  9
$FILLETRAD
 40
0.0
  9
$AUNITS
 70
     0
  9
$AUPREC
 70
     0
  9
$MENU
  1
.
  9
$ELEVATION
 40
0.0
  9
$PELEVATION
 40
0.0
  9
$THICKNESS
 40
0.0
  9
$LIMCHECK
 70
     0
  9
$BLIPMODE
 70
     0
  9
$CHAMFERA
 40
0.0
  9
$CHAMFERB
 40
0.0
  9
$SKPOLY
 70
     0
  9
$TDCREATE
 40
2458060.468368056230247
  9
$TDUPDATE
 40
2459245.7812847220338881
  9
$TDINDWG
 40
0.3557709491
  9
$TDUSRTIMER
 40
0.3557709491
  9
$USRTIMER
 70
     1
  9
$ANGBASE
 50
0.0
  9
$ANGDIR
 70
     0
  9
$PDMODE
 70
     0
  9
$PDSIZE
 40
0.3125
  9
$PLINEWID
 40
0.0
  9
$COORDS
 70
     1
  9
$SPLFRAME
 70
     0
  9
$SPLINETYPE
 70
     6
  9
$SPLINESEGS
 70
     8
  9
$ATTDIA
 70
     1
  9
$ATTREQ
 70
     1
  9
$HANDLING
 70
     1
  9
$HANDSEED
  5
CC57
  9
$SURFTAB1
 70
     6
  9
$SURFTAB2
 70
     6
  9
$SURFTYPE
 70
     6
  9
$SURFU
 70
     6
  9
$SURFV
 70
     6
  9
$UCSNAME
  2

  9
$UCSORG
 10
0.0
 20
0.0
 30
0.0
  9
$UCSXDIR
 10
1.0
 20
0.0
 30
0.0
  9
$UCSYDIR
 10
0.0
 20
1.0
 30
0.0
  9
$PUCSNAME
  2

  9
$PUCSORG
 10
0.0
 20
0.0
 30
0.0
  9
$PUCSXDIR
 10
1.0
 20
0.0
 30
0.0
  9
$PUCSYDIR
 10
0.0
 20
1.0
 30
0.0
  9
$USERI1
 70
     0
  9
$USERI2
 70
     0
  9
$USERI3
 70
     0
  9
$USERI4
 70
     0
  9
$USERI5
 70
     0
  9
$USERR1
 40
0.0
  9
$USERR2
 40
0.0
  9
$USERR3
 40
0.0
  9
$USERR4
 40
0.0
  9
$USERR5
 40
0.0
  9
$WORLDVIEW
 70
     1
  9
$SHADEDGE
 70
     3
  9
$SHADEDIF
 70
    70
  9
$TILEMODE
 70
     1
  9
$MAXACTVP
 70
    64
  9
$PLIMCHECK
 70
     0
  9
$PEXTMIN
 10
1.0000000000000000E+20
 20
1.0000000000000000E+20
 30
1.0000000000000000E+20
  9
$PEXTMAX
 10
-1.0000000000000000E+20
 20
-1.0000000000000000E+20
 30
-1.0000000000000000E+20
  9
$PLIMMIN
 10
0.0
 20
0.0
  9
$PLIMMAX
 10
12.0
 20
9.0
  9
$UNITMODE
 70
     0
  9
$VISRETAIN
 70
     1
  9
$PLINEGEN
 70
     0
  9
$PSLTSCALE
 70
     1
  0
ENDSEC
  0
SECTION
  2
TABLES
  0
TABLE
  2
VPORT
 70
     1
  0
VPORT
  2
*ACTIVE
 70
     0
 10
0.0
 20
0.0
 11
1.0
 21
1.0
 12
0.0
 22
0.0
 13
0.0
 23
0.0
 14
1.0
 24
1.0
 15
0.0
 25
0.0
 16
0.0
 26
0.0
 36
10.0000191653452504
 17
4764.046875
 27
237.1556976639666061
 37
0.0
 40
3.5311241804149711
 41
2.1186252771618621
 42
50.0
 43
0.0
 44
0.0
 50
0.0
 51
0.0
 71
     0
 72
   100
 73
     1
 74
     1
 75
     0
 76
     0
 77
     0
 78
     0
  0
ENDTAB
  0
TABLE
  2
LTYPE
 70
     2
  0
LTYPE
  2
CONTINUOUS
 70
     0
  3
Solid line
 72
    65
 73
     0
 40
0.0
  0
LTYPE
  2
PHANTOM2
 70
     0
  3
___ _ _ ___ _ _ ___ _ _ ___ _ _
 72
    65
 73
     6
 40
1.25
 49
0.625
 49
-0.125
 49
0.125
 49
-0.125
 49
0.125
 49
-0.125
  0
ENDTAB
  0
TABLE
  2
LAYER
 70
     2
  0
LAYER
  2
0
 70
     0
 62
   255
  6
CONTINUOUS
  0
LAYER
  2
DEFPOINTS
 70
     0
 62
     7
  6
CONTINUOUS
  0
ENDTAB
  0
TABLE
  2
STYLE
 70
     1
  0
STYLE
  2
STANDARD
 70
     0
 40
0.0
 41
0.8
 50
0.0
 71
     0
 42
0.2
  3
txt
  4

  0
ENDTAB
  0
TABLE
  2
VIEW
 70
     0
  0
ENDTAB
  0
TABLE
  2
UCS
 70
     0
  0
ENDTAB
  0
TABLE
  2
APPID
 70
     9
  0
APPID
  2
ACAD
 70
     0
  0
APPID
  2
ACAD_MLEADERVER
 70
     0
  0
APPID
  2
ACAD_EXEMPT_FROM_CAD_STANDARDS
 70
     0
  0
APPID
  2
ACAD_NAV_VCDISPLAY
 70
     0
  0
APPID
  2
ACAECLAYERSTANDARD
 70
     0
  0
APPID
  2
ACCMTRANSPARENCY
 70
     0
  0
APPID
  2
ACAD_DSTYLE_DIMJAG
 70
     0
  0
APPID
  2
ACAD_DSTYLE_DIMTALN
 70
     0
  0
APPID
  2
ACDBATTR
 70
     0
  0
ENDTAB
  0
TABLE
  2
DIMSTYLE
 70
     1
  0
DIMSTYLE
  2
STANDARD
 70
     0
  3

  4

  5

  6

  7

 40
1.0
 41
0.1875
 42
0.0625
 43
0.38
 44
0.125
 45
0.0
 46
0.0
 47
0.01
 48
0.01
140
0.15625
141
0.09
142
0.0
143
25.3999999999999986
144
1.0
145
0.0
146
1.0
147
0.09
 71
     1
 72
     0
 73
     1
 74
     1
 75
     0
 76
     0
 77
     0
 78
     4
170
     0
171
     2
172
     0
173
     0
174
     0
175
     0
176
     0
177
     0
178
     0
  0
ENDTAB
  0
ENDSEC
  0
SECTION
  2
BLOCKS
  0
BLOCK
  8
0
  2
$MODEL_SPACE
 70
     0
 10
0.0
 20
0.0
 30
0.0
  3
$MODEL_SPACE
  1

  0
ENDBLK
  5
21
  8
0
  0
BLOCK
 67
     1
  8
0
  2
$PAPER_SPACE
 70
     0
 10
0.0
 20
0.0
 30
0.0
  3
$PAPER_SPACE
  1

  0
ENDBLK
  5
1D
 67
     1
  8
0
  0
ENDSEC
  0
SECTION
  2
ENTITIES
  0
ATTDEF
  5
3930
  8
DEFPOINTS
 10
4764.0429399823033236
 20
238.5486460603551109
 30
0.0
 40
0.001
  1
K-26319T
  3

  2
MODELNUMBER
 70
     0
1001
ACDBATTR
1070
     0
1070
     1
  0
ATTDEF
  5
3931
  8
DEFPOINTS
 10
4764.0429399823033236
 20
238.5469793936885026
 30
0.0
 40
0.001
  1

  3

  2
TRADENAME
 70
     0
1001
ACDBATTR
1070
     0
1070
     1
  0
ATTDEF
  5
3932
  8
DEFPOINTS
 10
4764.0429399823033236
 20
238.545312727021809
 30
0.0
 40
0.001
  1
SHOWER ARM
  3

  2
PRODUCT
 70
     0
1001
ACDBATTR
1070
     0
1070
     1
  0
LINE
  5
CAF6
  8
0
 10
4763.6525184377069309
 20
235.7617528538810916
 30
0.0
 11
4764.4225670363075551
 21
235.7617528538810916
 31
0.0
  0
LINE
  5
CAF7
  8
0
 10
4763.6404780459070025
 20
235.8153165088810965
 30
0.0
 11
4763.686185339007352
 21
235.7889123254811068
 31
0.0
  0
LINE
  5
CAF8
  8
0
 10
4763.6404780459070025
 20
235.9581029073810896
 30
0.0
 11
4763.6861996249072035
 21
235.9316841389810975
 31
0.0
  0
LINE
  5
CAF9
  8
0
 10
4763.6404780459070025
 20
235.8867123352810893
 30
0.0
 11
4763.686191682806566
 21
235.8603008811811037
 31
0.0
  0
LINE
  5
CAFA
  8
0
 10
4763.6404780459070025
 20
236.0295112598811045
 30
0.0
 11
4763.6862028731065948
 21
236.0030889765810969
 31
0.0
  0
LINE
  5
CAFB
  8
0
 10
4763.6404780459070025
 20
236.1009028651810979
 30
0.0
 11
4763.6861780702083706
 21
236.0745184021810985
 31
0.0
  0
LINE
  5
CAFC
  8
0
 10
4763.6404780459070025
 20
236.1723114602810938
 30
0.0
 11
4763.6861911145069826
 21
236.145912826981089
 31
0.0
  0
LINE
  5
CAFD
  8
0
 10
4763.6404780459070025
 20
236.2437167548810919
 30
0.0
 11
4763.6861994401069751
 21
236.2173190225811084
 31
0.0
  0
LINE
  5
CAFE
  8
0
 10
4764.4529780459070025
 20
235.790166124281086
 30
0.0
 11
4764.4070351576074245
 21
235.8167093177810898
 31
0.0
  0
LINE
  5
CAFF
  8
0
 10
4764.4529780459070025
 20
235.8616145984811112
 30
0.0
 11
4764.4070398806070443
 21
235.8881518162810949
 31
0.0
  0
LINE
  5
CB00
  8
0
 10
4764.4529780459070025
 20
236.0044295173811122
 30
0.0
 11
4764.4072727690072497
 21
236.0308228316810926
 31
0.0
  0
LINE
  5
CB01
  8
0
 10
4764.4529780459070025
 20
235.9328985187810872
 30
0.0
 11
4764.4070458984069774
 21
235.9594483549811059
 31
0.0
  0
LINE
  5
CB02
  8
0
 10
4764.4529780459070025
 20
236.0758303034810979
 30
0.0
 11
4764.4072737767073704
 21
236.1022136163811069
 31
0.0
  0
LINE
  5
CB03
  8
0
 10
4764.4529780459070025
 20
236.1472200711810956
 30
0.0
 11
4764.4072580534084409
 21
236.173615368181089
 31
0.0
  0
LINE
  5
CB04
  8
0
 10
4764.4529780459070025
 20
236.2186221457810973
 30
0.0
 11
4764.4072614359065483
 21
236.2450222847811006
 31
0.0
  0
LINE
  5
CB05
  8
0
 10
4762.9647280459066678
 20
238.2045355698811022
 30
0.0
 11
4762.9647280459066678
 21
238.5382355698810954
 31
0.0
  0
LINE
  5
CB06
  8
0
 10
4763.6404780459070025
 20
235.8153165088810965
 30
0.0
 11
4763.6404780459070025
 21
235.8257964051811086
 31
0.0
  0
LINE
  5
CB07
  8
0
 10
4763.6404780459070025
 20
235.8867123352810893
 30
0.0
 11
4763.6404780459070025
 21
235.897260187781086
 31
0.0
  0
LINE
  5
CB08
  8
0
 10
4763.6404780459070025
 20
235.9581029073810896
 30
0.0
 11
4763.6404780459070025
 21
235.9687220470810871
 31
0.0
  0
LINE
  5
CB09
  8
0
 10
4763.6404780459070025
 20
236.0295112598811045
 30
0.0
 11
4763.6404780459070025
 21
236.0401330185810878
 31
0.0
  0
LINE
  5
CB0A
  8
0
 10
4763.6404780459070025
 20
236.1009028651810979
 30
0.0
 11
4763.6404780459070025
 21
236.1115245929811124
 31
0.0
  0
LINE
  5
CB0B
  8
0
 10
4763.6404780459070025
 20
236.1723114602810938
 30
0.0
 11
4763.6404780459070025
 21
236.1829191013810885
 31
0.0
  0
LINE
  5
CB0C
  8
0
 10
4763.6404780459070025
 20
236.2437167548810919
 30
0.0
 11
4763.6404780459070025
 21
238.1445355698810999
 31
0.0
  0
LINE
  5
CB0D
  8
0
 10
4763.6861780702083706
 20
236.0745184021810985
 30
0.0
 11
4763.6861780703038676
 21
236.0668252500722986
 31
0.0
  0
LINE
  5
CB0E
  8
0
 10
4763.686185339007352
 20
235.7889123254811068
 30
0.0
 11
4763.686185339007352
 21
235.7811834104431057
 31
0.0
  0
LINE
  5
CB0F
  8
0
 10
4763.6861911145069826
 20
236.145912826981089
 30
0.0
 11
4763.6861911145069826
 21
236.1382237454135975
 31
0.0
  0
LINE
  5
CB10
  8
0
 10
4763.686191682806566
 20
235.8603008811811037
 30
0.0
 11
4763.686191682806566
 21
235.8525108364414109
 31
0.0
  0
LINE
  5
CB11
  8
0
 10
4763.6861994401069751
 20
236.2173190225811084
 30
0.0
 11
4763.6861994401069751
 21
236.2096306144254072
 31
0.0
  0
LINE
  5
CB12
  8
0
 10
4763.6861996249072035
 20
235.9316841389810975
 30
0.0
 11
4763.6861996249072035
 21
235.9240025989763012
 31
0.0
  0
LINE
  5
CB13
  8
0
 10
4763.6862028731065948
 20
236.0030889765810969
 30
0.0
 11
4763.6862028731065948
 21
235.9954095366242939
 31
0.0
  0
LINE
  5
CB14
  8
0
 10
4764.4070351576074245
 20
235.8167093177810898
 30
0.0
 11
4764.4070351576074245
 21
235.8244999647810971
 31
0.0
  0
LINE
  5
CB15
  8
0
 10
4764.4070398806070443
 20
235.8881518162810949
 30
0.0
 11
4764.4070398807070887
 21
235.8958972358811081
 31
0.0
  0
LINE
  5
CB16
  8
0
 10
4764.4070458984069774
 20
235.9594483549811059
 30
0.0
 11
4764.4070458986061567
 21
235.9673030497810942
 31
0.0
  0
LINE
  5
CB17
  8
0
 10
4764.4072580534084409
 20
236.173615368181089
 30
0.0
 11
4764.4072580534084409
 21
236.1816152899810959
 31
0.0
  0
LINE
  5
CB18
  8
0
 10
4764.4072614359065483
 20
236.2450222847811006
 30
0.0
 11
4764.4072614359065483
 21
236.2530222566811062
 31
0.0
  0
LINE
  5
CB19
  8
0
 10
4764.4072727690072497
 20
236.0308228316810926
 30
0.0
 11
4764.4072727690072497
 21
236.0388228316811023
 31
0.0
  0
LINE
  5
CB1A
  8
0
 10
4764.4072737767073704
 20
236.1022136163811069
 30
0.0
 11
4764.4072737768074148
 21
236.1102133448810889
 31
0.0
  0
LINE
  5
CB1B
  8
0
 10
4764.4529780459070025
 20
235.7796128199811108
 30
0.0
 11
4764.4529780459070025
 21
235.790166124281086
 31
0.0
  0
LINE
  5
CB1C
  8
0
 10
4764.4529780459070025
 20
235.8510163145811021
 30
0.0
 11
4764.4529780459070025
 21
235.8616145984811112
 31
0.0
  0
LINE
  5
CB1D
  8
0
 10
4764.4529780459070025
 20
235.9224065823810861
 30
0.0
 11
4764.4529780459070025
 21
235.9328985187810872
 31
0.0
  0
LINE
  5
CB1E
  8
0
 10
4764.4529780459070025
 20
235.9938053957810951
 30
0.0
 11
4764.4529780459070025
 21
236.0044295173811122
 31
0.0
  0
LINE
  5
CB1F
  8
0
 10
4764.4529780459070025
 20
236.0652062423810946
 30
0.0
 11
4764.4529780459070025
 21
236.0758303034810979
 31
0.0
  0
LINE
  5
CB20
  8
0
 10
4764.4529780459070025
 20
236.1366057120810922
 30
0.0
 11
4764.4529780459070025
 21
236.1472200711810956
 31
0.0
  0
LINE
  5
CB21
  8
0
 10
4764.4529780459070025
 20
236.2080159117811036
 30
0.0
 11
4764.4529780459070025
 21
236.2186221457810973
 31
0.0
  0
LINE
  5
CB22
  8
0
 10
4763.6861994401069751
 20
236.2096306144254072
 30
0.0
 11
4763.6404780459070025
 21
236.1829191013810885
 31
0.0
  0
LINE
  5
CB23
  8
0
 10
4763.6861911145069826
 20
236.1382237454135975
 30
0.0
 11
4763.6404780459070025
 21
236.1115245929811124
 31
0.0
  0
LINE
  5
CB24
  8
0
 10
4763.6861780703038676
 20
236.0668252500722986
 30
0.0
 11
4763.6404780459070025
 21
236.0401330185810878
 31
0.0
  0
LINE
  5
CB25
  8
0
 10
4763.6862028731065948
 20
235.9954095366242939
 30
0.0
 11
4763.6404780459070025
 21
235.9687220470810871
 31
0.0
  0
LINE
  5
CB26
  8
0
 10
4763.686191682806566
 20
235.8525108364414109
 30
0.0
 11
4763.6404780459070025
 21
235.8257964051811086
 31
0.0
  0
LINE
  5
CB27
  8
0
 10
4763.6861996249072035
 20
235.9240025989763012
 30
0.0
 11
4763.6404780459070025
 21
235.897260187781086
 31
0.0
  0
LINE
  5
CB28
  8
0
 10
4764.4072614359065483
 20
236.2530222566811062
 30
0.0
 11
4764.4529780459070025
 21
236.2791384210700016
 31
0.0
  0
LINE
  5
CB29
  8
0
 10
4763.686185339007352
 20
235.7811834104431057
 30
0.0
 11
4763.6525184377069309
 21
235.7617528538810916
 31
0.0
  0
LINE
  5
CB2A
  8
0
 10
4764.4072580534084409
 20
236.1816152899810959
 30
0.0
 11
4764.4529780459070025
 21
236.2080159117811036
 31
0.0
  0
LINE
  5
CB2B
  8
0
 10
4764.4072737768074148
 20
236.1102133448810889
 30
0.0
 11
4764.4529780459070025
 21
236.1366057120810922
 31
0.0
  0
LINE
  5
CB2C
  8
0
 10
4764.4072727690072497
 20
236.0388228316811023
 30
0.0
 11
4764.4529780459070025
 21
236.0652062423810946
 31
0.0
  0
LINE
  5
CB2D
  8
0
 10
4764.4070458986061567
 20
235.9673030497810942
 30
0.0
 11
4764.4529780459070025
 21
235.9938053957810951
 31
0.0
  0
LINE
  5
CB2E
  8
0
 10
4763.024728045907068
 20
238.1445355698810999
 30
0.0
 11
4765.0687280459060275
 21
238.1445355698810999
 31
0.0
  0
LINE
  5
CB2F
  8
0
 10
4764.4070398807070887
 20
235.8958972358811081
 30
0.0
 11
4764.4529780459070025
 21
235.9224065823810861
 31
0.0
  0
LINE
  5
CB30
  8
0
 10
4764.4070351576074245
 20
235.8244999647810971
 30
0.0
 11
4764.4529780459070025
 21
235.8510163145811021
 31
0.0
  0
LINE
  5
CB31
  8
0
 10
4764.4225670363075551
 20
235.7617528538810916
 30
0.0
 11
4764.4529780459070025
 21
235.7796128199811108
 31
0.0
  0
LINE
  5
CB32
  8
0
 10
4765.1287280459073372
 20
238.5382355698810954
 30
0.0
 11
4762.9647280459066678
 21
238.5382355698810954
 31
0.0
  0
ARC
  5
CB33
  8
0
 10
4763.0294421452981624
 20
238.2092496692717134
 30
0.0
 40
0.0648855715317363
 50
184.1663527452139988
 51
265.8336472547795779
  0
LINE
  5
CB34
  8
0
 10
4765.1287280459073372
 20
238.2045355698811022
 30
0.0
 11
4765.1287280459073372
 21
238.5382355698810954
 31
0.0
  0
LINE
  5
CB35
  8
0
 10
4764.4529780459070025
 20
236.2791384210700016
 30
0.0
 11
4764.4529780459070025
 21
238.1445355698810999
 31
0.0
  0
ARC
  5
CB36
  8
0
 10
4765.0640139465158427
 20
238.2092496692717134
 30
0.0
 40
0.0648855715317363
 50
274.1663527452204221
 51
355.8336472547860012
  0
LINE
  5
CB37
  8
0
 10
4763.686185339007352
 20
235.7850478679621062
 30
0.0
 11
4764.4070351576074245
 21
235.8206046412811077
 31
0.0
  0
LINE
  5
CB38
  8
0
 10
4763.686191682806566
 20
235.8564058588113141
 30
0.0
 11
4764.4070398806570665
 21
235.8920245260810873
 31
0.0
  0
LINE
  5
CB39
  8
0
 10
4763.6861996249072035
 20
235.9278433689786993
 30
0.0
 11
4764.4070458985070218
 21
235.9633757023810858
 31
0.0
  0
LINE
  5
CB3A
  8
0
 10
4763.6862028731065948
 20
235.9992492566026954
 30
0.0
 11
4764.4072727690072497
 21
236.0348228316811117
 31
0.0
  0
LINE
  5
CB3B
  8
0
 10
4763.6861780702556644
 20
236.0706718261266985
 30
0.0
 11
4764.4072737767573926
 21
236.1062134806311121
 31
0.0
  0
LINE
  5
CB3C
  8
0
 10
4763.6861911145069826
 20
236.1420682861974001
 30
0.0
 11
4764.4072580534084409
 21
236.1776153290811067
 31
0.0
  0
LINE
  5
CB3D
  8
0
 10
4763.6861994401069751
 20
236.2134748185033004
 30
0.0
 11
4764.4072614359065483
 21
236.2490222707311034
 31
0.0
  0
LINE
  5
CB3E
  8
0
 10
4763.6404780459070025
 20
235.8205564570311026
 30
0.0
 11
4764.4529780459070025
 21
235.8563154565310924
 31
0.0
  0
LINE
  5
CB3F
  8
0
 10
4763.6404780459070025
 20
235.8919862615310876
 30
0.0
 11
4764.4529780459070025
 21
235.9276525505810866
 31
0.0
  0
LINE
  5
CB40
  8
0
 10
4763.6404780459070025
 20
235.9634124772310884
 30
0.0
 11
4764.4529780459070025
 21
235.9991174565811036
 31
0.0
  0
LINE
  5
CB41
  8
0
 10
4763.6404780459070025
 20
236.0348221392310961
 30
0.0
 11
4764.4529780459070025
 21
236.0705182729311105
 31
0.0
  0
LINE
  5
CB42
  8
0
 10
4763.6404780459070025
 20
236.1062137290811052
 30
0.0
 11
4764.4529780459070025
 21
236.1419128916311081
 31
0.0
  0
LINE
  5
CB43
  8
0
 10
4763.6404780459070025
 20
236.1776152808311053
 30
0.0
 11
4764.4529780459070025
 21
236.2133190287810862
 31
0.0
  0
ENDSEC
  0
EOF
