  0
SECTION
  2
HEADER
  9
$ACADVER
  1
AC1009
  9
$INSBASE
 10
4823.3763938750953457
 20
256.4924352963903971
 30
0.0
  9
$EXTMIN
 10
4820.4314974533954228
 20
252.7129077076916133
 30
0.0
  9
$EXTMAX
 10
4827.38526084613477
 20
256.4977272953519787
 30
0.0
  9
$LIMMIN
 10
0.0
 20
0.0
  9
$LIMMAX
 10
11.6929133858000007
 20
8.2677165353999982
  9
$ORTHOMODE
 70
     1
  9
$REGENMODE
 70
     1
  9
$FILLMODE
 70
     1
  9
$QTEXTMODE
 70
     0
  9
$MIRRTEXT
 70
     0
  9
$DRAGMODE
 70
     2
  9
$LTSCALE
 40
0.6431102362
  9
$OSMODE
 70
  4095
  9
$ATTMODE
 70
     1
  9
$TEXTSIZE
 40
0.2
  9
$TRACEWID
 40
0.05
  9
$TEXTSTYLE
  7
STANDARD
  9
$CLAYER
  8
0
  9
$CELTYPE
  6
BYLAYER
  9
$CECOLOR
 62
   256
  9
$DIMSCALE
 40
1.0
  9
$DIMASZ
 40
0.1875
  9
$DIMEXO
 40
0.0625
  9
$DIMDLI
 40
0.4443307087
  9
$DIMRND
 40
0.0
  9
$DIMDLE
 40
0.0
  9
$DIMEXE
 40
0.125
  9
$DIMTP
 40
0.01
  9
$DIMTM
 40
0.01
  9
$DIMTXT
 40
2.0
  9
$DIMCEN
 40
0.1052362205
  9
$DIMTSZ
 40
0.0
  9
$DIMTOL
 70
     1
  9
$DIMLIM
 70
     0
  9
$DIMTIH
 70
     1
  9
$DIMTOH
 70
     1
  9
$DIMSE1
 70
     0
  9
$DIMSE2
 70
     0
  9
$DIMTAD
 70
     0
  9
$DIMZIN
 70
     0
  9
$DIMBLK
  1

  9
$DIMASO
 70
     1
  9
$DIMSHO
 70
     1
  9
$DIMPOST
  1
\X
  9
$DIMAPOST
  1

  9
$DIMALT
 70
     1
  9
$DIMALTD
 70
     2
  9
$DIMALTF
 40
25.3999999999999986
  9
$DIMLFAC
 40
1.0
  9
$DIMTOFL
 70
     0
  9
$DIMTVP
 40
0.0
  9
$DIMTIX
 70
     0
  9
$DIMSOXD
 70
     0
  9
$DIMSAH
 70
     0
  9
$DIMBLK1
  1

  9
$DIMBLK2
  1

  9
$DIMSTYLE
  2
STANDARD
  9
$DIMCLRD
 70
     0
  9
$DIMCLRE
 70
     0
  9
$DIMCLRT
 70
     0
  9
$DIMTFAC
 40
1.0
  9
$DIMGAP
 40
0.09
  9
$LUNITS
 70
     2
  9
$LUPREC
 70
     4
  9
$SKETCHINC
 40
0.1
  9
$FILLETRAD
 40
0.0
  9
$AUNITS
 70
     0
  9
$AUPREC
 70
     0
  9
$MENU
  1
.
  9
$ELEVATION
 40
0.0
  9
$PELEVATION
 40
0.0
  9
$THICKNESS
 40
0.0
  9
$LIMCHECK
 70
     0
  9
$BLIPMODE
 70
     0
  9
$CHAMFERA
 40
0.0
  9
$CHAMFERB
 40
0.0
  9
$SKPOLY
 70
     0
  9
$TDCREATE
 40
2458060.468368056230247
  9
$TDUPDATE
 40
2459245.7676273151300848
  9
$TDINDWG
 40
0.3577038194
  9
$TDUSRTIMER
 40
0.3577038194
  9
$USRTIMER
 70
     1
  9
$ANGBASE
 50
0.0
  9
$ANGDIR
 70
     0
  9
$PDMODE
 70
     0
  9
$PDSIZE
 40
0.3125
  9
$PLINEWID
 40
0.0
  9
$COORDS
 70
     1
  9
$SPLFRAME
 70
     0
  9
$SPLINETYPE
 70
     6
  9
$SPLINESEGS
 70
     8
  9
$ATTDIA
 70
     1
  9
$ATTREQ
 70
     1
  9
$HANDLING
 70
     1
  9
$HANDSEED
  5
CE73
  9
$SURFTAB1
 70
     6
  9
$SURFTAB2
 70
     6
  9
$SURFTYPE
 70
     6
  9
$SURFU
 70
     6
  9
$SURFV
 70
     6
  9
$UCSNAME
  2

  9
$UCSORG
 10
0.0
 20
0.0
 30
0.0
  9
$UCSXDIR
 10
1.0
 20
0.0
 30
0.0
  9
$UCSYDIR
 10
0.0
 20
1.0
 30
0.0
  9
$PUCSNAME
  2

  9
$PUCSORG
 10
0.0
 20
0.0
 30
0.0
  9
$PUCSXDIR
 10
1.0
 20
0.0
 30
0.0
  9
$PUCSYDIR
 10
0.0
 20
1.0
 30
0.0
  9
$USERI1
 70
     0
  9
$USERI2
 70
     0
  9
$USERI3
 70
     0
  9
$USERI4
 70
     0
  9
$USERI5
 70
     0
  9
$USERR1
 40
0.0
  9
$USERR2
 40
0.0
  9
$USERR3
 40
0.0
  9
$USERR4
 40
0.0
  9
$USERR5
 40
0.0
  9
$WORLDVIEW
 70
     1
  9
$SHADEDGE
 70
     3
  9
$SHADEDIF
 70
    70
  9
$TILEMODE
 70
     1
  9
$MAXACTVP
 70
    64
  9
$PLIMCHECK
 70
     0
  9
$PEXTMIN
 10
1.0000000000000000E+20
 20
1.0000000000000000E+20
 30
1.0000000000000000E+20
  9
$PEXTMAX
 10
-1.0000000000000000E+20
 20
-1.0000000000000000E+20
 30
-1.0000000000000000E+20
  9
$PLIMMIN
 10
0.0
 20
0.0
  9
$PLIMMAX
 10
12.0
 20
9.0
  9
$UNITMODE
 70
     0
  9
$VISRETAIN
 70
     1
  9
$PLINEGEN
 70
     0
  9
$PSLTSCALE
 70
     1
  0
ENDSEC
  0
SECTION
  2
TABLES
  0
TABLE
  2
VPORT
 70
     1
  0
VPORT
  2
*ACTIVE
 70
     0
 10
0.0
 20
0.0
 11
1.0
 21
1.0
 12
0.0
 22
0.0
 13
0.0
 23
0.0
 14
1.0
 24
1.0
 15
0.0
 25
0.0
 16
0.0
 26
0.0
 36
22.4324059273934004
 17
4823.908447265625
 27
254.6053165895704922
 37
0.0
 40
7.9201582858603388
 41
2.1186252771618621
 42
50.0
 43
0.0
 44
0.0
 50
0.0
 51
0.0
 71
     0
 72
   100
 73
     1
 74
     1
 75
     0
 76
     0
 77
     0
 78
     0
  0
ENDTAB
  0
TABLE
  2
LTYPE
 70
     2
  0
LTYPE
  2
CONTINUOUS
 70
     0
  3
Solid line
 72
    65
 73
     0
 40
0.0
  0
LTYPE
  2
PHANTOM2
 70
     0
  3
___ _ _ ___ _ _ ___ _ _ ___ _ _
 72
    65
 73
     6
 40
1.25
 49
0.625
 49
-0.125
 49
0.125
 49
-0.125
 49
0.125
 49
-0.125
  0
ENDTAB
  0
TABLE
  2
LAYER
 70
     2
  0
LAYER
  2
0
 70
     0
 62
   255
  6
CONTINUOUS
  0
LAYER
  2
DEFPOINTS
 70
     0
 62
     7
  6
CONTINUOUS
  0
ENDTAB
  0
TABLE
  2
STYLE
 70
     1
  0
STYLE
  2
STANDARD
 70
     0
 40
0.0
 41
0.8
 50
0.0
 71
     0
 42
0.2
  3
txt
  4

  0
ENDTAB
  0
TABLE
  2
VIEW
 70
     0
  0
ENDTAB
  0
TABLE
  2
UCS
 70
     0
  0
ENDTAB
  0
TABLE
  2
APPID
 70
     9
  0
APPID
  2
ACAD
 70
     0
  0
APPID
  2
ACAD_MLEADERVER
 70
     0
  0
APPID
  2
ACAD_EXEMPT_FROM_CAD_STANDARDS
 70
     0
  0
APPID
  2
ACAD_NAV_VCDISPLAY
 70
     0
  0
APPID
  2
ACAECLAYERSTANDARD
 70
     0
  0
APPID
  2
ACCMTRANSPARENCY
 70
     0
  0
APPID
  2
ACAD_DSTYLE_DIMJAG
 70
     0
  0
APPID
  2
ACAD_DSTYLE_DIMTALN
 70
     0
  0
APPID
  2
ACDBATTR
 70
     0
  0
ENDTAB
  0
TABLE
  2
DIMSTYLE
 70
     1
  0
DIMSTYLE
  2
STANDARD
 70
     0
  3

  4

  5

  6

  7

 40
1.0
 41
0.1875
 42
0.0625
 43
0.38
 44
0.125
 45
0.0
 46
0.0
 47
0.01
 48
0.01
140
0.15625
141
0.09
142
0.0
143
25.3999999999999986
144
1.0
145
0.0
146
1.0
147
0.09
 71
     1
 72
     0
 73
     1
 74
     1
 75
     0
 76
     0
 77
     0
 78
     4
170
     0
171
     2
172
     0
173
     0
174
     0
175
     0
176
     0
177
     0
178
     0
  0
ENDTAB
  0
ENDSEC
  0
SECTION
  2
BLOCKS
  0
BLOCK
  8
0
  2
$MODEL_SPACE
 70
     0
 10
0.0
 20
0.0
 30
0.0
  3
$MODEL_SPACE
  1

  0
ENDBLK
  5
21
  8
0
  0
BLOCK
 67
     1
  8
0
  2
$PAPER_SPACE
 70
     0
 10
0.0
 20
0.0
 30
0.0
  3
$PAPER_SPACE
  1

  0
ENDBLK
  5
1D
 67
     1
  8
0
  0
ENDSEC
  0
SECTION
  2
ENTITIES
  0
ATTDEF
  5
3930
  8
DEFPOINTS
 10
4823.3736988869050037
 20
256.4967272953520023
 30
0.0
 40
0.001
  1
K-26314
  3

  2
MODELNUMBER
 70
     0
1001
ACDBATTR
1070
     0
1070
     1
  0
ATTDEF
  5
3931
  8
DEFPOINTS
 10
4823.3736988869050037
 20
256.4950606286852803
 30
0.0
 40
0.001
  1

  3

  2
TRADENAME
 70
     0
1001
ACDBATTR
1070
     0
1070
     1
  0
ATTDEF
  5
3932
  8
DEFPOINTS
 10
4823.3736988869050037
 20
256.493393962018672
 30
0.0
 40
0.001
  1
SLIDEBAR
  3

  2
PRODUCT
 70
     0
1001
ACDBATTR
1070
     0
1070
     1
  0
LINE
  5
CD5B
  8
0
 10
4822.3509333773372418
 20
256.4924352963903971
 30
0.0
 11
4822.352549121795164
 21
256.3072891552903911
 31
0.0
  0
LINE
  5
CD5C
  8
0
 10
4824.4018543728552686
 20
256.4924352963903971
 30
0.0
 11
4822.3509333773372418
 21
256.4924352963903971
 31
0.0
  0
LINE
  5
CD5D
  8
0
 10
4820.4422549255950798
 20
254.862914771990404
 30
0.0
 11
4820.4422549255950798
 21
253.3975463719903871
 31
0.0
  0
LINE
  5
CD5E
  8
0
 10
4821.1322848548952607
 20
253.3703880522903944
 30
0.0
 11
4821.1322848548952607
 21
253.4005233752903905
 31
0.0
  0
LINE
  5
CD5F
  8
0
 10
4821.1322848548952607
 20
254.8599372926904039
 30
0.0
 11
4821.1322848548952607
 21
254.8900730916903967
 31
0.0
  0
LINE
  5
CD60
  8
0
 10
4826.2299581606957872
 20
252.7129077373903954
 30
0.0
 11
4826.3485421529949235
 21
252.7129077373903954
 31
0.0
  0
LINE
  5
CD61
  8
0
 10
4822.9433214715945724
 20
254.406801279590411
 30
0.0
 11
4822.9433214715945724
 21
256.2955849026903934
 31
0.0
  0
LINE
  5
CD62
  8
0
 10
4821.1401588706958137
 20
253.3625140365903974
 30
0.0
 11
4826.0538634367958366
 21
253.3625140365903974
 31
0.0
  0
LINE
  5
CD63
  8
0
 10
4821.104670829195129
 20
253.3625693921904087
 30
0.0
 11
4820.4735175300957053
 21
253.3669757450904001
 31
0.0
  0
LINE
  5
CD64
  8
0
 10
4823.352771828495861
 20
255.3821990758904121
 30
0.0
 11
4823.352771828495861
 21
255.5160573436903917
 31
0.0
  0
LINE
  5
CD65
  8
0
 10
4820.4735175300957053
 20
254.893485398890391
 30
0.0
 11
4821.104670829195129
 21
254.8978917517904108
 31
0.0
  0
LINE
  5
CD66
  8
0
 10
4822.9433214715945724
 20
254.8979471073903937
 30
0.0
 11
4821.1401588706958137
 21
254.8979471073903937
 31
0.0
  0
LINE
  5
CD67
  8
0
 10
4826.1522886336961164
 20
254.8979471073903937
 30
0.0
 11
4827.2680117600957601
 21
254.8979471073903937
 31
0.0
  0
LINE
  5
CD68
  8
0
 10
4824.3886993373153018
 20
256.2955849026903934
 30
0.0
 11
4822.3640884128753896
 21
256.2955849026903934
 31
0.0
  0
LINE
  5
CD69
  8
0
 10
4826.0932335155957844
 20
254.8585770286904051
 30
0.0
 11
4826.0932335155957844
 21
253.401884115290386
 31
0.0
  0
LINE
  5
CD6A
  8
0
 10
4826.1050501193949458
 20
253.4413161988904051
 30
0.0
 11
4826.1050501193949458
 21
254.819144836390393
 31
0.0
  0
LINE
  5
CD6B
  8
0
 10
4826.1129185548952591
 20
254.8585675263904022
 30
0.0
 11
4826.1129185548952591
 21
253.3439078137903948
 31
0.0
  0
LINE
  5
CD6C
  8
0
 10
4826.3879110541956834
 20
252.8928196486903914
 30
0.0
 11
4826.3879122316948269
 21
252.7521984821904084
 31
0.0
  0
ARC
  5
CD6D
  8
0
 10
4820.4737374122951223
 20
253.3984710404903922
 30
0.0
 40
0.031496063
 50
181.6823441022991119
 51
269.6000000000072987
  0
ARC
  5
CD6E
  8
0
 10
4821.1040777798307317
 20
253.3716169809752046
 30
0.0
 40
0.0090670044060097
 50
273.7502466642422974
 51
324.0547618155263194
  0
ARC
  5
CD6F
  8
0
 10
4821.1401588706958137
 20
253.3703880522903944
 30
0.0
 40
0.0078740157
 50
180.0
 51
270.0
  0
ARC
  5
CD70
  8
0
 10
4820.4737374122951223
 20
254.861990103490399
 30
0.0
 40
0.031496063
 50
90.3999999999927155
 51
178.3176558977008028
  0
ARC
  5
CD71
  8
0
 10
4821.1047257997952329
 20
254.8900179278903977
 30
0.0
 40
0.0078740157
 50
31.7972017337054211
 51
90.3999999999927155
  0
ARC
  5
CD72
  8
0
 10
4821.1401588706958137
 20
254.8900730916903967
 30
0.0
 40
0.0078740157
 50
90.0
 51
180.0
  0
ARC
  5
CD73
  8
0
 10
4822.9551324941166968
 20
254.4068012793881906
 30
0.0
 40
0.0118110236211635
 50
179.9999995134388087
 51
326.7199885646033977
  0
ARC
  5
CD74
  8
0
 10
4823.3763938757938377
 20
254.1302305719904098
 30
0.0
 40
0.4921259843000101
 50
90.0000000115684742
 51
269.9999999884315116
  0
ARC
  5
CD75
  8
0
 10
4823.3763938756956122
 20
255.3821990758904121
 30
0.0
 40
0.0236220472
 50
180.0
 51
270.0
  0
ARC
  5
CD76
  8
0
 10
4823.3763938756956122
 20
255.5160573436903917
 30
0.0
 40
0.0236220472
 50
90.0
 51
180.0
  0
ARC
  5
CD77
  8
0
 10
4826.0517742749261743
 20
253.4039732771601052
 30
0.0
 40
0.0415118444052841
 50
272.8847367920816964
 51
357.1152632078917009
  0
ARC
  5
CD78
  8
0
 10
4826.0893022096897766
 20
253.4650142302249947
 30
0.0
 40
0.0157479097058524
 50
284.4562017294156249
 51
0.000151591835388
  0
ARC
  5
CD79
  8
0
 10
4826.116800406690345
 20
253.4412969049828064
 30
0.0
 40
0.0117503031348667
 50
179.9059207271671994
 51
250.7092606718119043
  0
ARC
  5
CD7A
  8
0
 10
4827.2680109504208303
 20
254.8585765922763926
 30
0.0
 40
0.0393705151223251
 50
10.5301651698585008
 51
89.9988216835619852
  0
ARC
  5
CD7B
  8
0
 10
4826.1543925624928306
 20
254.8564736063194118
 30
0.0
 40
0.0415268323794473
 50
92.904095121320637
 51
177.1097318832329108
  0
ARC
  5
CD7C
  8
0
 10
4826.0524127439011863
 20
254.8571263357962096
 30
0.0
 40
0.0408465408990211
 50
2.0353269113402139
 51
87.9646730886867658
  0
ARC
  5
CD7D
  8
0
 10
4826.0893022096897766
 20
254.7954469137559101
 30
0.0
 40
0.0157479097058567
 50
359.9998484081646097
 51
75.5437982705843893
  0
ARC
  5
CD7E
  8
0
 10
4826.116858827109354
 20
254.8191456317659913
 30
0.0
 40
0.0118087077410764
 50
109.4919940479366005
 51
180.0038591575575992
  0
ARC
  5
CD7F
  8
0
 10
4845.3881903667952429
 20
254.1302305719904098
 30
0.0
 40
24.9566929134000013
 50
178.3176558977008028
 51
181.6823441022991119
  0
ARC
  5
CD80
  8
0
 10
4818.5841783215637406
 20
253.3300538884529942
 30
0.0
 40
2.9721019726401021
 50
30.9806092516481009
 51
31.753435323040069
  0
ARC
  5
CD81
  8
0
 10
4819.9368818921084312
 20
254.0556591136819122
 30
0.0
 40
1.440781604778671
 50
2.9712907648249631
 51
33.933031132521613
  0
ARC
  5
CD82
  8
0
 10
4819.9211083233549289
 20
254.2100400615044862
 30
0.0
 40
1.456799868140642
 50
326.2423347072181059
 51
356.8639514990153998
  0
ARC
  5
CD83
  8
0
 10
4763.6321444273144152
 20
288.4303567687861118
 30
0.0
 40
67.3301966191067436
 50
328.6155701565991194
 51
328.6496835253338986
  0
ARC
  5
CD84
  8
0
 10
4819.197575809996124
 20
254.6365802643890959
 30
0.0
 40
2.3122157785946751
 50
326.7968050210067759
 51
334.8580830085014099
  0
ARC
  5
CD85
  8
0
 10
4820.3025863116617984
 20
254.1486817974619896
 30
0.0
 40
1.1049563523736179
 50
333.4162669812620265
 51
359.0431961575703212
  0
ARC
  5
CD86
  8
0
 10
4819.2195074925048175
 20
253.6353560913304079
 30
0.0
 40
2.2875821272837098
 50
25.1202060797020899
 51
33.2635145443330416
  0
ARC
  5
CD87
  8
0
 10
4820.3026568868772301
 20
254.1120298234733923
 30
0.0
 40
1.1048816325017621
 50
0.9438777989963748
 51
26.5841681020968501
  0
ARC
  5
CD88
  8
0
 10
4823.3763938756956122
 20
254.1302305719904098
 30
0.0
 40
0.5236937931250151
 50
145.7874358932747043
 51
270.0
  0
ARC
  5
CD89
  8
0
 10
4823.3763938756956122
 20
254.1302305719904098
 30
0.0
 40
0.5481074183074309
 50
142.197029080526903
 51
270.0
  0
LINE
  5
CD8A
  8
0
 10
4823.8094662797948331
 20
254.406801279590411
 30
0.0
 11
4823.8094662797948331
 21
256.2955849026903934
 31
0.0
  0
LINE
  5
CD8B
  8
0
 10
4823.400015922896273
 20
255.3821990758904121
 30
0.0
 11
4823.400015922896273
 21
255.5160573436903917
 31
0.0
  0
LINE
  5
CD8C
  8
0
 10
4823.8094662797948331
 20
254.8979471073903937
 30
0.0
 11
4826.0538634367958366
 21
254.8979471073903937
 31
0.0
  0
ARC
  5
CD8D
  8
0
 10
4823.7976552572736182
 20
254.4068012793881906
 30
0.0
 40
0.0118110236211635
 50
213.2800114353966023
 51
0.0000004865611534
  0
ARC
  5
CD8E
  8
0
 10
4823.3763938755955678
 20
254.1302305719904098
 30
0.0
 40
0.4921259843000101
 50
270.0000000115684884
 51
89.99999998843154
  0
ARC
  5
CD8F
  8
0
 10
4823.3763938756956122
 20
255.3821990758904121
 30
0.0
 40
0.0236220472
 50
270.0
 51
0.0
  0
ARC
  5
CD90
  8
0
 10
4823.3763938756956122
 20
255.5160573436903917
 30
0.0
 40
0.0236220472
 50
0.0
 51
90.0
  0
ARC
  5
CD91
  8
0
 10
4823.3763938756956122
 20
254.1302305719904098
 30
0.0
 40
0.5236937931250151
 50
270.0
 51
34.2125641067252531
  0
ARC
  5
CD92
  8
0
 10
4823.3763938756956122
 20
254.1302305719904098
 30
0.0
 40
0.5481074183074309
 50
270.0
 51
37.8029709194731112
  0
ARC
  5
CD93
  8
0
 10
4830.1662627812220308
 20
253.5744783133222029
 30
0.0
 40
4.0598968179432608
 50
183.2557054931183131
 51
191.9016679131227932
  0
ARC
  5
CD94
  8
0
 10
4826.2299098929488537
 20
252.7521311064845122
 30
0.0
 40
0.0392233987929298
 50
202.3830631269252081
 51
270.0705073743581011
  0
ARC
  5
CD95
  8
0
 10
4826.3464876741054468
 20
252.7543365233746044
 30
0.0
 40
0.0414796961371479
 50
272.8390070926529916
 51
357.0454208627890011
  0
ARC
  5
CD96
  8
0
 10
4825.9267897738445754
 20
252.8933705206106026
 30
0.0
 40
0.4611216093961956
 50
359.9315524517929816
 51
16.1866460443959603
  0
ARC
  5
CD97
  8
0
 10
4826.7515281157266145
 20
253.1325350234567964
 30
0.0
 40
0.3975943223403883
 50
91.1676846716232774
 51
196.1540263300288984
  0
LINE
  5
CD98
  8
0
 10
4827.2568932939957449
 20
252.7129077373903954
 30
0.0
 11
4827.1383093016947896
 21
252.7129077373903954
 31
0.0
  0
LINE
  5
CD99
  8
0
 10
4827.0989404004958487
 20
252.8928196486903914
 30
0.0
 11
4827.0989392229948862
 21
252.7521984821904084
 31
0.0
  0
ARC
  5
CD9A
  8
0
 10
4820.6922174753626678
 20
253.8434181107575114
 30
0.0
 40
6.6930433707722639
 50
350.4865258469627065
 51
8.7862505825526078
  0
ARC
  5
CD9B
  8
0
 10
4827.256941561741769
 20
252.7521311064845122
 30
0.0
 40
0.0392233987929298
 50
269.9294926256418989
 51
337.616936873073314
  0
ARC
  5
CD9C
  8
0
 10
4827.1403637805860853
 20
252.7543365233746044
 30
0.0
 40
0.0414796961371479
 50
182.9545791372109989
 51
267.1609929073470084
  0
ARC
  5
CD9D
  8
0
 10
4827.5600616808460472
 20
252.8933705206106026
 30
0.0
 40
0.4611216093961956
 50
163.8133539556039864
 51
180.0684475482069047
  0
ARC
  5
CD9E
  8
0
 10
4826.7353233389630986
 20
253.1325350234567964
 30
0.0
 40
0.3975943223403883
 50
343.8459736699709879
 51
88.8323153284288338
  0
ARC
  5
CD9F
  8
0
 10
4826.0876680361552644
 20
252.8055904377029037
 30
0.0
 40
0.30028914600527
 50
0.9967783745021236
 51
29.1546343243982307
  0
ARC
  5
CDA0
  8
0
 10
4826.7466098806116861
 20
253.1509222730396118
 30
0.0
 40
0.4438305353609965
 50
90.411058037413909
 51
206.6449548685775994
  0
ARC
  5
CDA1
  8
0
 10
4827.3991834181988452
 20
252.8055904378101957
 30
0.0
 40
0.3002891456656146
 50
150.8453656628861097
 51
179.0032216504874043
  0
ARC
  5
CDA2
  8
0
 10
4826.7402415740698416
 20
253.1509222730396118
 30
0.0
 40
0.4438305353609965
 50
333.3550451314209226
 51
89.5889419625861052
  0
ARC
  5
CDA3
  8
0
 10
4822.3647335906025546
 20
256.307761440760828
 30
0.0
 40
0.0121936185637525
 50
182.2197458794182126
 51
266.9670011751546781
  0
LINE
  5
CDA4
  8
0
 10
4824.4018543728552686
 20
256.4924352963903971
 30
0.0
 11
4824.400238628394618
 21
256.3072891552903911
 31
0.0
  0
ARC
  5
CDA5
  8
0
 10
4824.3880541595881368
 20
256.307761440760828
 30
0.0
 40
0.0121936185637525
 50
273.0329988248453219
 51
357.7802541205817874
  0
ENDSEC
  0
EOF
