  0
SECTION
  2
HEADER
  9
$ACADVER
  1
AC1009
  9
$INSBASE
 10
4756.5053170239571045
 20
237.7845771981056942
 30
0.0
  9
$EXTMIN
 10
4755.4233170239067476
 20
235.2845771981558016
 30
0.0
  9
$EXTMAX
 10
4757.5873170240065519
 20
238.86657719815571
 30
0.0
  9
$LIMMIN
 10
0.0
 20
0.0
  9
$LIMMAX
 10
11.6929133858000007
 20
8.2677165353999982
  9
$ORTHOMODE
 70
     1
  9
$REGENMODE
 70
     1
  9
$FILLMODE
 70
     1
  9
$QTEXTMODE
 70
     0
  9
$MIRRTEXT
 70
     0
  9
$DRAGMODE
 70
     2
  9
$LTSCALE
 40
0.6431102362
  9
$OSMODE
 70
  4095
  9
$ATTMODE
 70
     1
  9
$TEXTSIZE
 40
0.2
  9
$TRACEWID
 40
0.05
  9
$TEXTSTYLE
  7
STANDARD
  9
$CLAYER
  8
0
  9
$CELTYPE
  6
BYLAYER
  9
$CECOLOR
 62
   256
  9
$DIMSCALE
 40
1.0
  9
$DIMASZ
 40
0.1875
  9
$DIMEXO
 40
0.0625
  9
$DIMDLI
 40
0.4443307087
  9
$DIMRND
 40
0.0
  9
$DIMDLE
 40
0.0
  9
$DIMEXE
 40
0.125
  9
$DIMTP
 40
0.01
  9
$DIMTM
 40
0.01
  9
$DIMTXT
 40
2.0
  9
$DIMCEN
 40
0.1052362205
  9
$DIMTSZ
 40
0.0
  9
$DIMTOL
 70
     1
  9
$DIMLIM
 70
     0
  9
$DIMTIH
 70
     1
  9
$DIMTOH
 70
     1
  9
$DIMSE1
 70
     0
  9
$DIMSE2
 70
     0
  9
$DIMTAD
 70
     0
  9
$DIMZIN
 70
     0
  9
$DIMBLK
  1

  9
$DIMASO
 70
     1
  9
$DIMSHO
 70
     1
  9
$DIMPOST
  1
\X
  9
$DIMAPOST
  1

  9
$DIMALT
 70
     1
  9
$DIMALTD
 70
     2
  9
$DIMALTF
 40
25.3999999999999986
  9
$DIMLFAC
 40
1.0
  9
$DIMTOFL
 70
     0
  9
$DIMTVP
 40
0.0
  9
$DIMTIX
 70
     0
  9
$DIMSOXD
 70
     0
  9
$DIMSAH
 70
     0
  9
$DIMBLK1
  1

  9
$DIMBLK2
  1

  9
$DIMSTYLE
  2
STANDARD
  9
$DIMCLRD
 70
     0
  9
$DIMCLRE
 70
     0
  9
$DIMCLRT
 70
     0
  9
$DIMTFAC
 40
1.0
  9
$DIMGAP
 40
0.09
  9
$LUNITS
 70
     2
  9
$LUPREC
 70
     4
  9
$SKETCHINC
 40
0.1
  9
$FILLETRAD
 40
0.0
  9
$AUNITS
 70
     0
  9
$AUPREC
 70
     0
  9
$MENU
  1
.
  9
$ELEVATION
 40
0.0
  9
$PELEVATION
 40
0.0
  9
$THICKNESS
 40
0.0
  9
$LIMCHECK
 70
     0
  9
$BLIPMODE
 70
     0
  9
$CHAMFERA
 40
0.0
  9
$CHAMFERB
 40
0.0
  9
$SKPOLY
 70
     0
  9
$TDCREATE
 40
2458060.468368056230247
  9
$TDUPDATE
 40
2459245.6987037039361894
  9
$TDINDWG
 40
0.3533866898
  9
$TDUSRTIMER
 40
0.3533866898
  9
$USRTIMER
 70
     1
  9
$ANGBASE
 50
0.0
  9
$ANGDIR
 70
     0
  9
$PDMODE
 70
     0
  9
$PDSIZE
 40
0.3125
  9
$PLINEWID
 40
0.0
  9
$COORDS
 70
     1
  9
$SPLFRAME
 70
     0
  9
$SPLINETYPE
 70
     6
  9
$SPLINESEGS
 70
     8
  9
$ATTDIA
 70
     1
  9
$ATTREQ
 70
     1
  9
$HANDLING
 70
     1
  9
$HANDSEED
  5
CA7B
  9
$SURFTAB1
 70
     6
  9
$SURFTAB2
 70
     6
  9
$SURFTYPE
 70
     6
  9
$SURFU
 70
     6
  9
$SURFV
 70
     6
  9
$UCSNAME
  2

  9
$UCSORG
 10
0.0
 20
0.0
 30
0.0
  9
$UCSXDIR
 10
1.0
 20
0.0
 30
0.0
  9
$UCSYDIR
 10
0.0
 20
1.0
 30
0.0
  9
$PUCSNAME
  2

  9
$PUCSORG
 10
0.0
 20
0.0
 30
0.0
  9
$PUCSXDIR
 10
1.0
 20
0.0
 30
0.0
  9
$PUCSYDIR
 10
0.0
 20
1.0
 30
0.0
  9
$USERI1
 70
     0
  9
$USERI2
 70
     0
  9
$USERI3
 70
     0
  9
$USERI4
 70
     0
  9
$USERI5
 70
     0
  9
$USERR1
 40
0.0
  9
$USERR2
 40
0.0
  9
$USERR3
 40
0.0
  9
$USERR4
 40
0.0
  9
$USERR5
 40
0.0
  9
$WORLDVIEW
 70
     1
  9
$SHADEDGE
 70
     3
  9
$SHADEDIF
 70
    70
  9
$TILEMODE
 70
     1
  9
$MAXACTVP
 70
    64
  9
$PLIMCHECK
 70
     0
  9
$PEXTMIN
 10
1.0000000000000000E+20
 20
1.0000000000000000E+20
 30
1.0000000000000000E+20
  9
$PEXTMAX
 10
-1.0000000000000000E+20
 20
-1.0000000000000000E+20
 30
-1.0000000000000000E+20
  9
$PLIMMIN
 10
0.0
 20
0.0
  9
$PLIMMAX
 10
12.0
 20
9.0
  9
$UNITMODE
 70
     0
  9
$VISRETAIN
 70
     1
  9
$PLINEGEN
 70
     0
  9
$PSLTSCALE
 70
     1
  0
ENDSEC
  0
SECTION
  2
TABLES
  0
TABLE
  2
VPORT
 70
     1
  0
VPORT
  2
*ACTIVE
 70
     0
 10
0.0
 20
0.0
 11
1.0
 21
1.0
 12
0.0
 22
0.0
 13
0.0
 23
0.0
 14
1.0
 24
1.0
 15
0.0
 25
0.0
 16
0.0
 26
0.0
 36
11.8579883336100291
 17
4756.50537109375
 27
237.0755767822265909
 37
0.0
 40
4.1850198981878277
 41
2.1186252771618621
 42
50.0
 43
0.0
 44
0.0
 50
0.0
 51
0.0
 71
     0
 72
   100
 73
     1
 74
     1
 75
     0
 76
     0
 77
     0
 78
     0
  0
ENDTAB
  0
TABLE
  2
LTYPE
 70
     2
  0
LTYPE
  2
CONTINUOUS
 70
     0
  3
Solid line
 72
    65
 73
     0
 40
0.0
  0
LTYPE
  2
PHANTOM2
 70
     0
  3
___ _ _ ___ _ _ ___ _ _ ___ _ _
 72
    65
 73
     6
 40
1.25
 49
0.625
 49
-0.125
 49
0.125
 49
-0.125
 49
0.125
 49
-0.125
  0
ENDTAB
  0
TABLE
  2
LAYER
 70
     2
  0
LAYER
  2
0
 70
     0
 62
   255
  6
CONTINUOUS
  0
LAYER
  2
DEFPOINTS
 70
     0
 62
     7
  6
CONTINUOUS
  0
ENDTAB
  0
TABLE
  2
STYLE
 70
     1
  0
STYLE
  2
STANDARD
 70
     0
 40
0.0
 41
0.8
 50
0.0
 71
     0
 42
0.2
  3
txt
  4

  0
ENDTAB
  0
TABLE
  2
VIEW
 70
     0
  0
ENDTAB
  0
TABLE
  2
UCS
 70
     0
  0
ENDTAB
  0
TABLE
  2
APPID
 70
     9
  0
APPID
  2
ACAD
 70
     0
  0
APPID
  2
ACAD_MLEADERVER
 70
     0
  0
APPID
  2
ACAD_EXEMPT_FROM_CAD_STANDARDS
 70
     0
  0
APPID
  2
ACAD_NAV_VCDISPLAY
 70
     0
  0
APPID
  2
ACAECLAYERSTANDARD
 70
     0
  0
APPID
  2
ACCMTRANSPARENCY
 70
     0
  0
APPID
  2
ACAD_DSTYLE_DIMJAG
 70
     0
  0
APPID
  2
ACAD_DSTYLE_DIMTALN
 70
     0
  0
APPID
  2
ACDBATTR
 70
     0
  0
ENDTAB
  0
TABLE
  2
DIMSTYLE
 70
     1
  0
DIMSTYLE
  2
STANDARD
 70
     0
  3

  4

  5

  6

  7

 40
1.0
 41
0.1875
 42
0.0625
 43
0.38
 44
0.125
 45
0.0
 46
0.0
 47
0.01
 48
0.01
140
0.15625
141
0.09
142
0.0
143
25.3999999999999986
144
1.0
145
0.0
146
1.0
147
0.09
 71
     1
 72
     0
 73
     1
 74
     1
 75
     0
 76
     0
 77
     0
 78
     4
170
     0
171
     2
172
     0
173
     0
174
     0
175
     0
176
     0
177
     0
178
     0
  0
ENDTAB
  0
ENDSEC
  0
SECTION
  2
BLOCKS
  0
BLOCK
  8
0
  2
$MODEL_SPACE
 70
     0
 10
0.0
 20
0.0
 30
0.0
  3
$MODEL_SPACE
  1

  0
ENDBLK
  5
21
  8
0
  0
BLOCK
 67
     1
  8
0
  2
$PAPER_SPACE
 70
     0
 10
0.0
 20
0.0
 30
0.0
  3
$PAPER_SPACE
  1

  0
ENDBLK
  5
1D
 67
     1
  8
0
  0
ENDSEC
  0
SECTION
  2
ENTITIES
  0
ATTDEF
  5
3930
  8
DEFPOINTS
 10
4756.4997708718619833
 20
237.7827258364972067
 30
0.0
 40
0.001
  1
K-26307T
  3

  2
MODELNUMBER
 70
     0
1001
ACDBATTR
1070
     0
1070
     1
  0
ATTDEF
  5
3931
  8
DEFPOINTS
 10
4756.4997708718619833
 20
237.7810591698305132
 30
0.0
 40
0.001
  1

  3

  2
TRADENAME
 70
     0
1001
ACDBATTR
1070
     0
1070
     1
  0
ATTDEF
  5
3932
  8
DEFPOINTS
 10
4756.4997708718619833
 20
237.7793925031637912
 30
0.0
 40
0.001
  1
SHOWER ARM
  3

  2
PRODUCT
 70
     0
1001
ACDBATTR
1070
     0
1070
     1
  0
LINE
  5
C8D1
  8
0
 10
4756.1205261543072993
 20
235.2845771981558016
 30
0.0
 11
4756.8901078936069098
 21
235.2845771981558016
 31
0.0
  0
LINE
  5
C8D2
  8
0
 10
4756.0993170239071333
 20
235.3381408447557988
 30
0.0
 11
4756.1450243120070809
 21
235.3117366641558021
 31
0.0
  0
LINE
  5
C8D3
  8
0
 10
4756.0993170239071333
 20
235.4095366736557935
 30
0.0
 11
4756.1450306514061594
 21
235.382836370553008
 31
0.0
  0
LINE
  5
C8D4
  8
0
 10
4756.0993170239071333
 20
235.4809272516557996
 30
0.0
 11
4756.1450385880070826
 21
235.4542232124647114
 31
0.0
  0
LINE
  5
C8D5
  8
0
 10
4756.0993170239071333
 20
235.5545808355556971
 30
0.0
 11
4756.1450418339072712
 21
235.525913325555706
 31
0.0
  0
LINE
  5
C8D6
  8
0
 10
4756.0993170239071333
 20
235.623727209455808
 30
0.0
 11
4756.1450170482457906
 21
235.5970353599603015
 31
0.0
  0
LINE
  5
C8D7
  8
0
 10
4756.0993170239071333
 20
235.6951357993557963
 30
0.0
 11
4756.1450300835149392
 21
235.6684270690545873
 31
0.0
  0
LINE
  5
C8D8
  8
0
 10
4756.0993170239071333
 20
235.7665410906558066
 30
0.0
 11
4756.1450384033068985
 21
235.7398313881739966
 31
0.0
  0
LINE
  5
C8D9
  8
0
 10
4756.9113170239070314
 20
235.3129905088557052
 30
0.0
 11
4756.8653743038057655
 21
235.3395331851558012
 31
0.0
  0
LINE
  5
C8DA
  8
0
 10
4756.9113170239070314
 20
235.384438954655792
 30
0.0
 11
4756.8653790238058718
 21
235.4109762653557993
 31
0.0
  0
LINE
  5
C8DB
  8
0
 10
4756.9113170239070314
 20
235.5272538637557034
 30
0.0
 11
4756.8656117501059271
 21
235.5536465418558123
 31
0.0
  0
LINE
  5
C8DC
  8
0
 10
4756.9113170239070314
 20
235.4557229461557029
 30
0.0
 11
4756.8653850371056251
 21
235.4822724953558009
 31
0.0
  0
LINE
  5
C8DD
  8
0
 10
4756.9113170239070314
 20
235.5986546494557956
 30
0.0
 11
4756.8656127571057368
 21
235.6250383815558109
 31
0.0
  0
LINE
  5
C8DE
  8
0
 10
4756.9113170239070314
 20
235.6700444234558063
 30
0.0
 11
4756.8655970453073678
 21
235.6964398200557014
 31
0.0
  0
LINE
  5
C8DF
  8
0
 10
4756.9113170239070314
 20
235.7414464966558114
 30
0.0
 11
4756.8656004253070932
 21
235.7678462749557866
 31
0.0
  0
LINE
  5
C8E0
  8
0
 10
4756.0993170239071333
 20
237.7845771981556879
 30
0.0
 11
4756.0993170239071333
 21
235.7665410906558066
 31
0.0
  0
LINE
  5
C8E1
  8
0
 10
4756.0993170239071333
 20
235.7057434542558099
 30
0.0
 11
4756.0993170239071333
 21
235.6951357993557963
 31
0.0
  0
LINE
  5
C8E2
  8
0
 10
4756.0993170239071333
 20
235.6343489425557891
 30
0.0
 11
4756.0993170239071333
 21
235.623727209455808
 31
0.0
  0
LINE
  5
C8E3
  8
0
 10
4756.0993170239071333
 20
235.5629573628557978
 30
0.0
 11
4756.0993170239071333
 21
235.5545808355556971
 31
0.0
  0
LINE
  5
C8E4
  8
0
 10
4756.0993170239071333
 20
235.4915463987557871
 30
0.0
 11
4756.0993170239071333
 21
235.4809272516557996
 31
0.0
  0
LINE
  5
C8E5
  8
0
 10
4756.0993170239071333
 20
235.4200845760558138
 30
0.0
 11
4756.0993170239071333
 21
235.4095366736557935
 31
0.0
  0
LINE
  5
C8E6
  8
0
 10
4756.0993170239071333
 20
235.3486208338557901
 30
0.0
 11
4756.0993170239071333
 21
235.3381408447557988
 31
0.0
  0
LINE
  5
C8E7
  8
0
 10
4756.1450170482457906
 20
235.5970353599603015
 30
0.0
 11
4756.1450170492071265
 21
235.5893418963557906
 31
0.0
  0
LINE
  5
C8E8
  8
0
 10
4756.1450243120070809
 20
235.3117366641558021
 30
0.0
 11
4756.1450243120070809
 21
235.3037126605557887
 31
0.0
  0
LINE
  5
C8E9
  8
0
 10
4756.1450300835149392
 20
235.6684270690545873
 30
0.0
 11
4756.1450300837068426
 21
235.6607376050558003
 31
0.0
  0
LINE
  5
C8EA
  8
0
 10
4756.1450306514061594
 20
235.382836370553008
 30
0.0
 11
4756.1450306514061594
 21
235.3750110681556862
 31
0.0
  0
LINE
  5
C8EB
  8
0
 10
4756.1450384033068985
 20
235.7398313881739966
 30
0.0
 11
4756.1450384033068985
 21
235.7321432942557919
 31
0.0
  0
LINE
  5
C8EC
  8
0
 10
4756.1450385880070826
 20
235.4542232124647114
 30
0.0
 11
4756.1450385880070826
 21
235.4464666944556939
 31
0.0
  0
LINE
  5
C8ED
  8
0
 10
4756.1450418339072712
 20
235.525913325555706
 30
0.0
 11
4756.1450418339072712
 21
235.5179249137557917
 31
0.0
  0
LINE
  5
C8EE
  8
0
 10
4756.8653743038057655
 20
235.3395331851558012
 30
0.0
 11
4756.8653743041068083
 21
235.3473243979557878
 31
0.0
  0
LINE
  5
C8EF
  8
0
 10
4756.8653790238058718
 20
235.4109762653557993
 30
0.0
 11
4756.8653790238058718
 21
235.418721673155801
 31
0.0
  0
LINE
  5
C8F0
  8
0
 10
4756.8653850371056251
 20
235.4822724953558009
 30
0.0
 11
4756.8653850376058472
 21
235.490127485255698
 31
0.0
  0
LINE
  5
C8F1
  8
0
 10
4756.8655970453073678
 20
235.6964398200557014
 30
0.0
 11
4756.8655970454074122
 21
235.7044396342558059
 31
0.0
  0
LINE
  5
C8F2
  8
0
 10
4756.8656004253070932
 20
235.7678462749557866
 30
0.0
 11
4756.8656004254071377
 21
235.7758466009557878
 31
0.0
  0
LINE
  5
C8F3
  8
0
 10
4756.8656117501059271
 20
235.5536465418558123
 30
0.0
 11
4756.8656117507071031
 21
235.5616471759558124
 31
0.0
  0
LINE
  5
C8F4
  8
0
 10
4756.8656127571057368
 20
235.6250383815558109
 30
0.0
 11
4756.8656127578069572
 21
235.6330376892557013
 31
0.0
  0
LINE
  5
C8F5
  8
0
 10
4756.9113170239070314
 20
235.7414464966558114
 30
0.0
 11
4756.9113170239070314
 21
235.7308402480556992
 31
0.0
  0
LINE
  5
C8F6
  8
0
 10
4756.9113170239070314
 20
235.6700444234558063
 30
0.0
 11
4756.9113170239070314
 21
235.6594300546557861
 31
0.0
  0
LINE
  5
C8F7
  8
0
 10
4756.9113170239070314
 20
235.5986546494557956
 30
0.0
 11
4756.9113170239070314
 21
235.5880305844557938
 31
0.0
  0
LINE
  5
C8F8
  8
0
 10
4756.9113170239070314
 20
235.5272538637557034
 30
0.0
 11
4756.9113170239070314
 21
235.5166297385557925
 31
0.0
  0
LINE
  5
C8F9
  8
0
 10
4756.9113170239070314
 20
235.4557229461557029
 30
0.0
 11
4756.9113170239070314
 21
235.4452309243557977
 31
0.0
  0
LINE
  5
C8FA
  8
0
 10
4756.9113170239070314
 20
235.384438954655792
 30
0.0
 11
4756.9113170239070314
 21
235.3738406505557066
 31
0.0
  0
LINE
  5
C8FB
  8
0
 10
4756.9113170239070314
 20
235.3129905088557052
 30
0.0
 11
4756.9113170239070314
 21
235.3024371581556977
 31
0.0
  0
LINE
  5
C8FC
  8
0
 10
4756.1450384033068985
 20
235.7321432942557919
 30
0.0
 11
4756.0993170239071333
 21
235.7057434542558099
 31
0.0
  0
LINE
  5
C8FD
  8
0
 10
4756.4636916885419851
 20
238.1884377328156006
 30
0.0
 11
4756.4449444206684348
 21
238.1997101874233067
 31
0.0
  0
LINE
  5
C8FE
  8
0
 10
4756.1450300837068426
 20
235.6607376050558003
 30
0.0
 11
4756.0993170239071333
 21
235.6343489425557891
 31
0.0
  0
LINE
  5
C8FF
  8
0
 10
4756.1450170492071265
 20
235.5893418963557906
 30
0.0
 11
4756.0993170239071333
 21
235.5629573628557978
 31
0.0
  0
LINE
  5
C900
  8
0
 10
4756.1450385880070826
 20
235.4464666944556939
 30
0.0
 11
4756.0993170239071333
 21
235.4200845760558138
 31
0.0
  0
LINE
  5
C901
  8
0
 10
4756.1450418339072712
 20
235.5179249137557917
 30
0.0
 11
4756.0993170239071333
 21
235.4915463987557871
 31
0.0
  0
LINE
  5
C902
  8
0
 10
4756.1450306514061594
 20
235.3750110681556862
 30
0.0
 11
4756.0993170239071333
 21
235.3486208338557901
 31
0.0
  0
LINE
  5
C903
  8
0
 10
4756.8656004254071377
 20
235.7758466009557878
 30
0.0
 11
4756.9113170240070758
 21
235.8019625845446967
 31
0.0
  0
LINE
  5
C904
  8
0
 10
4756.1450243120070809
 20
235.3037126605557887
 30
0.0
 11
4756.1205261543072993
 21
235.2845771981558016
 31
0.0
  0
LINE
  5
C905
  8
0
 10
4756.8655970454074122
 20
235.7044396342558059
 30
0.0
 11
4756.9113170239070314
 21
235.7308402480556992
 31
0.0
  0
LINE
  5
C906
  8
0
 10
4756.8656127578069572
 20
235.6330376892557013
 30
0.0
 11
4756.9113170239070314
 21
235.6594300546557861
 31
0.0
  0
LINE
  5
C907
  8
0
 10
4756.8656117507071031
 20
235.5616471759558124
 30
0.0
 11
4756.9113170239070314
 21
235.5880305844557938
 31
0.0
  0
LINE
  5
C908
  8
0
 10
4756.8653850376058472
 20
235.490127485255698
 30
0.0
 11
4756.9113170239070314
 21
235.5166297385557925
 31
0.0
  0
LINE
  5
C909
  8
0
 10
4756.8653790238058718
 20
235.418721673155801
 30
0.0
 11
4756.9113170239070314
 21
235.4452309243557977
 31
0.0
  0
LINE
  5
C90A
  8
0
 10
4756.8653743041068083
 20
235.3473243979557878
 30
0.0
 11
4756.9113170239070314
 21
235.3738406505557066
 31
0.0
  0
LINE
  5
C90B
  8
0
 10
4756.8901078936069098
 20
235.2845771981558016
 30
0.0
 11
4756.9113170239070314
 21
235.3024371581556977
 31
0.0
  0
ARC
  5
C90C
  8
0
 10
4756.5053170239070823
 20
237.7845771981556879
 30
0.0
 40
1.0820000000000001
 50
89.9999999973423854
 51
247.9614059227938014
  0
ARC
  5
C90D
  8
0
 10
4756.5053170239070823
 20
237.7845771981556879
 30
0.0
 40
0.4195000000000001
 50
89.9999999931735601
 51
194.57505291861861
  0
ARC
  5
C90E
  8
0
 10
4756.5053170239070823
 20
237.7845771981556879
 30
0.0
 40
0.4060000000000001
 50
89.9999999929651153
 51
180.0
  0
LINE
  5
C90F
  8
0
 10
4756.9113170240070758
 20
237.7845771981556879
 30
0.0
 11
4756.9113170240070758
 21
235.8019625845446967
 31
0.0
  0
LINE
  5
C910
  8
0
 10
4756.546942359372224
 20
238.1884377328156006
 30
0.0
 11
4756.5656896272457743
 21
238.1997101874233067
 31
0.0
  0
ARC
  5
C911
  8
0
 10
4756.5053170240062173
 20
237.7845771981556879
 30
0.0
 40
1.0820000000000001
 50
292.0385940772061986
 51
90.0000000026576146
  0
ARC
  5
C912
  8
0
 10
4756.5053170240062173
 20
237.7845771981556879
 30
0.0
 40
0.4195000000000001
 50
345.42494708138139
 51
90.0000000068264541
  0
ARC
  5
C913
  8
0
 10
4756.5053170240062173
 20
237.7845771981556879
 30
0.0
 40
0.4060000000000001
 50
0.0
 51
90.0000000070348847
  0
LINE
  5
C914
  8
0
 10
4756.1450243120070809
 20
235.307724662355696
 30
0.0
 11
4756.8653743039567416
 21
235.3434287915557945
 31
0.0
  0
LINE
  5
C915
  8
0
 10
4756.1450306514061594
 20
235.3789237193543897
 30
0.0
 11
4756.8653790238058718
 21
235.4148489692557007
 31
0.0
  0
LINE
  5
C916
  8
0
 10
4756.1450385880070826
 20
235.4503449534601884
 30
0.0
 11
4756.8653850373566456
 21
235.4861999903056926
 31
0.0
  0
LINE
  5
C917
  8
0
 10
4756.1450418339072712
 20
235.5219191196557915
 30
0.0
 11
4756.8656117504069698
 21
235.5576468589057981
 31
0.0
  0
LINE
  5
C918
  8
0
 10
4756.1450170487260038
 20
235.5931886281580034
 30
0.0
 11
4756.8656127574568018
 21
235.6290380354058129
 31
0.0
  0
LINE
  5
C919
  8
0
 10
4756.1450300836113456
 20
235.664582337055208
 30
0.0
 11
4756.86559704535739
 21
235.7004397271558105
 31
0.0
  0
LINE
  5
C91A
  8
0
 10
4756.1450384033068985
 20
235.7359873412148943
 30
0.0
 11
4756.865600425356206
 21
235.7718464379557872
 31
0.0
  0
LINE
  5
C91B
  8
0
 10
4756.4445229734274108
 20
235.2845771981558016
 30
0.0
 11
4756.9113170239070314
 21
235.3077138335056873
 31
0.0
  0
LINE
  5
C91C
  8
0
 10
4756.0993170239071333
 20
235.3433808393058086
 30
0.0
 11
4756.9113170239070314
 21
235.3791398026058062
 31
0.0
  0
LINE
  5
C91D
  8
0
 10
4756.0993170239071333
 20
235.4148106248557895
 30
0.0
 11
4756.9113170239070314
 21
235.4504769352558071
 31
0.0
  0
LINE
  5
C91E
  8
0
 10
4756.0993170239071333
 20
235.4862368252057081
 30
0.0
 11
4756.9113170239070314
 21
235.5219418011556911
 31
0.0
  0
LINE
  5
C91F
  8
0
 10
4756.0993170239071333
 20
235.5587690992057901
 30
0.0
 11
4756.9113170239070314
 21
235.5933426169557947
 31
0.0
  0
LINE
  5
C920
  8
0
 10
4756.0993170239071333
 20
235.6290380760057985
 30
0.0
 11
4756.9113170239070314
 21
235.6647372390557962
 31
0.0
  0
LINE
  5
C921
  8
0
 10
4756.0993170239071333
 20
235.7004396268056894
 30
0.0
 11
4756.9113170239070314
 21
235.7361433723557127
 31
0.0
  0
ENDSEC
  0
EOF
