  0
SECTION
  2
HEADER
  9
$ACADVER
  1
AC1009
  9
$INSBASE
 10
2790.7251782485418516
 20
135.0072537326385032
 30
0.0
  9
$EXTMIN
 10
2786.1153718116379423
 20
135.0069876690417061
 30
-0.0015258207003583
  9
$EXTMAX
 10
2792.2931968908701492
 20
140.8976073546068051
 30
0.0000000349246037
  9
$LIMMIN
 10
0.0
 20
0.0
  9
$LIMMAX
 10
11.6929133858000007
 20
8.2677165353999982
  9
$ORTHOMODE
 70
     1
  9
$REGENMODE
 70
     1
  9
$FILLMODE
 70
     1
  9
$QTEXTMODE
 70
     0
  9
$MIRRTEXT
 70
     0
  9
$DRAGMODE
 70
     2
  9
$LTSCALE
 40
0.6431102362
  9
$OSMODE
 70
  2039
  9
$ATTMODE
 70
     1
  9
$TEXTSIZE
 40
0.2
  9
$TRACEWID
 40
0.05
  9
$TEXTSTYLE
  7
STANDARD
  9
$CLAYER
  8
0
  9
$CELTYPE
  6
BYLAYER
  9
$CECOLOR
 62
   256
  9
$DIMSCALE
 40
1.0
  9
$DIMASZ
 40
0.1875
  9
$DIMEXO
 40
0.0625
  9
$DIMDLI
 40
0.4443307087
  9
$DIMRND
 40
0.0
  9
$DIMDLE
 40
0.0
  9
$DIMEXE
 40
0.125
  9
$DIMTP
 40
0.01
  9
$DIMTM
 40
0.01
  9
$DIMTXT
 40
2.0
  9
$DIMCEN
 40
0.1052362205
  9
$DIMTSZ
 40
0.0
  9
$DIMTOL
 70
     1
  9
$DIMLIM
 70
     0
  9
$DIMTIH
 70
     1
  9
$DIMTOH
 70
     1
  9
$DIMSE1
 70
     0
  9
$DIMSE2
 70
     0
  9
$DIMTAD
 70
     0
  9
$DIMZIN
 70
     0
  9
$DIMBLK
  1

  9
$DIMASO
 70
     1
  9
$DIMSHO
 70
     1
  9
$DIMPOST
  1
\X
  9
$DIMAPOST
  1

  9
$DIMALT
 70
     1
  9
$DIMALTD
 70
     2
  9
$DIMALTF
 40
25.3999999999999986
  9
$DIMLFAC
 40
1.0
  9
$DIMTOFL
 70
     0
  9
$DIMTVP
 40
0.0
  9
$DIMTIX
 70
     0
  9
$DIMSOXD
 70
     0
  9
$DIMSAH
 70
     0
  9
$DIMBLK1
  1

  9
$DIMBLK2
  1

  9
$DIMSTYLE
  2
STANDARD
  9
$DIMCLRD
 70
     0
  9
$DIMCLRE
 70
     0
  9
$DIMCLRT
 70
     0
  9
$DIMTFAC
 40
1.0
  9
$DIMGAP
 40
0.09
  9
$LUNITS
 70
     2
  9
$LUPREC
 70
     4
  9
$SKETCHINC
 40
0.1
  9
$FILLETRAD
 40
0.0
  9
$AUNITS
 70
     0
  9
$AUPREC
 70
     0
  9
$MENU
  1
.
  9
$ELEVATION
 40
0.0
  9
$PELEVATION
 40
0.0
  9
$THICKNESS
 40
0.0
  9
$LIMCHECK
 70
     0
  9
$BLIPMODE
 70
     0
  9
$CHAMFERA
 40
0.0
  9
$CHAMFERB
 40
0.0
  9
$SKPOLY
 70
     0
  9
$TDCREATE
 40
2458060.468368056230247
  9
$TDUPDATE
 40
2459340.3187384260818362
  9
$TDINDWG
 40
0.6738265046
  9
$TDUSRTIMER
 40
0.6738265046
  9
$USRTIMER
 70
     1
  9
$ANGBASE
 50
0.0
  9
$ANGDIR
 70
     0
  9
$PDMODE
 70
     0
  9
$PDSIZE
 40
0.3125
  9
$PLINEWID
 40
0.0
  9
$COORDS
 70
     1
  9
$SPLFRAME
 70
     0
  9
$SPLINETYPE
 70
     6
  9
$SPLINESEGS
 70
     8
  9
$ATTDIA
 70
     1
  9
$ATTREQ
 70
     1
  9
$HANDLING
 70
     1
  9
$HANDSEED
  5
37741
  9
$SURFTAB1
 70
     6
  9
$SURFTAB2
 70
     6
  9
$SURFTYPE
 70
     6
  9
$SURFU
 70
     6
  9
$SURFV
 70
     6
  9
$UCSNAME
  2

  9
$UCSORG
 10
0.0
 20
0.0
 30
0.0
  9
$UCSXDIR
 10
1.0
 20
0.0
 30
0.0
  9
$UCSYDIR
 10
0.0
 20
1.0
 30
0.0
  9
$PUCSNAME
  2

  9
$PUCSORG
 10
0.0
 20
0.0
 30
0.0
  9
$PUCSXDIR
 10
1.0
 20
0.0
 30
0.0
  9
$PUCSYDIR
 10
0.0
 20
1.0
 30
0.0
  9
$USERI1
 70
     0
  9
$USERI2
 70
     0
  9
$USERI3
 70
     0
  9
$USERI4
 70
     0
  9
$USERI5
 70
     0
  9
$USERR1
 40
0.0
  9
$USERR2
 40
0.0
  9
$USERR3
 40
0.0
  9
$USERR4
 40
0.0
  9
$USERR5
 40
0.0
  9
$WORLDVIEW
 70
     1
  9
$SHADEDGE
 70
     3
  9
$SHADEDIF
 70
    70
  9
$TILEMODE
 70
     1
  9
$MAXACTVP
 70
    64
  9
$PLIMCHECK
 70
     0
  9
$PEXTMIN
 10
1.0000000000000000E+20
 20
1.0000000000000000E+20
 30
1.0000000000000000E+20
  9
$PEXTMAX
 10
-1.0000000000000000E+20
 20
-1.0000000000000000E+20
 30
-1.0000000000000000E+20
  9
$PLIMMIN
 10
0.0
 20
0.0
  9
$PLIMMAX
 10
12.0
 20
9.0
  9
$UNITMODE
 70
     0
  9
$VISRETAIN
 70
     1
  9
$PLINEGEN
 70
     0
  9
$PSLTSCALE
 70
     1
  0
ENDSEC
  0
SECTION
  2
TABLES
  0
TABLE
  2
VPORT
 70
     1
  0
VPORT
  2
*ACTIVE
 70
     0
 10
0.0
 20
0.0
 11
1.0
 21
1.0
 12
-514.4888308831212953
 22
-57.3092140640634895
 13
0.0
 23
0.0
 14
1.0
 24
1.0
 15
0.0
 25
0.0
 16
0.0
 26
0.0
 36
96.5995694866707311
 17
3303.693115234375
 27
195.2615115758877096
 37
0.0
 40
5.9396400990372911
 41
2.6486111111111108
 42
50.0
 43
0.0
 44
0.0
 50
0.0
 51
0.0
 71
     0
 72
   100
 73
     1
 74
     1
 75
     0
 76
     0
 77
     0
 78
     1
  0
ENDTAB
  0
TABLE
  2
LTYPE
 70
     2
  0
LTYPE
  2
CONTINUOUS
 70
     0
  3
Solid line
 72
    65
 73
     0
 40
0.0
  0
LTYPE
  2
PHANTOM2
 70
     0
  3
___ _ _ ___ _ _ ___ _ _ ___ _ _
 72
    65
 73
     6
 40
1.25
 49
0.625
 49
-0.125
 49
0.125
 49
-0.125
 49
0.125
 49
-0.125
  0
ENDTAB
  0
TABLE
  2
LAYER
 70
     2
  0
LAYER
  2
0
 70
     0
 62
   255
  6
CONTINUOUS
  0
LAYER
  2
DEFPOINTS
 70
     0
 62
     7
  6
CONTINUOUS
  0
ENDTAB
  0
TABLE
  2
STYLE
 70
     1
  0
STYLE
  2
STANDARD
 70
     0
 40
0.0
 41
0.8
 50
0.0
 71
     0
 42
0.2
  3
txt
  4

  0
ENDTAB
  0
TABLE
  2
VIEW
 70
     0
  0
ENDTAB
  0
TABLE
  2
UCS
 70
     0
  0
ENDTAB
  0
TABLE
  2
APPID
 70
     9
  0
APPID
  2
ACAD
 70
     0
  0
APPID
  2
ACAD_MLEADERVER
 70
     0
  0
APPID
  2
ACAD_EXEMPT_FROM_CAD_STANDARDS
 70
     0
  0
APPID
  2
ACAD_NAV_VCDISPLAY
 70
     0
  0
APPID
  2
ACAECLAYERSTANDARD
 70
     0
  0
APPID
  2
ACCMTRANSPARENCY
 70
     0
  0
APPID
  2
ACAD_DSTYLE_DIMJAG
 70
     0
  0
APPID
  2
ACAD_DSTYLE_DIMTALN
 70
     0
  0
APPID
  2
ACDBATTR
 70
     0
  0
ENDTAB
  0
TABLE
  2
DIMSTYLE
 70
     1
  0
DIMSTYLE
  2
STANDARD
 70
     0
  3

  4

  5

  6

  7

 40
1.0
 41
0.1875
 42
0.0625
 43
0.38
 44
0.125
 45
0.0
 46
0.0
 47
0.01
 48
0.01
140
0.15625
141
0.09
142
0.0
143
25.3999999999999986
144
1.0
145
0.0
146
1.0
147
0.09
 71
     1
 72
     0
 73
     1
 74
     1
 75
     0
 76
     0
 77
     0
 78
     4
170
     0
171
     2
172
     0
173
     0
174
     0
175
     0
176
     0
177
     0
178
     0
  0
ENDTAB
  0
ENDSEC
  0
SECTION
  2
BLOCKS
  0
BLOCK
  8
0
  2
$MODEL_SPACE
 70
     0
 10
0.0
 20
0.0
 30
0.0
  3
$MODEL_SPACE
  1

  0
ENDBLK
  5
21
  8
0
  0
BLOCK
 67
     1
  8
0
  2
$PAPER_SPACE
 70
     0
 10
0.0
 20
0.0
 30
0.0
  3
$PAPER_SPACE
  1

  0
ENDBLK
  5
1D
 67
     1
  8
0
  0
BLOCK
  8
0
  2
_FILLED
 70
     0
 10
0.0
 20
0.0
 30
0.0
  3
_FILLED
  1

  0
SOLID
  5
2ABDA
  8
0
  6
BYBLOCK
 62
     0
 10
0.0
 20
0.0
 30
0.0
 11
-1.0
 21
0.1666666667
 31
0.0
 12
-1.0
 22
-0.1666666667
 32
0.0
 13
-1.0
 23
-0.1666666667
 33
0.0
  0
ENDBLK
  5
2ABDB
  8
0
  6
BYBLOCK
 62
     0
  0
ENDSEC
  0
SECTION
  2
ENTITIES
  0
ATTDEF
  5
340AC
  8
DEFPOINTS
 10
2790.7261225288921196
 20
135.0118440323414859
 30
0.0
 40
0.001
  1
K-26040T-4
  3

  2
MODELNUMBER
 70
     0
1001
ACDBATTR
1070
     0
1070
     1
  0
ATTDEF
  5
340AD
  8
DEFPOINTS
 10
2790.7261225288921196
 20
135.0101773656747923
 30
0.0
 40
0.001
  1

  3

  2
TRADENAME
 70
     0
1001
ACDBATTR
1070
     0
1070
     1
  0
ATTDEF
  5
340AE
  8
DEFPOINTS
 10
2790.7261225288921196
 20
135.0085106990082124
 30
0.0
 40
0.001
  1
BATHROOM SINK FAUCET
  3

  2
PRODUCT
 70
     0
1001
ACDBATTR
1070
     0
1070
     1
  0
LINE
  5
374C4
  8
0
 10
2789.898380612892197
 20
139.8497734176384881
 30
0.0
 11
2791.5519519096419572
 21
139.8497734176384881
 31
0.0
  0
LINE
  5
374C6
  8
0
 10
2789.7999847592418519
 20
135.0072537326385032
 30
0.0
 11
2791.6503717378418514
 21
135.0072537326385032
 31
0.0
  0
LINE
  5
374C7
  8
0
 10
2789.7999900518420873
 20
135.0072537326385032
 30
0.0
 11
2789.7999900518470895
 21
135.0406064301384959
 31
0.0
  0
LINE
  5
374C8
  8
0
 10
2789.7999900518470895
 20
135.0406064301384959
 30
0.0
 11
2789.8017821814419221
 21
135.0523664718384964
 31
0.0
  0
LINE
  5
374C9
  8
0
 10
2789.8017821814419221
 20
135.0523664718384964
 30
0.0
 11
2789.8064312754418097
 21
135.0672200596384869
 31
0.0
  0
ARC
  5
374CA
  8
0
 10
2787.7146942300219052
 20
135.7219226324029933
 30
0.0
 40
2.1918027570856848
 50
342.6201574118738904
 51
349.4749876566423268
  0
ARC
  5
374CB
  8
0
 10
2788.1855795649680658
 20
135.6344365517657877
 30
0.0
 40
1.7128593230842579
 50
349.4749876566423268
 51
0.3201911239162968
  0
LINE
  5
374CC
  8
0
 10
2789.8984121417420283
 20
135.644008626738497
 30
0.0
 11
2789.898411133342961
 21
137.5191859014398119
 31
0.0
  0
LINE
  5
374CD
  8
0
 10
2789.8064375443627796
 20
135.0672400884812987
 30
0.0
 11
2791.6439242453211591
 21
135.0672400884812987
 31
0.0
  0
LINE
  5
374CE
  8
0
 10
2791.6503717378418514
 20
135.0072537326385032
 30
0.0
 11
2791.6503717378368492
 21
135.0406064301384959
 31
0.0
  0
LINE
  5
374CF
  8
0
 10
2791.6503717378368492
 20
135.0406064301384959
 30
0.0
 11
2791.6485796082420165
 21
135.0523664718384964
 31
0.0
  0
LINE
  5
374D0
  8
0
 10
2791.6485796082420165
 20
135.0523664718384964
 30
0.0
 11
2791.643930514242129
 21
135.0672200596384869
 31
0.0
  0
ARC
  5
374D1
  8
0
 10
2793.7356675596620335
 20
135.7219226324029933
 30
0.0
 40
2.1918027570856848
 50
190.525012343357588
 51
197.3798425881259959
  0
ARC
  5
374D2
  8
0
 10
2793.2647822247158729
 20
135.6344365517657877
 30
0.0
 40
1.7128593230842579
 50
179.6798088760837118
 51
190.525012343357588
  0
LINE
  5
374D3
  8
0
 10
2791.5519496479419104
 20
135.644008626738497
 30
0.0
 11
2791.5519501909798237
 21
136.6538199791121997
 31
0.0
  0
LINE
  5
374D4
  8
0
 10
2791.5519504512080857
 20
137.1377295817422066
 30
0.0
 11
2791.5519519096419572
 21
139.8497734176386018
 31
0.0
  0
ARC
  5
374D5
  8
0
 10
2788.8847208957568
 20
137.519305231311904
 30
0.0
 40
1.0136902446104481
 50
359.9932552393627248
 51
16.9801346827456889
  0
ARC
  5
374D6
  8
0
 10
2789.1983866762898288
 20
137.6150835788027109
 30
0.0
 40
0.6857272684588299
 50
16.9801346827456889
 51
59.3182622524439225
  0
ARC
  5
374D7
  8
0
 10
2788.9950640028228008
 20
137.1887583005658087
 30
0.0
 40
1.15691013429735
 50
61.4324597734446414
 51
86.2395827606233638
  0
ARC
  5
374D8
  8
0
 10
2788.6070380740261498
 20
133.1484461253349139
 30
0.0
 40
5.2154040909195594
 50
84.8968931426186373
 51
87.7300975723800462
  0
LINE
  5
374D9
  8
0
 10
2788.8133861371338753
 20
138.3550264023512
 30
0.0
 11
2787.2749652170919035
 21
138.4301151913385013
 31
0.0
  0
ARC
  5
374DA
  8
0
 10
2786.7864143799138219
 20
137.1144020998652024
 30
0.0
 40
1.4034895295588701
 50
69.6290218607133227
 51
74.3899641666881593
  0
ARC
  5
374DB
  8
0
 10
2786.7170298115770493
 20
136.8973583210704135
 30
0.0
 40
1.6312200751464481
 50
74.0941668482508078
 51
83.8265420625800033
  0
ARC
  5
374DC
  8
0
 10
2786.6821936471869776
 20
136.4584968807942005
 30
0.0
 40
2.071320831935282
 50
84.1739858203410307
 51
88.4409655244593864
  0
ARC
  5
374DD
  8
0
 10
2787.3666635586041593
 20
162.0462330891147076
 30
0.0
 40
23.5255687426463886
 50
267.3962607934436733
 51
268.4700624027818776
  0
LINE
  5
374DE
  8
0
 10
2786.2979397326630533
 20
138.5449519740595861
 30
0.0
 11
2786.2292087573168828
 21
138.5688415856199924
 31
0.0
  0
ARC
  5
374DF
  8
0
 10
2786.2387498839379987
 20
138.5983961864947105
 30
0.0
 40
0.0310565215414857
 50
182.4208472484513948
 51
252.1083381550070897
  0
ARC
  5
374E0
  8
0
 10
2786.283385442332019
 20
138.5850588858681078
 30
0.0
 40
0.0766140223294849
 50
162.4754591656767957
 51
170.9693901290818872
  0
LINE
  5
374E1
  8
0
 10
2786.2103272249919428
 20
138.6081284609969089
 30
0.0
 11
2786.3721087928420275
 21
139.1020864487884978
 31
0.0
  0
ARC
  5
374E2
  8
0
 10
2786.4018544361570093
 20
139.0913273825503893
 30
0.0
 40
0.031631642425466
 50
97.4203101513119378
 51
160.11482847724659
  0
ARC
  5
374E3
  8
0
 10
2785.9406065004459379
 20
170.0935387042042919
 30
0.0
 40
30.9742185024062202
 50
270.8456855854881269
 51
271.3633480997082756
  0
ARC
  5
374E4
  8
0
 10
2769.0964025344451329
 20
713.4477332824258156
 30
0.0
 40
574.588680378730146
 50
271.7533998410686991
 51
271.9671290368960967
  0
ARC
  5
374E5
  8
0
 10
2787.8439019668790024
 20
156.6449006795124035
 30
0.0
 40
17.4744096628566794
 50
273.2015296247884066
 51
273.6753667871809057
  0
ARC
  5
374E6
  8
0
 10
2788.8221960933879018
 20
141.4150680359749117
 30
0.0
 40
2.213188815620255
 50
273.6753667871809057
 51
286.1664196838544854
  0
ARC
  5
374E7
  8
0
 10
2789.2142851410699222
 20
139.974863134700314
 30
0.0
 40
0.7211784166277253
 50
288.1060255399713128
 51
326.3511650657727046
  0
ARC
  5
374E8
  8
0
 10
2789.3349042012328027
 20
139.871648451151799
 30
0.0
 40
0.5639008632615825
 50
328.2907709218791865
 51
357.7768048592766945
  0
LINE
  5
374E9
  8
0
 10
2789.8984208920919627
 20
139.9285135751385951
 30
0.0
 11
2790.570243478392058
 21
139.9285135751385951
 31
0.0
  0
ARC
  5
374EA
  8
0
 10
2790.570243478392058
 20
141.1883560948386105
 30
0.0
 40
1.259842519700088
 50
270.0
 51
280.2748465972010763
  0
ARC
  5
374EB
  8
0
 10
2790.5688863180080261
 20
141.1958427474770019
 30
0.0
 40
1.2674511892312761
 50
280.2748465972010763
 51
296.1377826104811106
  0
LINE
  5
374EC
  8
0
 10
2791.1272381890871657
 20
140.0580045757023981
 30
0.0
 11
2791.5519525521917785
 21
140.2560521244639062
 31
0.0
  0
LINE
  5
374ED
  8
0
 10
2791.5519525484919541
 20
140.2560521227385095
 30
0.0
 11
2791.5519525521917785
 21
140.8465514103384919
 31
0.0
  0
ARC
  5
374EE
  8
0
 10
2791.5250613603798229
 20
140.849041063068114
 30
0.0
 40
0.0270061949890549
 50
354.7104943318552728
 51
42.1539674050617492
  0
ARC
  5
374EF
  8
0
 10
2791.5260963398927743
 20
140.8487898185786094
 30
0.0
 40
0.0264222226624701
 50
44.0644380627181178
 51
92.6157685868617193
  0
ARC
  5
374F0
  8
0
 10
2790.2361583234710452
 20
102.0333622995386946
 30
0.0
 40
38.8630218694923926
 50
88.1032000007998448
 51
89.2790146638081552
  0
LINE
  5
374F1
  8
0
 10
2790.7251808948421967
 20
140.8933073040460044
 30
0.0
 11
2787.9901500980918172
 21
140.8933073040460044
 31
0.0
  0
ARC
  5
374F2
  8
0
 10
2788.2200178391599366
 20
130.9908709483229075
 30
0.0
 40
9.9051039851952591
 50
91.329782494566544
 51
93.7277114200759058
  0
ARC
  5
374F3
  8
0
 10
2787.5782929126130512
 20
140.8286890973234051
 30
0.0
 40
0.0463843514362517
 50
92.7864332202313022
 51
113.9869854887050025
  0
ARC
  5
374F4
  8
0
 10
2787.573091131460842
 20
140.8465607902938075
 30
0.0
 40
0.0280541847861996
 50
119.1258685178097068
 51
153.1945808410550001
  0
ARC
  5
374F5
  8
0
 10
2787.5989485222889925
 20
140.8345896205532028
 30
0.0
 40
0.0565399875923926
 50
154.1835892747452874
 51
163.1134826138890901
  0
LINE
  5
374F6
  8
0
 10
2787.5448464278920255
 20
140.8510131883384986
 30
0.0
 11
2787.5046490252921103
 21
140.7282810405378086
 31
0.0
  0
ARC
  5
374F7
  8
0
 10
2787.5189133356029743
 20
140.7234245646318129
 30
0.0
 40
0.0150632400187
 50
161.2005039037127858
 51
267.1341991646692122
  0
ARC
  5
374F8
  8
0
 10
2800.5584329457560671
 20
345.4783144668011801
 30
0.0
 40
205.1847331247751924
 50
266.3561788203613219
 51
266.5292373616820782
  0
LINE
  5
374F9
  8
0
 10
2788.1367143405918796
 20
140.6699269081385921
 30
0.0
 11
2789.4267491796917966
 21
140.5897898461385012
 31
0.0
  0
ARC
  5
374FA
  8
0
 10
2791.1358254771289467
 20
163.9696220046213
 30
0.0
 40
23.4414306417328397
 50
265.8189582362467718
 51
266.9260346991912911
  0
ARC
  5
374FB
  8
0
 10
2789.8776641197518984
 20
140.541199831922313
 30
0.0
 40
0.0207503204755216
 50
358.8941361217495114
 51
86.9260346991913764
  0
LINE
  5
374FC
  8
0
 10
2789.8984105753170297
 20
140.5407993555631947
 30
0.0
 11
2789.8984058024070691
 21
140.5303299421034922
 31
0.0
  0
ARC
  5
374FD
  8
0
 10
2789.9035429686919088
 20
140.5196946329384957
 30
0.0
 40
0.0118110236000128
 50
115.781905312302996
 51
166.2323516674701978
  0
ARC
  5
374FE
  8
0
 10
2789.904088297988892
 20
140.5195610136642017
 30
0.0
 40
0.012372484331047
 50
166.2323516674670998
 51
191.400939892863704
  0
LINE
  5
374FF
  8
0
 10
2789.8919599483588172
 20
140.5171153023609065
 30
0.0
 11
2789.9079972391627962
 21
140.3865020506152916
 31
0.0
  0
ARC
  5
37500
  8
0
 10
2789.0568149337868817
 20
140.3866521456066891
 30
0.0
 40
0.8511823186092676
 50
351.3920606003343892
 51
359.989896630387193
  0
LINE
  5
37501
  8
0
 10
2789.8984208920919627
 20
139.9285135751385951
 30
0.0
 11
2789.8984092373921158
 21
140.2592536854384946
 31
0.0
  0
ARC
  5
37502
  8
0
 10
2790.8452710872029456
 20
139.7269273549032107
 30
0.0
 40
0.8807213521513928
 50
166.7684094554867897
 51
171.9820425030590911
  0
ARC
  5
37503
  8
0
 10
2790.6193049898920435
 20
139.7301721193385049
 30
0.0
 40
0.8661417323000229
 50
7.9370563962642624
 51
30.4627356927058806
  0
ARC
  5
37504
  8
0
 10
2796.5380266550728265
 20
136.8957720991053861
 30
0.0
 40
4.9919434426031426
 50
177.2214628541373997
 51
182.7785371458626003
  0
LINE
  5
37505
  8
0
 10
2791.6528871206919575
 20
137.5460214305385023
 30
0.0
 11
2791.9676456784841321
 21
137.4058818916419114
 31
0.0
  0
ARC
  5
37506
  8
0
 10
2791.9724496545959482
 20
137.4166717986472861
 30
0.0
 40
0.0118110236501889
 50
245.9999999967999997
 51
290.999999836520999
  0
LINE
  5
37507
  8
0
 10
2791.9766823468921757
 20
137.4056452581384917
 30
0.0
 11
2791.9935374668239092
 21
137.4121153324313127
 31
0.0
  0
ARC
  5
37508
  8
0
 10
2791.9893047745781587
 20
137.4231418728080882
 30
0.0
 40
0.0118110235087662
 50
290.9999998365204874
 51
336.0000004445652735
  0
LINE
  5
37509
  8
0
 10
2792.0000946814921008
 20
137.4183378968384943
 30
0.0
 11
2792.2062771034879916
 21
137.881431208443388
 31
0.0
  0
ARC
  5
3750A
  8
0
 10
2792.1882939249021547
 20
137.8894378352354977
 30
0.0
 40
0.0196850396146945
 50
336.0000004445668083
 51
65.9999878839905136
  0
LINE
  5
3750B
  8
0
 10
2792.1963005556358439
 20
137.9074210120658961
 30
0.0
 11
2791.8726033767379704
 21
138.0515403634840084
 31
0.0
  0
ARC
  5
3750C
  8
0
 10
2791.8645967477859813
 20
138.0335571906560972
 30
0.0
 40
0.0196850352334657
 50
65.9999878839911958
 51
156.0002302456626921
  0
LINE
  5
3750D
  8
0
 10
2791.8466135410890274
 20
138.0415637435395126
 30
0.0
 11
2791.6404329764668546
 21
137.5784696049917102
 31
0.0
  0
ARC
  5
3750E
  8
0
 10
2791.651278238643954
 20
137.573641035391887
 30
0.0
 40
0.0118715961893765
 50
156.0002302456672112
 51
203.9997697543417132
  0
LINE
  5
3750F
  8
0
 10
2791.6404329764668546
 20
137.5688124657920071
 30
0.0
 11
2791.6466560175390441
 21
137.5526008896102894
 31
0.0
  0
ARC
  5
37510
  8
0
 10
2791.6576910968501579
 20
137.5568113374943096
 30
0.0
 40
0.0118110236234316
 50
201.0000001964396859
 51
245.9999996559471072
  0
LINE
  5
37511
  8
0
 10
2791.6404311154919924
 20
137.5784704335385129
 30
0.0
 11
2792.0000946814529925
 21
137.4183378967508133
 31
0.0
  0
LINE
  5
37512
  8
0
 10
2791.8911907019842147
 20
137.439921840319812
 30
0.0
 11
2791.5519502039701365
 21
136.677975206664712
 31
0.0
  0
LINE
  5
37513
  8
0
 10
2791.7293420972841886
 20
137.5119814818201007
 30
0.0
 11
2791.551950438206859
 21
137.1135532921433935
 31
0.0
  0
LINE
  5
37514
  8
0
 10
2786.7541724931188583
 20
138.5285666947249865
 30
0.0
 11
2787.1136357348918864
 21
138.4117701664881963
 31
0.0
  0
LINE
  5
37515
  8
0
 10
2786.7460006039082145
 20
138.5288530870471106
 30
0.0
 11
2786.7291315875440887
 21
138.4769356485228116
 31
0.0
  0
ARC
  5
37516
  8
0
 10
2786.9583203805777885
 20
139.0168840644728903
 30
0.0
 40
0.5865763332589066
 50
237.9580937766658053
 51
247.000513548101992
  0
ARC
  5
37517
  8
0
 10
2786.9637195605910165
 20
139.0255105125580997
 30
0.0
 40
0.5967531083562427
 50
235.7451052016635913
 51
237.9580937766658053
  0
LINE
  5
37518
  8
0
 10
2786.7128351295541506
 20
138.5287036641873044
 30
0.0
 11
2786.7121354511377831
 21
138.5292665773991132
 31
0.0
  0
LINE
  5
37519
  8
0
 10
2786.7121354511377831
 20
138.5292665773991132
 30
0.0
 11
2786.710025208370098
 21
138.5298300745807865
 31
0.0
  0
LINE
  5
3751A
  8
0
 10
2786.6945356710539272
 20
138.5302676875463987
 30
0.0
 11
2786.6934792038669002
 21
138.5270162193471037
 31
0.0
  0
LINE
  5
3751B
  8
0
 10
2786.6934792038669002
 20
138.5270162193471037
 30
0.0
 11
2786.7078310180741028
 21
138.5160189093188023
 31
0.0
  0
LINE
  5
3751C
  8
0
 10
2786.7078310180741028
 20
138.5160189093188023
 30
0.0
 11
2786.7086293193888196
 21
138.5157595252206875
 31
0.0
  0
LINE
  5
3751D
  8
0
 10
2786.7086293193888196
 20
138.5157595252206875
 30
0.0
 11
2786.7128351295800712
 21
138.5287036641666134
 31
0.0
  0
LINE
  5
3751E
  8
0
 10
2786.7121354511082245
 20
138.5292665774238117
 30
0.0
 11
2786.7078310182278074
 21
138.5160189092740097
 31
0.0
  0
LINE
  5
3751F
  8
0
 10
2786.6901445615139892
 20
138.5167532563609996
 30
0.0
 11
2786.6886457868808975
 21
138.5121405074868903
 31
0.0
  0
LINE
  5
37520
  8
0
 10
2786.6886457868808975
 20
138.5121405074868903
 30
0.0
 11
2786.7033440581858486
 21
138.5022094811288866
 31
0.0
  0
LINE
  5
37521
  8
0
 10
2786.7033440581858486
 20
138.5022094811288866
 30
0.0
 11
2786.7041423593618674
 21
138.5019500970740012
 31
0.0
  0
LINE
  5
37522
  8
0
 10
2786.7041423593618674
 20
138.5019500970740012
 30
0.0
 11
2786.7070461884450197
 21
138.510887154409005
 31
0.0
  0
LINE
  5
37523
  8
0
 10
2786.7070461884450197
 20
138.510887154409005
 30
0.0
 11
2786.7063284049231697
 21
138.5113943461124961
 31
0.0
  0
LINE
  5
37524
  8
0
 10
2786.7063284049231697
 20
138.5113943461124961
 30
0.0
 11
2786.6901445615139892
 21
138.5167532563609996
 31
0.0
  0
LINE
  5
37525
  8
0
 10
2786.6864762604641328
 20
138.5054633987136015
 30
0.0
 11
2786.6855939768379358
 21
138.5027480120130861
 31
0.0
  0
LINE
  5
37526
  8
0
 10
2786.6855939768379358
 20
138.5027480120130861
 30
0.0
 11
2786.7006091266080148
 21
138.4937922360805942
 31
0.0
  0
LINE
  5
37527
  8
0
 10
2786.7006091266080148
 20
138.4937922360805942
 30
0.0
 11
2786.7013868504450329
 21
138.4934695215767988
 31
0.0
  0
LINE
  5
37528
  8
0
 10
2786.7013868504450329
 20
138.4934695215767988
 30
0.0
 11
2786.7031002418339085
 21
138.4987427924125996
 31
0.0
  0
LINE
  5
37529
  8
0
 10
2786.7031002418339085
 20
138.4987427924125996
 30
0.0
 11
2786.7023661808780162
 21
138.4991998872025079
 31
0.0
  0
LINE
  5
3752A
  8
0
 10
2786.7023661808780162
 20
138.4991998872025079
 30
0.0
 11
2786.6864762604641328
 21
138.5054633987136015
 31
0.0
  0
LINE
  5
3752B
  8
0
 10
2786.6842330005028998
 20
138.4985593618683879
 30
0.0
 11
2786.6845243824900535
 21
138.4994561425463075
 31
0.0
  0
LINE
  5
3752C
  8
0
 10
2786.6845243824900535
 20
138.4994561425463075
 30
0.0
 11
2786.7001269505281016
 21
138.492308252272494
 31
0.0
  0
LINE
  5
3752D
  8
0
 10
2786.7001269505281016
 20
138.492308252272494
 30
0.0
 11
2786.7008761154188505
 21
138.4918976425128108
 31
0.0
  0
LINE
  5
3752E
  8
0
 10
2786.7008761154188505
 20
138.4918976425128108
 30
0.0
 11
2786.7003102101389231
 21
138.4901559671183975
 31
0.0
  0
LINE
  5
3752F
  8
0
 10
2786.7003102101389231
 20
138.4901559671183975
 30
0.0
 11
2786.6995466269991084
 21
138.4905222018871029
 31
0.0
  0
LINE
  5
37530
  8
0
 10
2786.6995466269991084
 20
138.4905222018871029
 30
0.0
 11
2786.6842330004951691
 21
138.4985593618850999
 31
0.0
  0
LINE
  5
37531
  8
0
 10
2786.6684940072091194
 20
138.5310264359193013
 30
0.0
 11
2786.6803729663038212
 21
138.5216001280886928
 31
0.0
  0
LINE
  5
37532
  8
0
 10
2786.6803729663038212
 20
138.5216001280886928
 30
0.0
 11
2786.6964462769237798
 21
138.5159010328555098
 31
0.0
  0
LINE
  5
37533
  8
0
 10
2786.6964462769237798
 20
138.5159010328555098
 30
0.0
 11
2786.6982657595281125
 21
138.5215008187558965
 31
0.0
  0
LINE
  5
37534
  8
0
 10
2786.6982657595281125
 20
138.5215008187558965
 30
0.0
 11
2786.6870205002642251
 21
138.5304836862522109
 31
0.0
  0
LINE
  5
37535
  8
0
 10
2786.6516917982708037
 20
138.5315313039143064
 30
0.0
 11
2786.6537716436841947
 21
138.529818084670211
 31
0.0
  0
LINE
  5
37536
  8
0
 10
2786.6537716436841947
 20
138.529818084670211
 30
0.0
 11
2786.6694337676699433
 21
138.5228534894953896
 31
0.0
  0
LINE
  5
37537
  8
0
 10
2786.6694337676699433
 20
138.5228534894953896
 30
0.0
 11
2786.6709439573610325
 21
138.5275013707943117
 31
0.0
  0
LINE
  5
37538
  8
0
 10
2786.6709439573610325
 20
138.5275013707943117
 30
0.0
 11
2786.666613597495143
 21
138.5310823407795056
 31
0.0
  0
LINE
  5
37539
  8
0
 10
2786.6300997258040297
 20
138.5321977403025073
 30
0.0
 11
2786.6410322906008332
 21
138.5255311472809865
 31
0.0
  0
LINE
  5
3753A
  8
0
 10
2786.6410322906008332
 20
138.5255311472809865
 30
0.0
 11
2786.6416281729962066
 21
138.5273650828391112
 31
0.0
  0
LINE
  5
3753B
  8
0
 10
2786.6416281729962066
 20
138.5273650828391112
 30
0.0
 11
2786.6355376302958575
 21
138.5320280304287053
 31
0.0
  0
LINE
  5
3753C
  8
0
 10
2786.6365543734568746
 20
138.5319964388905873
 30
0.0
 11
2786.6365105040540584
 21
138.5318614228889942
 31
0.0
  0
LINE
  5
3753D
  8
0
 10
2786.6365105040540584
 20
138.5318614228889942
 30
0.0
 11
2786.6509842520367783
 21
138.5212393836951037
 31
0.0
  0
LINE
  5
3753E
  8
0
 10
2786.6509842520367783
 20
138.5212393836951037
 30
0.0
 11
2786.6663593135149313
 21
138.5133913027528081
 31
0.0
  0
LINE
  5
3753F
  8
0
 10
2786.6663593135149313
 20
138.5133913027528081
 30
0.0
 11
2786.6672480625770731
 21
138.5161265883008923
 31
0.0
  0
LINE
  5
37540
  8
0
 10
2786.6672480625770731
 20
138.5161265883008923
 30
0.0
 11
2786.6527748182570576
 21
138.5267501751945929
 31
0.0
  0
LINE
  5
37541
  8
0
 10
2786.6527748182570576
 20
138.5267501751945929
 30
0.0
 11
2786.6429408394528764
 21
138.531799009367802
 31
0.0
  0
LINE
  5
37542
  8
0
 10
2786.6633529766659194
 20
138.5243856476191979
 30
0.0
 11
2786.6621550879558527
 21
138.5206989293629931
 31
0.0
  0
LINE
  5
37543
  8
0
 10
2786.6621550879558527
 20
138.5206989293629931
 30
0.0
 11
2786.6767452113508625
 21
138.5104350582928134
 31
0.0
  0
LINE
  5
37544
  8
0
 10
2786.6767452113508625
 20
138.5104350582928134
 30
0.0
 11
2786.6925261544088244
 21
138.5038361492815113
 31
0.0
  0
LINE
  5
37545
  8
0
 10
2786.6925261544088244
 20
138.5038361492815113
 30
0.0
 11
2786.6937100681489028
 21
138.5074798571818917
 31
0.0
  0
LINE
  5
37546
  8
0
 10
2786.6937100681489028
 20
138.5074798571818917
 30
0.0
 11
2786.679126932033796
 21
138.5177652321389985
 31
0.0
  0
LINE
  5
37547
  8
0
 10
2786.679126932033796
 20
138.5177652321389985
 30
0.0
 11
2786.6633529766008905
 21
138.5243856476475059
 31
0.0
  0
LINE
  5
37548
  8
0
 10
2786.6909153600558966
 20
138.4988786394565921
 30
0.0
 11
2786.6903316391749286
 21
138.4970821331860122
 31
0.0
  0
LINE
  5
37549
  8
0
 10
2786.6903316391749286
 20
138.4970821331860122
 30
0.0
 11
2786.6748377187241204
 21
138.5045644059977974
 31
0.0
  0
LINE
  5
3754A
  8
0
 10
2786.6748377187241204
 20
138.5045644059977974
 30
0.0
 11
2786.6599351644349554
 21
138.5138667146657951
 31
0.0
  0
LINE
  5
3754B
  8
0
 10
2786.6599351644349554
 20
138.5138667146657951
 30
0.0
 11
2786.6605255818208207
 21
138.5156838306263865
 31
0.0
  0
LINE
  5
3754C
  8
0
 10
2786.6605255818208207
 20
138.5156838306263865
 30
0.0
 11
2786.6760118040369889
 21
138.5081778669859034
 31
0.0
  0
LINE
  5
3754D
  8
0
 10
2786.6760118040369889
 20
138.5081778669859034
 30
0.0
 11
2786.6909153600558966
 21
138.4988786394565921
 31
0.0
  0
LINE
  5
3754E
  8
0
 10
2786.6649884894500246
 20
138.5091723446840888
 30
0.0
 11
2786.6652819671207908
 21
138.5100755751286954
 31
0.0
  0
LINE
  5
3754F
  8
0
 10
2786.6652819671207908
 20
138.5100755751286954
 30
0.0
 11
2786.6504929966990858
 21
138.5197274579670079
 31
0.0
  0
LINE
  5
37550
  8
0
 10
2786.6504929966990858
 20
138.5197274579670079
 30
0.0
 11
2786.6354173410741168
 21
138.5284970165255913
 31
0.0
  0
LINE
  5
37551
  8
0
 10
2786.6354173410741168
 20
138.5284970165255913
 30
0.0
 11
2786.6351195885458765
 21
138.5275806296776864
 31
0.0
  0
LINE
  5
37552
  8
0
 10
2786.6351195885458765
 20
138.5275806296776864
 30
0.0
 11
2786.6393391647620774
 21
138.5246196750150887
 31
0.0
  0
LINE
  5
37553
  8
0
 10
2786.6649884894500246
 20
138.5091723446840888
 30
0.0
 11
2786.6602732615810964
 21
138.5116715254391124
 31
0.0
  0
LINE
  5
37554
  8
0
 10
2786.6803729663038212
 20
138.5216001280886928
 30
0.0
 11
2786.6835643327758589
 21
138.5305838292568126
 31
0.0
  0
LINE
  5
37555
  8
0
 10
2786.679126932033796
 20
138.5177652321389985
 30
0.0
 11
2786.6767452113508625
 21
138.5104350582928134
 31
0.0
  0
LINE
  5
37556
  8
0
 10
2786.7063284049231697
 20
138.5113943461124961
 30
0.0
 11
2786.7033440581858486
 21
138.5022094811288866
 31
0.0
  0
LINE
  5
37557
  8
0
 10
2786.7023661808780162
 20
138.4991998872025079
 30
0.0
 11
2786.7006091266080148
 21
138.4937922360805942
 31
0.0
  0
LINE
  5
37558
  8
0
 10
2786.7001269505281016
 20
138.492308252272494
 30
0.0
 11
2786.6995466269991084
 21
138.4905222018871029
 31
0.0
  0
LINE
  5
37559
  8
0
 10
2786.6748377187241204
 20
138.5045644059977974
 30
0.0
 11
2786.6760118040369889
 21
138.5081778669859034
 31
0.0
  0
LINE
  5
3755A
  8
0
 10
2786.6504929966990858
 20
138.5197274579670079
 30
0.0
 11
2786.6495269745801124
 21
138.5181672839738098
 31
0.0
  0
LINE
  5
3755B
  8
0
 10
2786.6509842520367783
 20
138.5212393836951037
 30
0.0
 11
2786.6527748182570576
 21
138.5267501751945929
 31
0.0
  0
LINE
  5
3755C
  8
0
 10
2786.6537716436841947
 20
138.529818084670211
 30
0.0
 11
2786.6543025575820138
 21
138.5314520680377086
 31
0.0
  0
LINE
  5
3755D
  8
0
 10
2786.8440490513180521
 20
138.4993641243806906
 30
0.0
 11
2786.826486643629778
 21
138.4453126493584989
 31
0.0
  0
ARC
  5
3755E
  8
0
 10
2786.9584402669061092
 20
139.0168451110936019
 30
0.0
 40
0.5865763332589066
 50
256.9994503415068721
 51
266.0418701129336227
  0
ARC
  5
3755F
  8
0
 10
2786.9617165667091285
 20
139.0849343030795069
 30
0.0
 40
0.654730835841503
 50
266.1671448296531821
 51
271.5456990452593118
  0
ARC
  5
37560
  8
0
 10
2786.9415178844051297
 20
139.2378129340484918
 30
0.0
 40
0.8082584040928708
 50
272.684769283377193
 51
275.7999795999884896
  0
ARC
  5
37561
  8
0
 10
2786.9541037082321964
 20
139.0736717589215914
 30
0.0
 40
0.6436984793543191
 50
276.1619020136590734
 51
277.6618098091620936
  0
LINE
  5
37562
  8
0
 10
2786.8700964272529745
 20
138.4776063164131017
 30
0.0
 11
2786.8709933510949668
 21
138.477650461548194
 31
0.0
  0
LINE
  5
37563
  8
0
 10
2786.8709933510949668
 20
138.477650461548194
 30
0.0
 11
2786.8869260954338642
 21
138.4715187484187027
 31
0.0
  0
LINE
  5
37564
  8
0
 10
2786.8869260954338642
 20
138.4715187484187027
 30
0.0
 11
2786.8847638368538355
 21
138.4648640079525137
 31
0.0
  0
LINE
  5
37565
  8
0
 10
2786.8847638368538355
 20
138.4648640079525137
 30
0.0
 11
2786.866688918320051
 21
138.4644027933734947
 31
0.0
  0
LINE
  5
37566
  8
0
 10
2786.866688918320051
 20
138.4644027933734947
 30
0.0
 11
2786.865890617005789
 21
138.4646621774730875
 31
0.0
  0
LINE
  5
37567
  8
0
 10
2786.865890617005789
 20
138.4646621774730875
 30
0.0
 11
2786.870096427219778
 21
138.4776063164113964
 31
0.0
  0
LINE
  5
37568
  8
0
 10
2786.8709933511340751
 20
138.4776504615500983
 30
0.0
 11
2786.8666889181690749
 21
138.4644027934280075
 31
0.0
  0
LINE
  5
37569
  8
0
 10
2786.8814291944318029
 20
138.45460104498909
 30
0.0
 11
2786.8799304199128528
 21
138.4499882960778905
 31
0.0
  0
LINE
  5
3756A
  8
0
 10
2786.8799304199128528
 20
138.4499882960778905
 30
0.0
 11
2786.8622019581871427
 21
138.4505933652633871
 31
0.0
  0
LINE
  5
3756B
  8
0
 10
2786.8622019581871427
 20
138.4505933652633871
 30
0.0
 11
2786.8614036570111239
 21
138.4508527493157999
 31
0.0
  0
LINE
  5
3756C
  8
0
 10
2786.8614036570111239
 20
138.4508527493157999
 30
0.0
 11
2786.8643074860660818
 21
138.4597898066598987
 31
0.0
  0
LINE
  5
3756D
  8
0
 10
2786.8643074860660818
 20
138.4597898066598987
 30
0.0
 11
2786.8651863049308304
 21
138.4597782302448081
 31
0.0
  0
LINE
  5
3756E
  8
0
 10
2786.8651863049308304
 20
138.4597782302448081
 30
0.0
 11
2786.8814291944318029
 21
138.45460104498909
 31
0.0
  0
LINE
  5
3756F
  8
0
 10
2786.877760893381037
 20
138.4433111873422035
 30
0.0
 11
2786.8768786098598866
 21
138.4405958006070989
 31
0.0
  0
LINE
  5
37570
  8
0
 10
2786.8768786098598866
 20
138.4405958006070989
 30
0.0
 11
2786.8594670265028981
 21
138.4421761202499113
 31
0.0
  0
LINE
  5
37571
  8
0
 10
2786.8594670265028981
 20
138.4421761202499113
 30
0.0
 11
2786.8586481480001567
 21
138.4423721738492077
 31
0.0
  0
LINE
  5
37572
  8
0
 10
2786.8586481480001567
 20
138.4423721738492077
 30
0.0
 11
2786.8603615393999462
 21
138.4476454446817968
 31
0.0
  0
LINE
  5
37573
  8
0
 10
2786.8603615393999462
 20
138.4476454446817968
 30
0.0
 11
2786.8612240807260605
 21
138.4475837713870021
 31
0.0
  0
LINE
  5
37574
  8
0
 10
2786.8612240807260605
 20
138.4475837713870021
 30
0.0
 11
2786.877760893381037
 21
138.4433111873422035
 31
0.0
  0
LINE
  5
37575
  8
0
 10
2786.8755176334211683
 20
138.4364071504965068
 30
0.0
 11
2786.8758090154651654
 21
138.4373039311556113
 31
0.0
  0
LINE
  5
37576
  8
0
 10
2786.8758090154651654
 20
138.4373039311556113
 30
0.0
 11
2786.8589848504138899
 21
138.4406921364445964
 31
0.0
  0
LINE
  5
37577
  8
0
 10
2786.8589848504138899
 20
138.4406921364445964
 30
0.0
 11
2786.8581374129921642
 21
138.4408002947793932
 31
0.0
  0
LINE
  5
37578
  8
0
 10
2786.8581374129921642
 20
138.4408002947793932
 30
0.0
 11
2786.8575715077718087
 21
138.4390586193655963
 31
0.0
  0
LINE
  5
37579
  8
0
 10
2786.8575715077718087
 20
138.4390586193655963
 30
0.0
 11
2786.858404526808954
 21
138.4389060860837901
 31
0.0
  0
LINE
  5
3757A
  8
0
 10
2786.858404526808954
 20
138.4389060860837901
 30
0.0
 11
2786.8755176334389034
 21
138.4364071505044933
 31
0.0
  0
LINE
  5
3757B
  8
0
 10
2786.8841118623349757
 20
138.483104327181195
 30
0.0
 11
2786.8815967688560704
 21
138.4753636737904117
 31
0.0
  0
LINE
  5
3757C
  8
0
 10
2786.8815967688560704
 20
138.4753636737904117
 30
0.0
 11
2786.8976430025668378
 21
138.4695812449450898
 31
0.0
  0
LINE
  5
3757D
  8
0
 10
2786.8976430025668378
 20
138.4695812449450898
 30
0.0
 11
2786.9161994197811509
 21
138.471524357798387
 31
0.0
  0
LINE
  5
3757E
  8
0
 10
2786.9161994197811509
 20
138.471524357798387
 30
0.0
 11
2786.917491568558944
 21
138.4755011783310863
 31
0.0
  0
LINE
  5
3757F
  8
0
 10
2786.8841118623349757
 20
138.483104327181195
 30
0.0
 11
2786.8918327713299732
 21
138.4838382358996967
 31
0.0
  0
LINE
  5
37580
  8
0
 10
2786.8976430026978051
 20
138.469581244901093
 30
0.0
 11
2786.9012782020090526
 21
138.4807692261317982
 31
0.0
  0
LINE
  5
37581
  8
0
 10
2786.9122015412158362
 20
138.4592201657054886
 30
0.0
 11
2786.910359493094802
 21
138.4535509309129964
 31
0.0
  0
LINE
  5
37582
  8
0
 10
2786.910359493094802
 20
138.4535509309129964
 30
0.0
 11
2786.8921834995921927
 21
138.4527786402526033
 31
0.0
  0
LINE
  5
37583
  8
0
 10
2786.8921834995921927
 20
138.4527786402526033
 30
0.0
 11
2786.8758300770628011
 21
138.4576156406012899
 31
0.0
  0
LINE
  5
37584
  8
0
 10
2786.8758300770628011
 20
138.4576156406012899
 30
0.0
 11
2786.8776495598131078
 21
138.4632154264542976
 31
0.0
  0
LINE
  5
37585
  8
0
 10
2786.8776495598131078
 20
138.4632154264542976
 30
0.0
 11
2786.8958449781289346
 21
138.4640475004644031
 31
0.0
  0
LINE
  5
37586
  8
0
 10
2786.8958449781289346
 20
138.4640475004644031
 30
0.0
 11
2786.9122015412099245
 21
138.4592201657808914
 31
0.0
  0
LINE
  5
37587
  8
0
 10
2786.9383546155659133
 20
138.4496226433504944
 30
0.0
 11
2786.9368210957609335
 21
138.4449029598254128
 31
0.0
  0
LINE
  5
37588
  8
0
 10
2786.9368210957609335
 20
138.4449029598254128
 30
0.0
 11
2786.9185348096830239
 21
138.443791225050802
 31
0.0
  0
LINE
  5
37589
  8
0
 10
2786.9185348096830239
 20
138.443791225050802
 30
0.0
 11
2786.9017702011278743
 21
138.447362725260092
 31
0.0
  0
LINE
  5
3758A
  8
0
 10
2786.9017702011278743
 20
138.447362725260092
 30
0.0
 11
2786.9032803910149596
 21
138.4520106064954916
 31
0.0
  0
LINE
  5
3758B
  8
0
 10
2786.9032803910149596
 20
138.4520106064954916
 30
0.0
 11
2786.9215783406930314
 21
138.4531582393998121
 31
0.0
  0
LINE
  5
3758C
  8
0
 10
2786.9215783406930314
 20
138.4531582393998121
 30
0.0
 11
2786.9383546156109333
 21
138.4496226433541892
 31
0.0
  0
LINE
  5
3758D
  8
0
 10
2786.9325675861241507
 20
138.4520589058207065
 30
0.0
 11
2786.9344280963041456
 21
138.4577849609779037
 31
0.0
  0
LINE
  5
3758E
  8
0
 10
2786.9344280963041456
 20
138.4577849609779037
 30
0.0
 11
2786.9532168132582228
 21
138.4604430184849093
 31
0.0
  0
LINE
  5
3758F
  8
0
 10
2786.9532168132582228
 20
138.4604430184849093
 30
0.0
 11
2786.9701270892769571
 21
138.457319835393605
 31
0.0
  0
LINE
  5
37590
  8
0
 10
2786.9701270892769571
 20
138.457319835393605
 30
0.0
 11
2786.9682300004860735
 21
138.4514812024551986
 31
0.0
  0
LINE
  5
37591
  8
0
 10
2786.9682300004860735
 20
138.4514812024551986
 30
0.0
 11
2786.9494595704150015
 21
138.4488794261555995
 31
0.0
  0
LINE
  5
37592
  8
0
 10
2786.9494595704150015
 20
138.4488794261555995
 30
0.0
 11
2786.9325675861241507
 21
138.4520589058207065
 31
0.0
  0
LINE
  5
37593
  8
0
 10
2786.9439678851590543
 20
138.4668984923312962
 30
0.0
 11
2786.9417688339058259
 21
138.4601305156076876
 31
0.0
  0
LINE
  5
37594
  8
0
 10
2786.9417688339058259
 20
138.4601305156076876
 30
0.0
 11
2786.9231115525631139
 21
138.4578769750739866
 31
0.0
  0
LINE
  5
37595
  8
0
 10
2786.9231115525631139
 20
138.4578769750739866
 30
0.0
 11
2786.9068981860677923
 21
138.4631450229825873
 31
0.0
  0
LINE
  5
37596
  8
0
 10
2786.9068981860677923
 20
138.4631450229825873
 30
0.0
 11
2786.90882091910089
 21
138.4690625803121122
 31
0.0
  0
LINE
  5
37597
  8
0
 10
2786.90882091910089
 20
138.4690625803121122
 30
0.0
 11
2786.927506765041926
 21
138.4714040338218126
 31
0.0
  0
LINE
  5
37598
  8
0
 10
2786.927506765041926
 20
138.4714040338218126
 30
0.0
 11
2786.9435031885718672
 21
138.4670494815678126
 31
0.0
  0
LINE
  5
37599
  8
0
 10
2786.9969205185188912
 20
138.4496931202797043
 30
0.0
 11
2786.9955826747941501
 21
138.4455756651805984
 31
0.0
  0
LINE
  5
3759A
  8
0
 10
2786.9955826747941501
 20
138.4455756651805984
 30
0.0
 11
2786.9774658599640134
 21
138.4426907913093885
 31
0.0
  0
LINE
  5
3759B
  8
0
 10
2786.9774658599640134
 20
138.4426907913093885
 30
0.0
 11
2786.9593674568691313
 21
138.4444520157908016
 31
0.0
  0
LINE
  5
3759C
  8
0
 10
2786.9593674568691313
 20
138.4444520157908016
 30
0.0
 11
2786.9609194388399374
 21
138.4492285199384867
 31
0.0
  0
LINE
  5
3759D
  8
0
 10
2786.9609194388399374
 20
138.4492285199384867
 30
0.0
 11
2786.9798243481109239
 21
138.4522441799774981
 31
0.0
  0
LINE
  5
3759E
  8
0
 10
2786.9798243481109239
 20
138.4522441799774981
 30
0.0
 11
2786.9939181097511209
 21
138.4506686630741115
 31
0.0
  0
LINE
  5
3759F
  8
0
 10
2786.9932871360219906
 20
138.4385107310378942
 30
0.0
 11
2786.9923545602669037
 21
138.435640561062911
 31
0.0
  0
LINE
  5
375A0
  8
0
 10
2786.9923545602669037
 20
138.435640561062911
 30
0.0
 11
2786.9738129748711799
 21
138.4337430953540036
 31
0.0
  0
LINE
  5
375A1
  8
0
 10
2786.9738129748711799
 20
138.4337430953540036
 30
0.0
 11
2786.9562102141298965
 21
138.43473503223629
 31
0.0
  0
LINE
  5
375A2
  8
0
 10
2786.9562102141298965
 20
138.43473503223629
 30
0.0
 11
2786.9571225864610824
 21
138.4375430225645118
 31
0.0
  0
LINE
  5
375A3
  8
0
 10
2786.9571225864610824
 20
138.4375430225645118
 30
0.0
 11
2786.9756576114468771
 21
138.43942029697061
 31
0.0
  0
LINE
  5
375A4
  8
0
 10
2786.9756576114468771
 20
138.43942029697061
 30
0.0
 11
2786.9932871360379067
 21
138.4385107309699094
 31
0.0
  0
LINE
  5
375A5
  8
0
 10
2786.9653802916877794
 20
138.4427107102480079
 30
0.0
 11
2786.9641484205640154
 21
138.4389194049589946
 31
0.0
  0
LINE
  5
375A6
  8
0
 10
2786.9641484205640154
 20
138.4389194049589946
 30
0.0
 11
2786.9457409888891561
 21
138.437434823041599
 31
0.0
  0
LINE
  5
375A7
  8
0
 10
2786.9457409888891561
 20
138.437434823041599
 30
0.0
 11
2786.9285620226751234
 21
138.4397310622912016
 31
0.0
  0
LINE
  5
375A8
  8
0
 10
2786.9285620226751234
 20
138.4397310622912016
 30
0.0
 11
2786.9297713265591483
 21
138.4434529130429894
 31
0.0
  0
LINE
  5
375A9
  8
0
 10
2786.9297713265591483
 20
138.4434529130429894
 30
0.0
 11
2786.948181897610084
 21
138.44494715869331
 31
0.0
  0
LINE
  5
375AA
  8
0
 10
2786.948181897610084
 20
138.44494715869331
 30
0.0
 11
2786.9653802916877794
 21
138.4427107102480079
 31
0.0
  0
LINE
  5
375AB
  8
0
 10
2786.9624734575218099
 20
138.4337644040278974
 30
0.0
 11
2786.9618667842460127
 21
138.4318972577094939
 31
0.0
  0
LINE
  5
375AC
  8
0
 10
2786.9618667842460127
 20
138.4318972577094939
 30
0.0
 11
2786.9437872721919121
 21
138.4314219062096925
 31
0.0
  0
LINE
  5
375AD
  8
0
 10
2786.9437872721919121
 20
138.4314219062096925
 30
0.0
 11
2786.9263213573440225
 21
138.4328350110756105
 31
0.0
  0
LINE
  5
375AE
  8
0
 10
2786.9263213573440225
 20
138.4328350110756105
 30
0.0
 11
2786.9269172397907823
 21
138.4346689466169948
 31
0.0
  0
LINE
  5
375AF
  8
0
 10
2786.9269172397907823
 20
138.4346689466169948
 30
0.0
 11
2786.944989687970974
 21
138.4351225577709954
 31
0.0
  0
LINE
  5
375B0
  8
0
 10
2786.944989687970974
 20
138.4351225577709954
 30
0.0
 11
2786.9624734574858849
 21
138.4337644040300859
 31
0.0
  0
LINE
  5
375B1
  8
0
 10
2786.9346023495450027
 20
138.4380743682648074
 30
0.0
 11
2786.9337004037029146
 21
138.4352984675248024
 31
0.0
  0
LINE
  5
375B2
  8
0
 10
2786.9337004037029146
 20
138.4352984675248024
 30
0.0
 11
2786.91574741757222
 21
138.4352125242263867
 31
0.0
  0
LINE
  5
375B3
  8
0
 10
2786.91574741757222
 20
138.4352125242263867
 30
0.0
 11
2786.8986957470028756
 21
138.4379005385077903
 31
0.0
  0
LINE
  5
375B4
  8
0
 10
2786.8986957470028756
 20
138.4379005385077903
 30
0.0
 11
2786.8995844961391413
 21
138.4406358240320003
 31
0.0
  0
LINE
  5
375B5
  8
0
 10
2786.8995844961391413
 20
138.4406358240320003
 30
0.0
 11
2786.9175379845150928
 21
138.4407233154911978
 31
0.0
  0
LINE
  5
375B6
  8
0
 10
2786.9175379845150928
 20
138.4407233154911978
 30
0.0
 11
2786.9346023495450027
 21
138.4380743682648074
 31
0.0
  0
LINE
  5
375B7
  8
0
 10
2786.9075902428689915
 20
138.445028064277011
 30
0.0
 11
2786.9063923542480552
 21
138.441341345992214
 31
0.0
  0
LINE
  5
375B8
  8
0
 10
2786.9063923542480552
 20
138.441341345992214
 30
0.0
 11
2786.888555744596033
 21
138.4416135704703947
 31
0.0
  0
LINE
  5
375B9
  8
0
 10
2786.888555744596033
 20
138.4416135704703947
 30
0.0
 11
2786.8719099545578501
 21
138.4455507570237955
 31
0.0
  0
LINE
  5
375BA
  8
0
 10
2786.8719099545578501
 20
138.4455507570237955
 30
0.0
 11
2786.8730938682870146
 21
138.4491944649278992
 31
0.0
  0
LINE
  5
375BB
  8
0
 10
2786.8730938682870146
 20
138.4491944649278992
 30
0.0
 11
2786.8909374647919321
 21
138.4489437444750877
 31
0.0
  0
LINE
  5
375BC
  8
0
 10
2786.8909374647919321
 20
138.4489437444750877
 30
0.0
 11
2786.9075902429372036
 21
138.4450280642624023
 31
0.0
  0
LINE
  5
375BD
  8
0
 10
2786.870299160275863
 20
138.4405932471759968
 30
0.0
 11
2786.8697154393657911
 21
138.4387967409149098
 31
0.0
  0
LINE
  5
375BE
  8
0
 10
2786.8697154393657911
 20
138.4387967409149098
 30
0.0
 11
2786.8866482520079444
 21
138.4357429181631005
 31
0.0
  0
LINE
  5
375BF
  8
0
 10
2786.8866482520079444
 20
138.4357429181631005
 30
0.0
 11
2786.9041724307571712
 21
138.4345091312854095
 31
0.0
  0
LINE
  5
375C0
  8
0
 10
2786.9041724307571712
 20
138.4345091312854095
 30
0.0
 11
2786.9047628481671381
 21
138.4363262472382132
 31
0.0
  0
LINE
  5
375C1
  8
0
 10
2786.9047628481671381
 20
138.4363262472382132
 30
0.0
 11
2786.8878223383931072
 21
138.4393563788025006
 31
0.0
  0
LINE
  5
375C2
  8
0
 10
2786.8878223383931072
 20
138.4393563788025006
 30
0.0
 11
2786.870299160275863
 21
138.4405932471759968
 31
0.0
  0
LINE
  5
375C3
  8
0
 10
2786.8973249229761677
 20
138.4336815804267928
 30
0.0
 11
2786.8976184006569383
 21
138.4345848108681878
 31
0.0
  0
LINE
  5
375C4
  8
0
 10
2786.8976184006569383
 20
138.4345848108681878
 30
0.0
 11
2786.9152561628898184
 21
138.4337005982850997
 31
0.0
  0
LINE
  5
375C5
  8
0
 10
2786.9152561628898184
 20
138.4337005982850997
 30
0.0
 11
2786.9326072405688137
 21
138.431934061211507
 31
0.0
  0
LINE
  5
375C6
  8
0
 10
2786.9326072405688137
 20
138.431934061211507
 30
0.0
 11
2786.9323094881710858
 21
138.4310176743213106
 31
0.0
  0
LINE
  5
375C7
  8
0
 10
2786.9323094881710858
 20
138.4310176743213106
 30
0.0
 11
2786.9275394030541975
 21
138.4310961052918003
 31
0.0
  0
LINE
  5
375C8
  8
0
 10
2786.8973249229761677
 20
138.4336815804267928
 30
0.0
 11
2786.902608603572844
 21
138.4329319153966935
 31
0.0
  0
LINE
  5
375C9
  8
0
 10
2787.0064187812949967
 20
138.4466069443045058
 30
0.0
 11
2786.9882951855911415
 21
138.4433939922124068
 31
0.0
  0
LINE
  5
375CA
  8
0
 10
2786.9882951855911415
 20
138.4433939922124068
 30
0.0
 11
2786.987045813372788
 21
138.4395488241424914
 31
0.0
  0
LINE
  5
375CB
  8
0
 10
2786.987045813372788
 20
138.4395488241424914
 30
0.0
 11
2787.0047998090749388
 21
138.439022340148
 31
0.0
  0
LINE
  5
375CC
  8
0
 10
2787.0047998090749388
 20
138.439022340148
 30
0.0
 11
2787.0211145213170312
 21
138.4418320037848957
 31
0.0
  0
LINE
  5
375CD
  8
0
 10
2787.0325716672241469
 20
138.4381093474133877
 30
0.0
 11
2787.0156217308817759
 21
138.4374080380356133
 31
0.0
  0
LINE
  5
375CE
  8
0
 10
2787.0156217308817759
 20
138.4374080380356133
 30
0.0
 11
2787.0165697883680878
 21
138.4403258560276981
 31
0.0
  0
LINE
  5
375CF
  8
0
 10
2787.0165697883680878
 20
138.4403258560276981
 30
0.0
 11
2787.0224257816339559
 21
138.4414059490229931
 31
0.0
  0
LINE
  5
375D0
  8
0
 10
2787.0220979909659036
 20
138.4370930072902866
 30
0.0
 11
2787.0214669574820618
 21
138.4351508881144071
 31
0.0
  0
LINE
  5
375D1
  8
0
 10
2787.0214669574820618
 20
138.4351508881144071
 30
0.0
 11
2787.0027753393401326
 21
138.4327916719039138
 31
0.0
  0
LINE
  5
375D2
  8
0
 10
2787.0027753393401326
 20
138.4327916719039138
 30
0.0
 11
2786.9847324347961148
 21
138.4324289843941926
 31
0.0
  0
LINE
  5
375D3
  8
0
 10
2786.9847324347961148
 20
138.4324289843941926
 30
0.0
 11
2786.9858838743748493
 21
138.4339027588866031
 31
0.0
  0
LINE
  5
375D4
  8
0
 10
2786.9858838743748493
 20
138.4339027588866031
 30
0.0
 11
2787.0040211010350504
 21
138.436625726380214
 31
0.0
  0
LINE
  5
375D5
  8
0
 10
2787.0040211010350504
 20
138.436625726380214
 30
0.0
 11
2787.022097990941802
 21
138.4370930072142869
 31
0.0
  0
LINE
  5
375D6
  8
0
 10
2787.0166067696450227
 20
138.4330500453040997
 30
0.0
 11
2787.0141607033478977
 21
138.4329114625388115
 31
0.0
  0
LINE
  5
375D7
  8
0
 10
2787.0141607033478977
 20
138.4329114625388115
 30
0.0
 11
2787.0144733641168386
 21
138.4338737322603095
 31
0.0
  0
LINE
  5
375D8
  8
0
 10
2787.0144733641168386
 20
138.4338737322603095
 30
0.0
 11
2787.0358715338129514
 21
138.4370371546100955
 31
0.0
  0
LINE
  5
375D9
  8
0
 10
2786.9909170564551459
 20
138.4312163839584002
 30
0.0
 11
2786.99122471687906
 21
138.4321632641866984
 31
0.0
  0
LINE
  5
375DA
  8
0
 10
2786.99122471687906
 20
138.4321632641866984
 30
0.0
 11
2786.9733070855540973
 21
138.4321861297970884
 31
0.0
  0
LINE
  5
375DB
  8
0
 10
2786.9733070855540973
 20
138.4321861297970884
 30
0.0
 11
2786.9551045600887846
 21
138.4313321826869014
 31
0.0
  0
LINE
  5
375DC
  8
0
 10
2786.9551045600887846
 20
138.4313321826869014
 30
0.0
 11
2786.9548034327722235
 21
138.4304054090573004
 31
0.0
  0
LINE
  5
375DD
  8
0
 10
2786.9548034327722235
 20
138.4304054090573004
 30
0.0
 11
2786.9576010967621187
 21
138.4302164017595089
 31
0.0
  0
LINE
  5
375DE
  8
0
 10
2786.9909170564551459
 20
138.4312163839584002
 30
0.0
 11
2786.9879555551710837
 21
138.4308896474092876
 31
0.0
  0
LINE
  5
375DF
  8
0
 10
2786.874003584185175
 20
138.4896312962017078
 30
0.0
 11
2786.872295947891871
 21
138.484375737643802
 31
0.0
  0
LINE
  5
375E0
  8
0
 10
2786.872295947891871
 20
138.484375737643802
 30
0.0
 11
2786.8730699398379329
 21
138.4840415377830993
 31
0.0
  0
LINE
  5
375E1
  8
0
 10
2786.8730699398379329
 20
138.4840415377830993
 30
0.0
 11
2786.887642949318888
 21
138.4851995930590078
 31
0.0
  0
LINE
  5
375E2
  8
0
 10
2786.8730699398479373
 20
138.4840415377782961
 30
0.0
 11
2786.8748018853680151
 21
138.4893719121448044
 31
0.0
  0
LINE
  5
375E3
  8
0
 10
2786.8921834995921927
 20
138.4527786402526033
 30
0.0
 11
2786.8955361898520096
 21
138.4641386335680977
 31
0.0
  0
LINE
  5
375E4
  8
0
 10
2786.8909374647919321
 20
138.4489437444750877
 30
0.0
 11
2786.888555744596033
 21
138.4416135704703947
 31
0.0
  0
LINE
  5
375E5
  8
0
 10
2786.8651863049308304
 20
138.4597782302448081
 30
0.0
 11
2786.8622019581871427
 21
138.4505933652633871
 31
0.0
  0
LINE
  5
375E6
  8
0
 10
2786.8612240807260605
 20
138.4475837713870021
 30
0.0
 11
2786.8594670265028981
 21
138.4421761202499113
 31
0.0
  0
LINE
  5
375E7
  8
0
 10
2786.8589848504138899
 20
138.4406921364445964
 30
0.0
 11
2786.858404526808954
 21
138.4389060860837901
 31
0.0
  0
LINE
  5
375E8
  8
0
 10
2786.8866482520079444
 20
138.4357429181631005
 30
0.0
 11
2786.8878223383931072
 21
138.4393563788025006
 31
0.0
  0
LINE
  5
375E9
  8
0
 10
2786.9152561628898184
 20
138.4337005982850997
 30
0.0
 11
2786.9151206427841316
 21
138.4318705775407068
 31
0.0
  0
LINE
  5
375EA
  8
0
 10
2786.91574741757222
 20
138.4352125242263867
 30
0.0
 11
2786.9175379845150928
 21
138.4407233154911978
 31
0.0
  0
LINE
  5
375EB
  8
0
 10
2786.9185348096830239
 20
138.443791225050802
 30
0.0
 11
2786.9215783406930314
 21
138.4531582393998121
 31
0.0
  0
LINE
  5
375EC
  8
0
 10
2786.9231115525631139
 20
138.4578769750739866
 30
0.0
 11
2786.926843075440047
 21
138.4715847036474941
 31
0.0
  0
LINE
  5
375ED
  8
0
 10
2786.9494595704150015
 20
138.4488794261555995
 30
0.0
 11
2786.9532168132582228
 21
138.4604430184849093
 31
0.0
  0
LINE
  5
375EE
  8
0
 10
2786.948181897610084
 20
138.44494715869331
 30
0.0
 11
2786.9457409888891561
 21
138.437434823041599
 31
0.0
  0
LINE
  5
375EF
  8
0
 10
2786.944989687970974
 20
138.4351225577709954
 30
0.0
 11
2786.9437872721919121
 21
138.4314219062096925
 31
0.0
  0
LINE
  5
375F0
  8
0
 10
2786.9798243481109239
 20
138.4522441799774981
 30
0.0
 11
2786.9774658599640134
 21
138.4426907913093885
 31
0.0
  0
LINE
  5
375F1
  8
0
 10
2786.9756576114468771
 20
138.43942029697061
 30
0.0
 11
2786.9738129748711799
 21
138.4337430953540036
 31
0.0
  0
LINE
  5
375F2
  8
0
 10
2786.9733070855540973
 20
138.4321861297970884
 30
0.0
 11
2786.9733518368848308
 21
138.4303068610257981
 31
0.0
  0
LINE
  5
375F3
  8
0
 10
2787.0027753393401326
 20
138.4327916719039138
 30
0.0
 11
2787.0049729685852071
 21
138.4366503317999104
 31
0.0
  0
LINE
  5
375F4
  8
0
 10
2787.0047998090749388
 20
138.439022340148
 30
0.0
 11
2787.0071834686391412
 21
138.4463584820578035
 31
0.0
  0
LINE
  5
375F5
  8
0
 10
2787.1136357348918864
 20
138.4117701664881963
 30
0.0
 11
2787.1239101351698082
 21
138.4170050759458093
 31
0.0
  0
ARC
  5
375F6
  8
0
 10
2787.1060572884971407
 20
138.4520663123417137
 30
0.0
 40
0.0393448145496929
 50
296.9847598306095051
 51
342.0152400767925087
  0
LINE
  5
375F7
  8
0
 10
2787.1434796633911901
 20
138.4399180495348958
 30
0.0
 11
2787.1529918270630333
 21
138.4692199967076078
 31
0.0
  0
ENDSEC
  0
EOF
