  0
SECTION
  2
HEADER
  9
$ACADVER
  1
AC1009
  9
$INSBASE
 10
7365.9311858126529842
 20
2027.8682794876760909
 30
0.0
  9
$EXTMIN
 10
7339.8229700003403195
 20
1999.8341617271219093
 30
-0.0000000349181948
  9
$EXTMAX
 10
7392.1624937528949886
 20
2027.9552561508219242
 30
0.0000000814935746
  9
$LIMMIN
 10
0.0
 20
0.0
  9
$LIMMAX
 10
11.6929133858000007
 20
8.2677165353999982
  9
$ORTHOMODE
 70
     0
  9
$REGENMODE
 70
     1
  9
$FILLMODE
 70
     1
  9
$QTEXTMODE
 70
     0
  9
$MIRRTEXT
 70
     0
  9
$DRAGMODE
 70
     2
  9
$LTSCALE
 40
0.6431102362
  9
$OSMODE
 70
  4095
  9
$ATTMODE
 70
     1
  9
$TEXTSIZE
 40
0.2
  9
$TRACEWID
 40
0.05
  9
$TEXTSTYLE
  7
STANDARD
  9
$CLAYER
  8
0
  9
$CELTYPE
  6
BYLAYER
  9
$CECOLOR
 62
     1
  9
$DIMSCALE
 40
1.0
  9
$DIMASZ
 40
0.1875
  9
$DIMEXO
 40
0.0625
  9
$DIMDLI
 40
0.4443307087
  9
$DIMRND
 40
0.0
  9
$DIMDLE
 40
0.0
  9
$DIMEXE
 40
0.125
  9
$DIMTP
 40
0.01
  9
$DIMTM
 40
0.01
  9
$DIMTXT
 40
2.0
  9
$DIMCEN
 40
0.1052362205
  9
$DIMTSZ
 40
0.0
  9
$DIMTOL
 70
     1
  9
$DIMLIM
 70
     0
  9
$DIMTIH
 70
     1
  9
$DIMTOH
 70
     1
  9
$DIMSE1
 70
     0
  9
$DIMSE2
 70
     0
  9
$DIMTAD
 70
     0
  9
$DIMZIN
 70
     0
  9
$DIMBLK
  1

  9
$DIMASO
 70
     1
  9
$DIMSHO
 70
     1
  9
$DIMPOST
  1
\X
  9
$DIMAPOST
  1

  9
$DIMALT
 70
     1
  9
$DIMALTD
 70
     2
  9
$DIMALTF
 40
25.3999999999999986
  9
$DIMLFAC
 40
1.0
  9
$DIMTOFL
 70
     0
  9
$DIMTVP
 40
0.0
  9
$DIMTIX
 70
     0
  9
$DIMSOXD
 70
     0
  9
$DIMSAH
 70
     0
  9
$DIMBLK1
  1

  9
$DIMBLK2
  1

  9
$DIMSTYLE
  2
STANDARD
  9
$DIMCLRD
 70
     0
  9
$DIMCLRE
 70
     0
  9
$DIMCLRT
 70
     0
  9
$DIMTFAC
 40
1.0
  9
$DIMGAP
 40
0.09
  9
$LUNITS
 70
     2
  9
$LUPREC
 70
     4
  9
$SKETCHINC
 40
0.1
  9
$FILLETRAD
 40
0.0
  9
$AUNITS
 70
     0
  9
$AUPREC
 70
     0
  9
$MENU
  1
.
  9
$ELEVATION
 40
0.0
  9
$PELEVATION
 40
0.0
  9
$THICKNESS
 40
0.0
  9
$LIMCHECK
 70
     0
  9
$BLIPMODE
 70
     0
  9
$CHAMFERA
 40
0.0
  9
$CHAMFERB
 40
0.0
  9
$SKPOLY
 70
     0
  9
$TDCREATE
 40
2458060.468368056230247
  9
$TDUPDATE
 40
2460055.4185763890855014
  9
$TDINDWG
 40
0.3353774306
  9
$TDUSRTIMER
 40
0.3353774306
  9
$USRTIMER
 70
     1
  9
$ANGBASE
 50
0.0
  9
$ANGDIR
 70
     0
  9
$PDMODE
 70
     0
  9
$PDSIZE
 40
0.3125
  9
$PLINEWID
 40
0.0
  9
$COORDS
 70
     1
  9
$SPLFRAME
 70
     0
  9
$SPLINETYPE
 70
     6
  9
$SPLINESEGS
 70
     8
  9
$ATTDIA
 70
     1
  9
$ATTREQ
 70
     1
  9
$HANDLING
 70
     1
  9
$HANDSEED
  5
C940
  9
$SURFTAB1
 70
     6
  9
$SURFTAB2
 70
     6
  9
$SURFTYPE
 70
     6
  9
$SURFU
 70
     6
  9
$SURFV
 70
     6
  9
$UCSNAME
  2

  9
$UCSORG
 10
0.0
 20
0.0
 30
0.0
  9
$UCSXDIR
 10
1.0
 20
0.0
 30
0.0
  9
$UCSYDIR
 10
0.0
 20
1.0
 30
0.0
  9
$PUCSNAME
  2

  9
$PUCSORG
 10
0.0
 20
0.0
 30
0.0
  9
$PUCSXDIR
 10
1.0
 20
0.0
 30
0.0
  9
$PUCSYDIR
 10
0.0
 20
1.0
 30
0.0
  9
$USERI1
 70
     0
  9
$USERI2
 70
     0
  9
$USERI3
 70
     0
  9
$USERI4
 70
     0
  9
$USERI5
 70
     0
  9
$USERR1
 40
0.0
  9
$USERR2
 40
0.0
  9
$USERR3
 40
0.0
  9
$USERR4
 40
0.0
  9
$USERR5
 40
0.0
  9
$WORLDVIEW
 70
     1
  9
$SHADEDGE
 70
     3
  9
$SHADEDIF
 70
    70
  9
$TILEMODE
 70
     1
  9
$MAXACTVP
 70
    64
  9
$PLIMCHECK
 70
     0
  9
$PEXTMIN
 10
1.0000000000000000E+20
 20
1.0000000000000000E+20
 30
1.0000000000000000E+20
  9
$PEXTMAX
 10
-1.0000000000000000E+20
 20
-1.0000000000000000E+20
 30
-1.0000000000000000E+20
  9
$PLIMMIN
 10
0.0
 20
0.0
  9
$PLIMMAX
 10
12.0
 20
9.0
  9
$UNITMODE
 70
     0
  9
$VISRETAIN
 70
     1
  9
$PLINEGEN
 70
     0
  9
$PSLTSCALE
 70
     1
  0
ENDSEC
  0
SECTION
  2
TABLES
  0
TABLE
  2
VPORT
 70
     1
  0
VPORT
  2
*ACTIVE
 70
     0
 10
0.0
 20
0.0
 11
1.0
 21
1.0
 12
3874.0761059000537898
 22
1836.9427436069408941
 13
0.0
 23
0.0
 14
1.0
 24
1.0
 15
0.0
 25
0.0
 16
0.0
 26
0.0
 36
199.3126279314143119
 17
3491.9166259765629547
 27
176.9519653320311932
 37
0.0
 40
28.34398288676676
 41
2.5251322751322749
 42
50.0
 43
0.0
 44
0.0
 50
0.0
 51
0.0
 71
     0
 72
   100
 73
     1
 74
     1
 75
     0
 76
     0
 77
     0
 78
     0
  0
ENDTAB
  0
TABLE
  2
LTYPE
 70
     2
  0
LTYPE
  2
CONTINUOUS
 70
     0
  3
Solid line
 72
    65
 73
     0
 40
0.0
  0
LTYPE
  2
PHANTOM2
 70
     0
  3
___ _ _ ___ _ _ ___ _ _ ___ _ _
 72
    65
 73
     6
 40
1.25
 49
0.625
 49
-0.125
 49
0.125
 49
-0.125
 49
0.125
 49
-0.125
  0
ENDTAB
  0
TABLE
  2
LAYER
 70
     2
  0
LAYER
  2
0
 70
     0
 62
   255
  6
CONTINUOUS
  0
LAYER
  2
DEFPOINTS
 70
     0
 62
     7
  6
CONTINUOUS
  0
ENDTAB
  0
TABLE
  2
STYLE
 70
     1
  0
STYLE
  2
STANDARD
 70
     0
 40
0.0
 41
0.8
 50
0.0
 71
     0
 42
0.2
  3
txt
  4

  0
ENDTAB
  0
TABLE
  2
VIEW
 70
     0
  0
ENDTAB
  0
TABLE
  2
UCS
 70
     0
  0
ENDTAB
  0
TABLE
  2
APPID
 70
     9
  0
APPID
  2
ACAD
 70
     0
  0
APPID
  2
ACAD_MLEADERVER
 70
     0
  0
APPID
  2
ACAD_EXEMPT_FROM_CAD_STANDARDS
 70
     0
  0
APPID
  2
ACAD_NAV_VCDISPLAY
 70
     0
  0
APPID
  2
ACAECLAYERSTANDARD
 70
     0
  0
APPID
  2
ACCMTRANSPARENCY
 70
     0
  0
APPID
  2
ACAD_DSTYLE_DIMJAG
 70
     0
  0
APPID
  2
ACAD_DSTYLE_DIMTALN
 70
     0
  0
APPID
  2
ACDBATTR
 70
     0
  0
ENDTAB
  0
TABLE
  2
DIMSTYLE
 70
     1
  0
DIMSTYLE
  2
STANDARD
 70
     0
  3

  4

  5

  6

  7

 40
1.0
 41
0.1875
 42
0.0625
 43
0.38
 44
0.125
 45
0.0
 46
0.0
 47
0.01
 48
0.01
140
0.15625
141
0.09
142
0.0
143
25.3999999999999986
144
1.0
145
0.0
146
1.0
147
0.09
 71
     1
 72
     0
 73
     1
 74
     1
 75
     0
 76
     0
 77
     0
 78
     4
170
     0
171
     2
172
     0
173
     0
174
     0
175
     0
176
     0
177
     0
178
     0
  0
ENDTAB
  0
ENDSEC
  0
SECTION
  2
BLOCKS
  0
BLOCK
  8
0
  2
$MODEL_SPACE
 70
     0
 10
0.0
 20
0.0
 30
0.0
  3
$MODEL_SPACE
  1

  0
ENDBLK
  5
21
  8
0
  0
BLOCK
 67
     1
  8
0
  2
$PAPER_SPACE
 70
     0
 10
0.0
 20
0.0
 30
0.0
  3
$PAPER_SPACE
  1

  0
ENDBLK
  5
1D
 67
     1
  8
0
  0
BLOCK
  8
0
  2
_FILLED
 70
     0
 10
0.0
 20
0.0
 30
0.0
  3
_FILLED
  1

  0
SOLID
  5
BF38
  8
0
  6
BYBLOCK
 62
     0
 10
0.0
 20
0.0
 30
0.0
 11
-1.0
 21
0.1666666667
 31
0.0
 12
-1.0
 22
-0.1666666667
 32
0.0
 13
-1.0
 23
-0.1666666667
 33
0.0
  0
ENDBLK
  5
BF39
  8
0
  6
BYBLOCK
 62
     0
  0
ENDSEC
  0
SECTION
  2
ENTITIES
  0
CIRCLE
  5
C3D9
  8
0
 10
7349.9311858107812441
 20
2013.8682794876669959
 30
0.0
 40
1.125
  0
CIRCLE
  5
C3DA
  8
0
 10
7349.9311858107812441
 20
2013.8682794876669959
 30
0.0
 40
2.129472540000001
  0
LINE
  5
C3DB
  8
0
 10
7391.9311858107821536
 20
2000.1182794876669959
 30
0.0
 11
7391.9311858107821536
 21
2027.8682794876669959
 31
0.0
  0
LINE
  5
C3DC
  8
0
 10
7391.6811858107821536
 20
1999.8682794876669959
 30
0.0
 11
7339.9311858107821536
 21
1999.8682794876669959
 31
0.0
  0
LINE
  5
C3DD
  8
0
 10
7339.9311858107821536
 20
1999.8682794876669959
 30
0.0
 11
7339.9311858107821536
 21
2027.6182794876669959
 31
0.0
  0
LINE
  5
C3DE
  8
0
 10
7391.9311858107821536
 20
2027.8682794876669959
 30
0.0
 11
7340.1811858107821536
 21
2027.8682794876669959
 31
0.0
  0
ARC
  5
C3DF
  8
0
 10
7391.6811858107821536
 20
2000.1182794876669959
 30
0.0
 40
0.25
 50
270.0
 51
0.0
  0
ARC
  5
C3E0
  8
0
 10
7340.1811858107821536
 20
2027.6182794876669959
 30
0.0
 40
0.25
 50
90.0
 51
180.0
  0
LINE
  5
C3E1
  8
0
 10
7388.6979423976827093
 20
2021.3678330355880917
 30
0.0
 11
7388.6979423976827093
 21
2005.8747849358389885
 31
0.0
  0
LINE
  5
C3E2
  8
0
 10
7344.7202260884823772
 20
2003.3905590741590004
 30
0.0
 11
7344.7202260884823772
 21
2021.2666547171700131
 31
0.0
  0
LINE
  5
C3E3
  8
0
 10
7384.7600889683626519
 20
2025.3306571585669644
 30
0.0
 11
7366.643657361318219
 21
2025.3306571585669644
 31
0.0
  0
LINE
  5
C3E4
  8
0
 10
7350.2007937927874082
 20
2025.3306571585669644
 30
0.0
 11
7348.782137178613084
 21
2025.3306571585669644
 31
0.0
  0
LINE
  5
C3E5
  8
0
 10
7384.7602907286182017
 20
2002.4055656408079358
 30
0.0
 11
7367.8701443582740467
 21
2002.4055656408079358
 31
0.0
  0
LINE
  5
C3E6
  8
0
 10
7366.889767545560062
 20
2002.4055656408079358
 30
0.0
 11
7347.4431864744055929
 21
2002.4055656408079358
 31
0.0
  0
LINE
  5
C3E7
  8
0
 10
7346.5106742035295611
 20
2002.4055656408079358
 30
0.0
 11
7345.7025858411352601
 21
2002.4055656408079358
 31
0.0
  0
ARC
  5
C3E8
  8
0
 10
7384.730830247490303
 20
2021.344896460361042
 30
0.0
 40
3.9671784556135679
 50
0.3312622039078943
 51
41.5232408828385999
  0
ARC
  5
C3E9
  8
0
 10
7384.6813944310379156
 20
2021.301030788936032
 30
0.0
 40
4.0332700006876756
 50
41.5242278126089985
 51
66.0944479772420266
  0
ARC
  5
C3EA
  8
0
 10
7384.6948090000723823
 20
2021.3281270781599233
 30
0.0
 40
4.0030623925716746
 50
66.1128195839265942
 51
89.0656072524603815
  0
ARC
  5
C3EB
  8
0
 10
7384.6918109128373544
 20
2006.4220951781890108
 30
0.0
 40
4.0171132682342199
 50
270.976769690746778
 51
309.4325799919542987
  0
ARC
  5
C3EC
  8
0
 10
7384.7032220704104475
 20
2006.4068737681120638
 30
0.0
 40
3.9981087378761102
 50
309.4448258158802787
 51
344.8434880257643727
  0
ARC
  5
C3ED
  8
0
 10
7346.3970736370411032
 20
2016.7832094360169322
 30
0.0
 40
43.6847481734881171
 50
344.8434880257643727
 51
345.5397751261870098
  0
ARC
  5
C3EE
  8
0
 10
7345.7167517405669059
 20
2003.3987719304789152
 30
0.0
 40
0.9933073072059816
 50
227.9008469547115965
 51
269.182857349428275
  0
ARC
  5
C3EF
  8
0
 10
7345.7231884881639417
 20
2003.4056855237349737
 30
0.0
 40
1.0027524011333
 50
206.0181423646685062
 51
227.8927907743727985
  0
ARC
  5
C3F0
  8
0
 10
7345.7274160797378499
 20
2003.4074643079788984
 30
0.0
 40
1.007331854661242
 50
180.9615937560029124
 51
206.0035846153633088
  0
CIRCLE
  5
C3F1
  8
0
 10
7342.0911858107829175
 20
2005.2682794876670869
 30
0.0
 40
0.625
  0
CIRCLE
  5
C3F2
  8
0
 10
7342.0911858107829175
 20
2009.8682794876669959
 30
0.0
 40
0.7800000000000012
  0
CIRCLE
  5
C3F3
  8
0
 10
7342.0911858107829175
 20
2013.8682794876669959
 30
0.0
 40
0.7800000000000012
  0
CIRCLE
  5
C3F4
  8
0
 10
7342.0911858107829175
 20
2017.8682794876669959
 30
0.0
 40
0.7800000000000012
  0
ARC
  5
C3F5
  8
0
 10
7348.8369698316600989
 20
2021.2168728913520681
 30
0.0
 40
4.1141496833519291
 50
90.7636505373633327
 51
141.8471261392112126
  0
ARC
  5
C3F6
  8
0
 10
7348.8494604905408778
 20
2021.2076724154730982
 30
0.0
 40
4.1296556344398443
 50
141.8538040456373039
 51
179.1816383350048056
  0
ARC
  5
C3F7
  8
0
 10
7361.4457191381388839
 20
2026.6766807222420539
 30
0.0
 40
0.9332911229409784
 50
269.1077468148235994
 51
299.8810542494725269
  0
ARC
  5
C3F8
  8
0
 10
7361.7389295946641141
 20
2026.1663817104420104
 30
0.0
 40
0.344752718705638
 50
299.8810542494725269
 51
336.753885580527708
  0
ARC
  5
C3F9
  8
0
 10
7361.866907035389886
 20
2026.1114085433518994
 30
0.0
 40
0.2054678507744672
 50
336.753885580527708
 51
23.2461144194842397
  0
ARC
  5
C3FA
  8
0
 10
7361.7525180203601849
 20
2026.062272333088913
 30
0.0
 40
0.3299636897362679
 50
23.2461144194722813
 51
57.0536018657262929
  0
ARC
  5
C3FB
  8
0
 10
7361.471426853318917
 20
2025.6285420973720193
 30
0.0
 40
0.8468139210051461
 50
57.0536018657262929
 51
73.4634674570562822
  0
ARC
  5
C3FC
  8
0
 10
7361.440939522669396
 20
2025.5258590630960498
 30
0.0
 40
0.9539273322032666
 50
73.4634674570562822
 51
97.2615716685194229
  0
ARC
  5
C3FD
  8
0
 10
7361.4425837716726164
 20
2025.5129550279500563
 30
0.0
 40
0.9669357017334597
 50
97.2615716685194229
 51
124.8908663949446947
  0
ARC
  5
C3FE
  8
0
 10
7361.0209960972679255
 20
2026.1174921360800454
 30
0.0
 40
0.2299138008935282
 50
124.8908663949446947
 51
181.7198846560316952
  0
ARC
  5
C3FF
  8
0
 10
7361.0410418121609837
 20
2026.118094042129087
 30
0.0
 40
0.2499685503689051
 50
181.7198846560316952
 51
220.0736803110326889
  0
ARC
  5
C400
  8
0
 10
7361.2165852774624
 20
2026.265777600139927
 30
0.0
 40
0.4793719974133989
 50
220.0736803110326889
 51
248.2242508983821949
  0
ARC
  5
C401
  8
0
 10
7361.449986333290326
 20
2026.8500389359169276
 30
0.0
 40
1.108528068151557
 50
248.2242508983821949
 51
263.4924163296361144
  0
ARC
  5
C402
  8
0
 10
7361.4170859709802244
 20
2026.5616155806110328
 30
0.0
 40
0.8182343105091623
 50
263.4924163296361144
 51
270.9873715742292006
  0
ARC
  5
C403
  8
0
 10
7361.5261236835031013
 20
2026.561760794256088
 30
0.0
 40
0.6455979622804316
 50
276.7228049372052965
 51
325.1128032651428157
  0
ARC
  5
C404
  8
0
 10
7361.4575574917507765
 20
2027.1434388375510025
 30
0.0
 40
1.23130323688846
 50
249.4983409805994086
 51
276.7228049372052965
  0
ARC
  5
C405
  8
0
 10
7361.1665968612578581
 20
2026.3652979690280063
 30
0.0
 40
0.4005437652225508
 50
205.2533660230120915
 51
249.4983409805994086
  0
ARC
  5
C406
  8
0
 10
7366.6340831134029941
 20
2025.491626330670897
 30
0.0
 40
0.1612536527906649
 50
273.4038711479108201
 51
299.9866433550495231
  0
ARC
  5
C407
  8
0
 10
7366.6628772765880058
 20
2025.441726516540939
 30
0.0
 40
0.1036420629518632
 50
299.9866433550495231
 51
328.2658727019489788
  0
ARC
  5
C408
  8
0
 10
7366.5845285466757559
 20
2025.4901801702199009
 30
0.0
 40
0.1957630705111726
 50
328.2658727019489788
 51
344.4876327670863247
  0
ARC
  5
C409
  8
0
 10
7366.5259974154678275
 20
2025.5064258958500432
 30
0.0
 40
0.2565069337540678
 50
344.4876327670863247
 51
6.5244618171929538
  0
ARC
  5
C40A
  8
0
 10
7365.68969485310663
 20
2025.4107795516908936
 30
0.0
 40
1.0982611728068901
 50
6.5244618171929538
 51
29.4218710311571705
  0
ARC
  5
C40B
  8
0
 10
7365.5195976441491439
 20
2025.3148491368399391
 30
0.0
 40
1.2935448254472039
 50
29.4218710311571705
 51
56.7351164032373987
  0
ARC
  5
C40C
  8
0
 10
7363.3021748123528596
 20
2021.7064274012959686
 30
0.0
 40
5.5284007726389204
 50
58.0325071442171065
 51
80.0350243052971564
  0
ARC
  5
C40D
  8
0
 10
7363.4673017628438174
 20
2022.6462680489260038
 30
0.0
 40
4.574164243932735
 50
80.0350243052971564
 51
90.4523915226644277
  0
LINE
  5
C40E
  8
0
 10
7363.4311858107821536
 20
2027.2202897113670588
 30
0.0
 11
7353.4314975212600984
 21
2027.2202897113670588
 31
0.0
  0
ARC
  5
C40F
  8
0
 10
7353.4365465420742112
 20
2022.1306021384300493
 30
0.0
 40
5.0896900772762397
 50
90.0568379658609643
 51
110.4648385375711968
  0
ARC
  5
C410
  8
0
 10
7353.6726638550280768
 20
2021.4978913735449169
 30
0.0
 40
5.7650228082141117
 50
110.4648284078954958
 51
124.0195542323173044
  0
ARC
  5
C411
  8
0
 10
7351.3403048316513377
 20
2025.3902788818379577
 30
0.0
 40
1.257927725427225
 50
135.2286478312971951
 51
157.4449808386841028
  0
ARC
  5
C412
  8
0
 10
7350.9888291414981722
 20
2025.4636436415460139
 30
0.0
 40
0.9076760882638039
 50
153.2078955549804107
 51
178.4476265461379114
  0
ARC
  5
C413
  8
0
 10
7350.2507300703709916
 20
2025.4836466133149315
 30
0.0
 40
0.1693060200208841
 50
178.4476265461379114
 51
221.529993971884096
  0
ARC
  5
C414
  8
0
 10
7350.2167839615340199
 20
2025.4535819382269892
 30
0.0
 40
0.1239604249394121
 50
221.529993971884096
 51
262.5885284513831834
  0
ARC
  5
C415
  8
0
 10
7358.4334843398019075
 20
2026.9985082148750735
 30
0.0
 40
1.353957174379723
 50
269.7217883318816121
 51
284.5436976796817135
  0
ARC
  5
C416
  8
0
 10
7358.5416582654870581
 20
2026.5815428202079147
 30
0.0
 40
0.9231883981811391
 50
284.5436976796817135
 51
307.585387072685819
  0
ARC
  5
C417
  8
0
 10
7358.8790710354396651
 20
2026.1431721734700204
 30
0.0
 40
0.3700010870022533
 50
307.585387072685819
 51
333.9854153535659975
  0
ARC
  5
C418
  8
0
 10
7358.906569477908306
 20
2026.129751621017931
 30
0.0
 40
0.3394024666690631
 50
333.9854153535659975
 51
349.3664901613227016
  0
ARC
  5
C419
  8
0
 10
7359.0091875907573922
 20
2026.1104850374790658
 30
0.0
 40
0.2349913641654014
 50
349.3664901613227016
 51
10.2843687939591693
  0
ARC
  5
C41A
  8
0
 10
7358.9022210729872313
 20
2026.0910760710819432
 30
0.0
 40
0.3437044907905936
 50
10.2843687939591693
 51
25.0802872547839506
  0
ARC
  5
C41B
  8
0
 10
7358.8778451942280299
 20
2026.0796678002959652
 30
0.0
 40
0.3706179095175897
 50
25.0802872547839506
 51
55.4947663929162189
  0
ARC
  5
C41C
  8
0
 10
7358.402391102972615
 20
2025.3880131594889917
 30
0.0
 40
1.2099287786477331
 50
55.4947663929162189
 51
66.0929575289399764
  0
ARC
  5
C41D
  8
0
 10
7358.4595744591761104
 20
2025.3710738325501097
 30
0.0
 40
1.2036948108179131
 50
68.9092456216136497
 51
84.1837669552108423
  0
ARC
  5
C41E
  8
0
 10
7358.5332704130260026
 20
2026.5924723845730568
 30
0.0
 40
0.0538757419373916
 50
333.6649667463055948
 51
8.5484497794538683
  0
ARC
  5
C41F
  8
0
 10
7358.5283642100130237
 20
2026.5917349056931016
 30
0.0
 40
0.0588370626391181
 50
8.5484497794409862
 51
45.9111038479260714
  0
ARC
  5
C420
  8
0
 10
7358.4602554048497041
 20
2026.5214248105799015
 30
0.0
 40
0.1567263818497742
 50
45.9111038479260714
 51
61.5737731574971718
  0
ARC
  5
C421
  8
0
 10
7358.4530700138457178
 20
2026.5081502349999028
 30
0.0
 40
0.1718208908087662
 50
61.5737731574971718
 51
84.8510860035150358
  0
ARC
  5
C422
  8
0
 10
7358.4082108093189163
 20
2026.0103131308699176
 30
0.0
 40
0.6716750000036215
 50
84.8510860035150358
 51
88.6129060048424861
  0
ARC
  5
C423
  8
0
 10
7358.4201444711843578
 20
2026.5031527481139619
 30
0.0
 40
0.178690922562391
 50
88.6129060048424861
 51
106.0098887668303007
  0
ARC
  5
C424
  8
0
 10
7358.4357175308014121
 20
2026.4488783904839693
 30
0.0
 40
0.2351553014401003
 50
106.0098887668303007
 51
125.082605180826107
  0
ARC
  5
C425
  8
0
 10
7358.3342581316383075
 20
2026.5933337169919923
 30
0.0
 40
0.0586295213544951
 50
125.082605180826107
 51
167.2331206068170957
  0
ARC
  5
C426
  8
0
 10
7358.3415940118393337
 20
2026.5916715048119841
 30
0.0
 40
0.0661513620621761
 50
167.2331206068043912
 51
186.9278685839427965
  0
ARC
  5
C427
  8
0
 10
7358.3172714681722937
 20
2026.5887161492109954
 30
0.0
 40
0.0416499282852185
 50
186.927868583929893
 51
208.9242090467230071
  0
ARC
  5
C428
  8
0
 10
7358.4472859104453164
 20
2025.1262133519931012
 30
0.0
 40
1.451933394661598
 50
96.5836288819904354
 51
104.3911094495205987
  0
ARC
  5
C429
  8
0
 10
7358.3451097316274172
 20
2025.5521412869029518
 30
0.0
 40
1.013998920155047
 50
104.7804239076344999
 51
115.9071536335024035
  0
ARC
  5
C42A
  8
0
 10
7358.1426961046709039
 20
2025.9377278557660702
 30
0.0
 40
0.5788850463644712
 50
114.5606080115240957
 51
146.5185646903281906
  0
ARC
  5
C42B
  8
0
 10
7357.8676937199397798
 20
2026.1196198499110324
 30
0.0
 40
0.249171520494735
 50
146.5185646903281906
 51
182.076437631953894
  0
ARC
  5
C42C
  8
0
 10
7357.942884414760556
 20
2026.122346004927067
 30
0.0
 40
0.3244116195692318
 50
182.076437631953894
 51
207.2989818231463062
  0
ARC
  5
C42D
  8
0
 10
7358.0376966556023035
 20
2026.1712801178250629
 30
0.0
 40
0.4311070197429371
 50
207.2989818231463062
 51
246.4677772603475887
  0
ARC
  5
C42E
  8
0
 10
7358.5071223624290724
 20
2027.2512898312888865
 30
0.0
 40
1.608723805306199
 50
246.4971095224289002
 51
267.1419957103771026
  0
ARC
  5
C42F
  8
0
 10
7358.8821237850079342
 20
2026.40515576375401
 30
0.0
 40
0.3320881768131818
 50
311.8689369501263968
 51
337.8470944645088139
  0
ARC
  5
C430
  8
0
 10
7358.5343527883142087
 20
2026.7931758752590667
 30
0.0
 40
0.8531488959952751
 50
268.642909030755618
 51
311.8689369501263968
  0
ARC
  5
C431
  8
0
 10
7358.4164627615573409
 20
2027.0696515888689646
 30
0.0
 40
1.1336019716298109
 50
238.9324156652726003
 51
274.9434092997834114
  0
ARC
  5
C432
  8
0
 10
7358.0535020389615966
 20
2026.4548322271450616
 30
0.0
 40
0.4197158403945686
 50
205.1100058796332917
 51
238.0615168106955934
  0
ARC
  5
C433
  8
0
 10
7355.443626595850219
 20
2026.6767682941670046
 30
0.0
 40
0.9332911229409784
 50
269.1077468148235994
 51
299.8810542494725269
  0
ARC
  5
C434
  8
0
 10
7355.7368370523763588
 20
2026.1664692823669611
 30
0.0
 40
0.344752718705638
 50
299.8810542494725269
 51
336.753885580527708
  0
ARC
  5
C435
  8
0
 10
7355.8648144931012212
 20
2026.1114961152770775
 30
0.0
 40
0.2054678507744672
 50
336.753885580527708
 51
23.2461144194842397
  0
ARC
  5
C436
  8
0
 10
7355.7504254780706106
 20
2026.0623599050140911
 30
0.0
 40
0.3299636897362679
 50
23.2461144194722813
 51
57.0536018657262929
  0
ARC
  5
C437
  8
0
 10
7355.4693343110302521
 20
2025.62862966929697
 30
0.0
 40
0.8468139210051461
 50
57.0536018657262929
 51
73.4634674570562822
  0
ARC
  5
C438
  8
0
 10
7355.4388469803798216
 20
2025.5259466350210005
 30
0.0
 40
0.9539273322032666
 50
73.4634674570562822
 51
97.2615716685194229
  0
ARC
  5
C439
  8
0
 10
7355.4404912293839516
 20
2025.513042599875007
 30
0.0
 40
0.9669357017334597
 50
97.2615716685194229
 51
124.8908663949446947
  0
ARC
  5
C43A
  8
0
 10
7355.0189035549792607
 20
2026.1175797080049961
 30
0.0
 40
0.2299138008935282
 50
124.8908663949446947
 51
181.7198846560316952
  0
ARC
  5
C43B
  8
0
 10
7355.0389492698723188
 20
2026.1181816140540377
 30
0.0
 40
0.2499685503689051
 50
181.7198846560316952
 51
220.0736803110326889
  0
ARC
  5
C43C
  8
0
 10
7355.2144927351728256
 20
2026.2658651720651051
 30
0.0
 40
0.4793719974133989
 50
220.0736803110326889
 51
248.2242508983821949
  0
ARC
  5
C43D
  8
0
 10
7355.4478937910007517
 20
2026.8501265078421056
 30
0.0
 40
1.108528068151557
 50
248.2242508983821949
 51
263.4924163296361144
  0
ARC
  5
C43E
  8
0
 10
7355.41499342869065
 20
2026.5617031525359835
 30
0.0
 40
0.8182343105091623
 50
263.4924163296361144
 51
270.9873715742292006
  0
ARC
  5
C43F
  8
0
 10
7355.5240311412144365
 20
2026.5618483661810387
 30
0.0
 40
0.6455979622804316
 50
276.7228049372052965
 51
325.1128032651428157
  0
ARC
  5
C440
  8
0
 10
7355.4554649494621117
 20
2027.1435264094770901
 30
0.0
 40
1.23130323688846
 50
249.4983409805994086
 51
276.7228049372052965
  0
ARC
  5
C441
  8
0
 10
7355.1645043189691933
 20
2026.3653855409540938
 30
0.0
 40
0.4005437652225508
 50
205.2533660230120915
 51
249.4983409805994086
  0
ARC
  5
C442
  8
0
 10
7367.8702279954532059
 20
2001.9053524427499724
 30
0.0
 40
0.5002132050094878
 50
90.0095800288356713
 51
128.6625746799576007
  0
ARC
  5
C443
  8
0
 10
7367.8700373412902991
 20
2001.9055907367298914
 30
0.0
 40
0.4999080279612322
 50
128.6625746701998878
 51
174.7460063265677093
  0
LINE
  5
C444
  8
0
 10
7367.3722296532932887
 20
2001.9513678291471024
 30
0.0
 11
7367.319890624040454
 21
2000.9194690157169134
 31
0.0
  0
ARC
  5
C445
  8
0
 10
7367.1618878685849268
 20
2000.9093758590690868
 30
0.0
 40
0.1583248007815817
 50
272.2738134548558264
 51
3.6550666351653121
  0
LINE
  5
C446
  8
0
 10
7367.1681694232820519
 20
2000.7511757180670884
 30
0.0
 11
7366.386091285371549
 21
2000.7511657029870094
 31
0.0
  0
ARC
  5
C447
  8
0
 10
7366.3861029391073316
 20
2000.5011590849949243
 30
0.0
 40
0.2500066182631142
 50
90.0026707683220337
 51
176.9612983054047106
  0
LINE
  5
C448
  8
0
 10
7366.1364478412815515
 20
2000.5144120584670873
 30
0.0
 11
7366.1175209117127451
 21
2000.1578728664969731
 31
0.0
  0
ARC
  5
C449
  8
0
 10
7366.3502067625704512
 20
2000.10593066972001
 30
0.0
 40
0.2380244090485819
 50
187.6148390349414967
 51
266.7909966428331927
  0
ARC
  5
C44A
  8
0
 10
7366.3566328159731711
 20
2000.1067897822779287
 30
0.0
 40
0.2445076363874257
 50
167.940799490245297
 51
187.6148390349414967
  0
ARC
  5
C44B
  8
0
 10
7365.5913339936832926
 20
2000.1182794876669959
 30
0.0
 40
0.2500000000000782
 50
270.0
 51
293.7917063406957823
  0
ARC
  5
C44C
  8
0
 10
7365.5832004587309711
 20
2000.1367279120700005
 30
0.0
 40
0.2701618142480256
 50
293.7917063406957823
 51
317.3101044989520005
  0
ARC
  5
C44D
  8
0
 10
7365.5263859820306607
 20
2000.1891362538260637
 30
0.0
 40
0.3474568273361883
 50
317.3101044989520005
 51
338.6159592743135818
  0
ARC
  5
C44E
  8
0
 10
7365.6462876920058989
 20
2000.1421858102380611
 30
0.0
 40
0.218690511057119
 50
338.6159592743135818
 51
1.8896749480434889
  0
LINE
  5
C44F
  8
0
 10
7365.8648592735826242
 20
2000.1493971453169252
 30
0.0
 11
7365.8980172661822508
 21
2000.7635111889669588
 31
0.0
  0
ARC
  5
C450
  8
0
 10
7366.0215407357536606
 20
2000.7568591891579217
 30
0.0
 40
0.1237024520237683
 50
91.3094974770723837
 51
176.9174787435740086
  0
LINE
  5
C451
  8
0
 10
7366.0187137570819687
 20
2000.8805293344169058
 30
0.0
 11
7366.8152993840712952
 21
2000.8806211824710317
 31
0.0
  0
ARC
  5
C452
  8
0
 10
7366.8212476637318105
 20
2001.1319513860960342
 30
0.0
 40
0.2514005833036172
 50
268.6442230064209866
 51
337.2715182343096103
  0
ARC
  5
C453
  8
0
 10
7366.827198320581374
 20
2001.1294586960059405
 30
0.0
 40
0.2449489307392685
 50
337.2715182343096103
 51
357.151290686554205
  0
LINE
  5
C454
  8
0
 10
7367.0718540293819387
 20
2001.1175372632669678
 30
0.0
 11
7367.118984149255084
 21
2002.1285313555958965
 31
0.0
  0
ARC
  5
C455
  8
0
 10
7366.8398622756576515
 20
2002.141543347913057
 30
0.0
 40
0.2794250029327863
 50
357.3309405222458963
 51
47.8104925680631609
  0
ARC
  5
C456
  8
0
 10
7366.8791255019978053
 20
2002.18486059234192
 30
0.0
 40
0.2209614706453822
 50
92.7476011353010534
 51
92.7606829142369804
  0
ARC
  5
C457
  8
0
 10
7366.8791255019978053
 20
2002.18486059234192
 30
0.0
 40
0.2209614706453822
 50
47.8104925680631609
 51
87.2394275106928347
  0
ARC
  5
C458
  8
0
 10
7348.7725363334666326
 20
2000.1275157027050682
 30
0.0
 40
0.2592405471868493
 50
221.5720877121715944
 51
269.6687633010648142
  0
ARC
  5
C459
  8
0
 10
7348.8276962599920807
 20
2000.1764409441070711
 30
0.0
 40
0.3329717938896277
 50
190.6883462514938969
 51
221.5720877121715944
  0
LINE
  5
C45A
  8
0
 10
7348.5005013468817197
 20
2000.1146857470669147
 30
0.0
 11
7348.4623521149887893
 21
2000.7423580627551019
 31
0.0
  0
ARC
  5
C45B
  8
0
 10
7348.3407615855066979
 20
2000.7581598564111118
 30
0.0
 40
0.1226130235426416
 50
352.5953933196450976
 51
90.5292997067391525
  0
LINE
  5
C45C
  8
0
 10
7348.3397121829593743
 20
2000.8806156778689456
 30
0.0
 11
7347.5401610656817866
 21
2000.8806156768569053
 31
0.0
  0
ARC
  5
C45D
  8
0
 10
7347.5400165273749735
 20
2001.1301147623560155
 30
0.0
 40
0.249499127366476
 50
214.4190411683937043
 51
270.0331922421838726
  0
ARC
  5
C45E
  8
0
 10
7347.5418536509905607
 20
2001.1313735641249423
 30
0.0
 40
0.2517261444461953
 50
183.1510051201501028
 51
214.4190411683937043
  0
LINE
  5
C45F
  8
0
 10
7347.2905080829132203
 20
2001.1175367579280646
 30
0.0
 11
7347.2433207436306475
 21
2002.1468214414949216
 31
0.0
  0
ARC
  5
C460
  8
0
 10
7347.4861130321223754
 20
2002.1579522027650455
 30
0.0
 40
0.2430472982703462
 50
132.5448673353652111
 51
182.6248750207680018
  0
ARC
  5
C461
  8
0
 10
7347.5298072919731567
 20
2002.1103431877209005
 30
0.0
 40
0.3076677799881274
 50
106.3521442146817009
 51
132.5448673353652111
  0
ARC
  5
C462
  8
0
 10
7346.5056308506073037
 20
2001.9049164327689141
 30
0.0
 40
0.5006746098207695
 50
49.8052373013173906
 51
89.422843263235734
  0
ARC
  5
C463
  8
0
 10
7346.5059126926807949
 20
2001.9055051618670404
 30
0.0
 40
0.5000430358002435
 50
3.0427949734025539
 51
49.7863688795180082
  0
LINE
  5
C464
  8
0
 10
7347.0052507507016344
 20
2001.9320483618589606
 30
0.0
 11
7347.0527809915502075
 21
2000.9080527234771125
 31
0.0
  0
ARC
  5
C465
  8
0
 10
7347.2159351176569544
 20
2000.9141657424800087
 30
0.0
 40
0.1632686064959104
 50
182.1457405805714984
 51
266.6522559344477941
  0
LINE
  5
C466
  8
0
 10
7347.2064008981833467
 20
2000.7511757534668959
 30
0.0
 11
7347.9762803297498976
 21
2000.7511660123109323
 31
0.0
  0
ARC
  5
C467
  8
0
 10
7347.9762771665718901
 20
2000.5011684406299537
 30
0.0
 40
0.2499975717008765
 50
30.4042898087607085
 51
89.9992750460706077
  0
ARC
  5
C468
  8
0
 10
7347.9762089218793335
 20
2000.5011283948379059
 30
0.0
 40
0.2500766982042979
 50
3.051542007101359
 51
30.4042898087607085
  0
LINE
  5
C469
  8
0
 10
7348.225931023938756
 20
2000.5144410477701058
 30
0.0
 11
7348.2533350682797391
 21
2000.1400881759429922
 31
0.0
  0
ARC
  5
C46A
  8
0
 10
7347.9884048563890246
 20
2000.130766940462081
 30
0.0
 40
0.2650941391345126
 50
278.041525967318023
 51
2.0150485647309071
  0
ARC
  5
C46B
  8
0
 10
7366.8027290896270642
 20
2002.1489210479569465
 30
0.0
 40
0.3159160353708528
 50
2.776449160995067
 51
16.715675135946789
  0
LINE
  5
C46C
  8
0
 10
7367.3704148173474096
 20
2001.9321532694659709
 30
0.0
 11
7367.2040282452171596
 21
2002.7746150041480178
 31
0.0
  0
LINE
  5
C46D
  8
0
 10
7366.9737306416818683
 20
2002.7780233194168886
 30
0.0
 11
7366.999984947631674
 21
2002.6643882683169977
 31
0.0
  0
LINE
  5
C46E
  8
0
 10
7367.0475103216158459
 20
2002.4710153018399978
 30
0.0
 11
7367.1052957271331252
 21
2002.239785624517026
 31
0.0
  0
ARC
  5
C46F
  8
0
 10
7367.0970390980000957
 20
2002.4341421673038894
 30
0.0
 40
0.0119317974620315
 50
350.5509308208978041
 51
20.5133158643245714
  0
LINE
  5
C470
  8
0
 10
7369.4739889850252439
 20
2002.6122277242050131
 30
0.0
 11
7369.4739889850252439
 21
2002.6710095296980398
 31
0.0
  0
LINE
  5
C471
  8
0
 10
7369.4892390367258486
 20
2002.7746178918239366
 30
0.0
 11
7369.4928138014247452
 21
2002.6723124614240987
 31
0.0
  0
ARC
  5
C472
  8
0
 10
7368.5987846641710348
 20
2015.4526434377110036
 30
0.0
 40
12.8115630569302201
 50
266.0003063914426775
 51
274.0015228040962256
  0
LINE
  5
C473
  8
0
 10
7367.7051635456246004
 20
2002.672283925624015
 30
0.0
 11
7367.7084779856259047
 21
2002.7671498847239491
 31
0.0
  0
ARC
  5
C474
  8
0
 10
7369.7835545086891216
 20
2002.8928498095790474
 30
0.0
 40
0.0942070481811212
 50
285.7918255830441012
 51
9.2751828451837124
  0
ARC
  5
C475
  8
0
 10
7369.4612163706233332
 20
2004.9693292735389605
 30
0.0
 40
2.1948902748995351
 50
270.7315281947333006
 51
279.1221103886799142
  0
ARC
  5
C476
  8
0
 10
7368.4379885754524366
 20
2041.1306379691559414
 30
0.0
 40
38.3704235538911007
 50
268.9106089392121817
 51
271.5699527616138198
  0
ARC
  5
C477
  8
0
 10
7365.4931791301687554
 20
1870.1176580424589702
 30
0.0
 40
132.6679887351502884
 50
89.0432268164006757
 51
89.8465064315057731
  0
ARC
  5
C478
  8
0
 10
7365.9092745342586568
 20
2013.6780526919239946
 30
0.0
 40
10.8930510095086301
 50
262.7973016286014172
 51
269.6808176280846965
  0
ARC
  5
C479
  8
0
 10
7384.9322370703694105
 20
2158.3870633212200119
 30
0.0
 40
156.8469270384854894
 50
261.8668419867880743
 51
262.5309115788364807
  0
ARC
  5
C47A
  8
0
 10
7362.7436749955977575
 20
2003.2167559556269225
 30
0.0
 40
0.0990530094431007
 50
167.8840310999788983
 51
269.2920819663232237
  0
ARC
  5
C47B
  8
0
 10
7364.598837784132229
 20
2002.8041198639739378
 30
0.0
 40
1.9995497128925031
 50
74.2502322136129465
 51
167.4810783205761879
  0
ARC
  5
C47C
  8
0
 10
7364.5136369825404472
 20
2002.5449090773320222
 30
0.0
 40
2.2721852177808279
 50
69.1290439746280327
 51
73.9566450122831895
  0
ARC
  5
C47D
  8
0
 10
7368.6123714929799462
 20
2013.1872965971961094
 30
0.0
 40
9.1322175090859261
 50
248.8887913844087905
 51
269.9164380303461144
  0
ARC
  5
C47E
  8
0
 10
7368.6004863126117925
 20
1998.0927653427449968
 30
0.0
 40
5.9623236299115421
 50
80.8550357569462079
 51
90.0137756927870498
  0
ARC
  5
C47F
  8
0
 10
7369.5644289298033982
 20
2003.8290394366129021
 30
0.0
 40
0.1511497971675588
 50
357.0895081933846882
 51
96.203454697583453
  0
LINE
  5
C480
  8
0
 10
7369.7153837552250479
 20
2003.8213646815240736
 30
0.0
 11
7369.8765298582238756
 21
2002.9080337585239704
 31
0.0
  0
ARC
  5
C481
  8
0
 10
7366.5989890779246707
 20
2003.7710902095238907
 30
0.0
 40
1.039464285699951
 50
251.8505887262186889
 51
287.2013353992368252
  0
LINE
  5
C482
  8
0
 10
7367.7239933423752518
 20
2002.6659069465720222
 30
0.0
 11
7367.7239943059748839
 21
2002.612310549124004
 31
0.0
  0
ARC
  5
C483
  8
0
 10
7368.5995960086092964
 20
2015.1490695701259028
 30
0.0
 40
12.5672975037128207
 50
266.0047882007717135
 51
273.9896832653703882
  0
ARC
  5
C484
  8
0
 10
7366.7818592660441936
 20
1998.6559622752570249
 30
0.0
 40
4.0764774786237954
 50
89.9291272257720493
 51
91.5114944199665388
  0
ARC
  5
C485
  8
0
 10
7366.7799163197332746
 20
1998.7295958900410824
 30
0.0
 40
4.0028182343535681
 50
91.5114944199665388
 51
93.1710125968869818
  0
ARC
  5
C486
  8
0
 10
7366.7821738527327398
 20
1998.6888470700218932
 30
0.0
 40
4.0436295414656911
 50
93.1710125968869818
 51
96.7363051296149763
  0
ARC
  5
C487
  8
0
 10
7366.6468350822879074
 20
1999.8346648667600221
 30
0.0
 40
2.889846630295235
 50
96.7363051296149763
 51
98.0448271705477055
  0
ARC
  5
C488
  8
0
 10
7366.6062944470477305
 20
1991.2771192835930378
 30
0.0
 40
11.4247493973832697
 50
91.8252236538670843
 51
92.011756832878774
  0
ARC
  5
C489
  8
0
 10
7366.6527884643983271
 20
1990.3632811932429831
 30
0.0
 40
12.3396647763878509
 50
92.078551754613585
 51
92.6212959969250562
  0
ARC
  5
C48A
  8
0
 10
7366.3512667696968492
 20
1996.9492850449939851
 30
0.0
 40
5.7467623754982951
 50
92.6212959969250562
 51
93.8747591550601754
  0
ARC
  5
C48B
  8
0
 10
7366.1638626212534291
 20
1999.7161906123681092
 30
0.0
 40
2.973517573174195
 50
93.8747591550601754
 51
97.1418563320812467
  0
ARC
  5
C48C
  8
0
 10
7365.8437884156437576
 20
2002.2706837898970207
 30
0.0
 40
0.3990500765574178
 50
97.1418563320812467
 51
103.7629116850644948
  0
ARC
  5
C48D
  8
0
 10
7365.8012761435302309
 20
2002.4442476852100299
 30
0.0
 40
0.2203555913696484
 50
103.7629116850644948
 51
106.2327431399739055
  0
ARC
  5
C48E
  8
0
 10
7365.7654760274017463
 20
2002.5672101631289479
 30
0.0
 40
0.0922875653409868
 50
106.2327431399739055
 51
117.2383361819875063
  0
ARC
  5
C48F
  8
0
 10
7365.7321540687726156
 20
2002.6319411126889918
 30
0.0
 40
0.0194833844319609
 50
117.2383361819875063
 51
145.8727442609988998
  0
ARC
  5
C490
  8
0
 10
7365.7278195769449667
 20
2002.6348787923620876
 30
0.0
 40
0.0142471853080952
 50
145.8727442609587968
 51
180.587916884549486
  0
ARC
  5
C491
  8
0
 10
7365.7288188819256902
 20
2002.6348890466749708
 30
0.0
 40
0.0152465429002981
 50
180.587916884549486
 51
202.2875679762082939
  0
LINE
  5
C492
  8
0
 10
7365.7147113772816738
 20
2002.6291067129679959
 30
0.0
 11
7365.7221185657017486
 21
2002.6126988256849017
 31
0.0
  0
ARC
  5
C493
  8
0
 10
7365.7317555563531641
 20
2002.6194360475149097
 30
0.0
 40
0.0117584755301565
 50
214.9574040260644097
 51
243.9493783053256948
  0
ARC
  5
C494
  8
0
 10
7365.7730473271240044
 20
2002.7039072243919691
 30
0.0
 40
0.1057818239943612
 50
243.9493783053256948
 51
260.1018129366257199
  0
ARC
  5
C495
  8
0
 10
7366.3865212223136041
 20
2006.219610955223061
 30
0.0
 40
3.6746083738641899
 50
260.1018129366257199
 51
260.9560276071595126
  0
ARC
  5
C496
  8
0
 10
7366.3820668569596819
 20
2008.1184916254399013
 30
0.0
 40
5.5574420264703468
 50
264.0802788221363926
 51
268.7132656755641733
  0
ARC
  5
C497
  8
0
 10
7366.7783272578199103
 20
2020.0362315554421002
 30
0.0
 40
17.4815476500732103
 50
268.2919806801285176
 51
270.0671673251285938
  0
ARC
  5
C498
  8
0
 10
7366.8186575644858749
 20
1999.9480349015350384
 30
0.0
 40
2.6067364947167588
 50
89.0803394879340544
 51
90.4360159935752392
  0
ARC
  5
C499
  8
0
 10
7366.8665960596654259
 20
2002.3675667777411036
 30
0.0
 40
0.186968340869034
 50
80.5667419232370179
 51
91.8694383239676142
  0
ARC
  5
C49A
  8
0
 10
7366.8513685298848941
 20
2002.2759149240939678
 30
0.0
 40
0.2798765748427567
 50
62.7702507481393823
 51
80.5667419232370179
  0
ARC
  5
C49B
  8
0
 10
7366.8771576763838311
 20
2002.3260311534440916
 30
0.0
 40
0.2235142068888041
 50
45.1694798504327935
 51
62.7702507481393823
  0
ARC
  5
C49C
  8
0
 10
7366.8230431544716339
 20
2002.271927023067974
 30
0.0
 40
0.3000360842807225
 50
30.5071431799465991
 51
45.1248520614260471
  0
LINE
  5
C49D
  8
0
 10
7367.0815440068327007
 20
2002.4242390751169296
 30
0.0
 11
7367.0989315746319335
 21
2002.4239926607169764
 31
0.0
  0
ARC
  5
C49E
  8
0
 10
7367.0990604173866814
 20
2002.4330841022319873
 30
0.0
 40
0.0090923544406116
 50
269.1880658519012854
 51
291.2695594855430841
  0
ARC
  5
C49F
  8
0
 10
7367.098440020324233
 20
2002.4346778397750768
 30
0.0
 40
0.0108025859658598
 50
291.2695594855430841
 51
328.7190427939378878
  0
ARC
  5
C4A0
  8
0
 10
7367.1003972354437792
 20
2002.4334887251220607
 30
0.0
 40
0.0085124583096974
 50
328.7190427939268034
 51
351.1787133236924774
  0
ARC
  5
C4A1
  8
0
 10
7367.062156293625776
 20
2002.4314276312659331
 30
0.0
 40
0.0465713646529387
 50
8.5149909126838565
 51
14.73126168301979
  0
ARC
  5
C4A2
  8
0
 10
7367.6405308484818306
 20
2002.5834986951590508
 30
0.0
 40
0.551461020905335
 50
189.5474416015985071
 51
194.7312616830323861
  0
ARC
  5
C4A3
  8
0
 10
7366.8153140158792667
 20
2002.4447022357348942
 30
0.0
 40
0.2853467694252599
 50
9.5474416015985231
 51
24.4107702791169885
  0
ARC
  5
C4A4
  8
0
 10
7366.7859082818968091
 20
2002.4313565376251063
 30
0.0
 40
0.3176392584748994
 50
24.4107702791169885
 51
37.5079007603078125
  0
ARC
  5
C4A5
  8
0
 10
7366.8368595788742823
 20
2002.470464006722068
 30
0.0
 40
0.2534097574436952
 50
37.5079007603078125
 51
49.9300969172828601
  0
ARC
  5
C4A6
  8
0
 10
7366.7939177755279161
 20
2002.4194145741980719
 30
0.0
 40
0.3201184003293255
 50
49.9300969172828601
 51
56.052569045615698
  0
ARC
  5
C4A7
  8
0
 10
7366.818328522079355
 20
2002.4556767169219711
 30
0.0
 40
0.276405386911419
 50
56.052569045615698
 51
84.4666624762329405
  0
ARC
  5
C4A8
  8
0
 10
7366.8039361398114124
 20
2002.3071122228650438
 30
0.0
 40
0.4256653934833108
 50
84.4666624762329405
 51
92.2934943841929964
  0
LINE
  5
C4A9
  8
0
 10
7362.7879056768415467
 20
2003.6518957524699545
 30
0.0
 11
7346.6474513041766841
 21
2003.6518957524699545
 31
0.0
  0
LINE
  5
C4AA
  8
0
 10
7345.9338429121989975
 20
2004.4159108348831069
 30
0.0
 11
7345.9338429121989975
 21
2018.9978678875190781
 31
0.0
  0
LINE
  5
C4AB
  8
0
 10
7370.9662992581988874
 20
2024.1256525076998969
 30
0.0
 11
7357.163628169058029
 21
2024.1256525076998969
 31
0.0
  0
LINE
  5
C4AC
  8
0
 10
7387.034291297103664
 20
2006.9385501619499337
 30
0.0
 11
7387.034291297103664
 21
2020.6707134019920886
 31
0.0
  0
LINE
  5
C4AD
  8
0
 10
7370.9662992581988874
 20
2024.1256525076998969
 30
0.0
 11
7371.411015291271724
 21
2024.5776743442540919
 31
0.0
  0
ARC
  5
C4AE
  8
0
 10
7371.4770636947023377
 20
2024.4506774469739412
 30
0.0
 40
0.1429088799890259
 50
96.2033037257609749
 51
117.772351470574506
  0
ARC
  5
C4AF
  8
0
 10
7371.8560167032901518
 20
2022.0367691238288899
 30
0.0
 40
2.586229611789971
 50
92.8007849641166587
 51
98.7717266819203559
  0
ARC
  5
C4B0
  8
0
 10
7372.5599271940600374
 20
2007.6483132383029897
 30
0.0
 40
16.9918935239023305
 50
90.123631690238426
 51
92.8007849641166587
  0
LINE
  5
C4B1
  8
0
 10
7372.5232624535801733
 20
2024.6401672049669287
 30
0.0
 11
7383.0159933667819132
 21
2024.6524315674669197
 31
0.0
  0
ARC
  5
C4B2
  8
0
 10
7383.0124306951638573
 20
2020.6175614888879863
 30
0.0
 40
4.0348716514453731
 50
60.3939799242147686
 51
89.9494095238243858
  0
ARC
  5
C4B3
  8
0
 10
7383.0362890767428325
 20
2020.659549562896018
 30
0.0
 40
3.9865785801979992
 50
9.3647349324304194
 51
60.3939799242147686
  0
ARC
  5
C4B4
  8
0
 10
7381.5235512788376582
 20
2020.4347383432489096
 30
0.0
 40
5.5157900410789491
 50
2.4519611105663568
 51
9.1119449162409847
  0
LINE
  5
C4B5
  8
0
 10
7370.9735930470842504
 20
2003.5963068747130364
 30
0.0
 11
7371.4110151704826421
 21
2003.1588936888670105
 31
0.0
  0
ARC
  5
C4B6
  8
0
 10
7371.4658462181569121
 20
2003.2598574633971111
 30
0.0
 40
0.1148977229301619
 50
241.4962647799275999
 51
261.7875464928661131
  0
ARC
  5
C4B7
  8
0
 10
7371.9033706912978232
 20
2006.0568091392890437
 30
0.0
 40
2.945855607375095
 50
261.135779300892807
 51
267.8855485140135215
  0
ARC
  5
C4B8
  8
0
 10
7372.7435893218407728
 20
2028.814070340446051
 30
0.0
 40
25.71862234145485
 50
267.8855485140135215
 51
269.5091505063543877
  0
LINE
  5
C4B9
  8
0
 10
7372.5232621276818463
 20
2003.0963917696669796
 30
0.0
 11
7383.0159933662816911
 21
2003.0841274079668892
 31
0.0
  0
ARC
  5
C4BA
  8
0
 10
7383.020673624232586
 20
2007.0883055295930717
 30
0.0
 40
4.0041808568698478
 50
269.9330302255866059
 51
300.8843174827047733
  0
ARC
  5
C4BB
  8
0
 10
7383.0068065543637204
 20
2007.1114901137359539
 30
0.0
 40
4.0311960483121441
 50
300.8843174827047733
 51
357.5412331328993218
  0
ARC
  5
C4BC
  8
0
 10
7351.8519413551302932
 20
2018.2043760587919223
 30
0.0
 40
5.9213111630550168
 50
103.3392288412568973
 51
147.4579920079688122
  0
ARC
  5
C4BD
  8
0
 10
7352.3451901867538254
 20
2017.8896332459310088
 30
0.0
 40
6.5064243556475994
 50
147.4579920079688122
 51
170.193034775706991
  0
ARC
  5
C4BE
  8
0
 10
7346.9549291662096948
 20
2004.6543586513751052
 30
0.0
 40
1.048558295624038
 50
193.1443646482074996
 51
252.9480484159516038
  0
ARC
  5
C4BF
  8
0
 10
7370.9690549064871448
 20
2004.0995973556700847
 30
0.0
 40
0.5033109406150171
 50
270.5166186652896272
 51
359.7242628599393015
  0
LINE
  5
C4C0
  8
0
 10
7371.4723600186825934
 20
2004.0971751705669703
 30
0.0
 11
7371.4723600186825934
 21
2023.6405563749231078
 31
0.0
  0
ARC
  5
C4C1
  8
0
 10
7370.9950178232493272
 20
2023.649098436912027
 30
0.0
 40
0.4774186196245242
 50
358.9747986417787047
 51
93.448643315352669
  0
LINE
  5
C4C2
  8
0
 10
7370.9735930470842504
 20
2003.5963068747130364
 30
0.0
 11
7369.7550924605848195
 21
2003.5963068747130364
 31
0.0
  0
ARC
  5
C4C3
  8
0
 10
7386.7389431000028708
 20
2008.182672059944025
 30
0.0
 40
0.4416053679491741
 50
350.7241458778170795
 51
357.3857091675336051
  0
ARC
  5
C4C4
  8
0
 10
7387.1453551802078437
 20
2008.1162953824759825
 30
0.0
 40
0.0298085221045587
 50
338.8139232723872283
 51
350.7241458778170795
  0
ARC
  5
C4C5
  8
0
 10
7387.164978239606171
 20
2008.109038882169898
 30
0.0
 40
0.0088952325757723
 50
321.9693797264470732
 51
336.7156336283944142
  0
ARC
  5
C4C6
  8
0
 10
7387.1712754311192839
 20
2008.10431095564104
 30
0.0
 40
0.0010340152634545
 50
274.0393501768759847
 51
313.3207902382304724
  0
ARC
  5
C4C7
  8
0
 10
7387.1713048042920491
 20
2008.1038950051458869
 30
0.0
 40
0.0006170289363009
 50
236.1787378316778074
 51
274.0393501765623228
  0
ARC
  5
C4C8
  8
0
 10
7387.1724228192970259
 20
2008.1055637360959736
 30
0.0
 40
0.0026256654230697
 50
222.8325533797001015
 51
236.1787378316199977
  0
ARC
  5
C4C9
  8
0
 10
7387.1760465755460245
 20
2008.1079427926858898
 30
0.0
 40
0.0069378992551611
 50
199.5684563835874883
 51
216.8843188732880947
  0
ARC
  5
C4CA
  8
0
 10
7387.2210606689995984
 20
2008.1230600865119413
 30
0.0
 40
0.0544217155792302
 50
187.3245975471778024
 51
198.6919034756595011
  0
ARC
  5
C4CB
  8
0
 10
7433.2839544613871112
 20
2014.0439536739690993
 30
0.0
 40
46.4962903838692228
 50
187.3060954984186139
 51
187.3245975471778024
  0
ARC
  5
C4CC
  8
0
 10
7387.8866417429580906
 20
2008.2235148050829139
 30
0.0
 40
0.7273761441655021
 50
179.0873153277809138
 51
187.3060954984186139
  0
ARC
  5
C4CD
  8
0
 10
7383.8062258992204079
 20
2008.2885186858738962
 30
0.0
 40
3.3535574453881161
 50
359.0873153277809138
 51
2.048989380362332
  0
ARC
  5
C4CE
  8
0
 10
7388.4796620207025626
 20
2008.4557195740189854
 30
0.0
 40
1.3228686813226289
 50
173.9058602424622109
 51
182.0489893803622863
  0
ARC
  5
C4CF
  8
0
 10
7387.7862790411054448
 20
2008.52974910915691
 30
0.0
 40
0.6255449914430687
 50
171.0641211904730881
 51
173.9058602424622109
  0
ARC
  5
C4D0
  8
0
 10
7387.1845200619636671
 20
2008.624368152507941
 30
0.0
 40
0.0163926030034813
 50
150.211594989357593
 51
171.064121190460213
  0
ARC
  5
C4D1
  8
0
 10
7387.1716759179353176
 20
2008.6317206117309979
 30
0.0
 40
0.0015929174508907
 50
101.8702050249788016
 51
150.2115949892865103
  0
ARC
  5
C4D2
  8
0
 10
7387.1713331956398179
 20
2008.6324122861879005
 30
0.0
 40
0.0008673110555405
 50
50.5376905041617093
 51
89.0046264821426121
  0
ARC
  5
C4D3
  8
0
 10
7387.1697821982616006
 20
2008.6305282521670961
 30
0.0
 40
0.00330763420144
 50
18.3006988111464892
 51
50.5376905041617093
  0
ARC
  5
C4D4
  8
0
 10
7387.0981801410662229
 20
2008.6068471669821065
 30
0.0
 40
0.078724133657262
 50
13.2132347852834702
 51
18.3006988111464892
  0
ARC
  5
C4D5
  8
0
 10
7387.0499303058013538
 20
2008.595518511265027
 30
0.0
 40
0.1282860650507846
 50
1.5656509678498081
 51
13.2132347852834702
  0
ARC
  5
C4D6
  8
0
 10
7371.238802158452927
 20
2008.16335978049392
 30
0.0
 40
15.9453191136497008
 50
0.3259580100459305
 51
1.5656509678498081
  0
ARC
  5
C4D7
  8
0
 10
7386.2066708634720271
 20
2008.2485135104091114
 30
0.0
 40
0.9772081864676398
 50
354.952047231584686
 51
0.3259580100459305
  0
ARC
  5
C4D8
  8
0
 10
7380.0940470588748212
 20
2009.8660124059479131
 30
0.0
 40
7.5457955095554592
 50
355.5637636682137099
 51
0.9139209681553351
  0
ARC
  5
C4D9
  8
0
 10
7385.5259697222390969
 20
2009.4445928444099536
 30
0.0
 40
2.0975500793631801
 50
349.6459335579781964
 51
355.5637636682137099
  0
ARC
  5
C4DA
  8
0
 10
7387.1022252382463193
 20
2009.1566018672278915
 30
0.0
 40
0.4952017231444169
 50
340.8198786314226822
 51
349.6459335579781964
  0
ARC
  5
C4DB
  8
0
 10
7387.478035259859098
 20
2009.0258771518799676
 30
0.0
 40
0.0973045963033884
 50
325.2891422556754151
 51
340.8198786314226822
  0
ARC
  5
C4DC
  8
0
 10
7387.5405673943068905
 20
2008.9825603151609812
 30
0.0
 40
0.0212347850641191
 50
281.8693679983205129
 51
325.2891422556754151
  0
ARC
  5
C4DD
  8
0
 10
7387.5456872190252398
 20
2008.975303763598049
 30
0.0
 40
0.0135451183004434
 50
225.3427389142109121
 51
266.816422399205976
  0
ARC
  5
C4DE
  8
0
 10
7387.5896626826397551
 20
2009.0150001922299907
 30
0.0
 40
0.072769443496994
 50
197.8022911746380998
 51
222.6808192163281888
  0
ARC
  5
C4DF
  8
0
 10
7388.2908040356624042
 20
2009.2361423372890386
 30
0.0
 40
0.8079576768473261
 50
187.0974339049436139
 51
197.5321716516625088
  0
ARC
  5
C4E0
  8
0
 10
7392.2790727132833126
 20
2009.7327260692979962
 30
0.0
 40
4.8270225491510432
 50
184.4540796152604116
 51
187.0974339049436139
  0
ARC
  5
C4E1
  8
0
 10
7393.2330824568680328
 20
2009.8070389744200384
 30
0.0
 40
5.7839222297459694
 50
178.8297382629237973
 51
184.4540796152604116
  0
ARC
  5
C4E2
  8
0
 10
7402.1585883904026559
 20
2009.624710870906938
 30
0.0
 40
14.7112902465182493
 50
177.0612949233909035
 51
178.8297382629237973
  0
ARC
  5
C4E3
  8
0
 10
7389.7350002275452425
 20
2010.2624770427280509
 30
0.0
 40
2.271342958438253
 50
170.1736758943931989
 51
177.0612949233909035
  0
ARC
  5
C4E4
  8
0
 10
7388.1845276042913611
 20
2010.5310238322228997
 30
0.0
 40
0.6977856084802342
 50
162.8941912109868042
 51
170.1736758943931989
  0
ARC
  5
C4E5
  8
0
 10
7387.6265573215378026
 20
2010.7027398288009863
 30
0.0
 40
0.1139900792781291
 50
146.7044307108355099
 51
162.8941912109868042
  0
ARC
  5
C4E6
  8
0
 10
7387.5509223644612575
 20
2010.7524143371340415
 30
0.0
 40
0.023501386558206
 50
108.9422601957555941
 51
146.7044307108355099
  0
ARC
  5
C4E7
  8
0
 10
7387.5449820070962232
 20
2010.7642672009999387
 30
0.0
 40
0.0105123303168362
 50
58.3260769008512412
 51
99.2432323428042906
  0
ARC
  5
C4E8
  8
0
 10
7387.5352479355060495
 20
2010.7490504755589882
 30
0.0
 40
0.0285752497390699
 50
28.5303512635475407
 51
57.736333783102431
  0
ARC
  5
C4E9
  8
0
 10
7387.3825870184746236
 20
2010.6660576211720581
 30
0.0
 40
0.2023370679512115
 50
12.6708861839634608
 51
28.5303512635475407
  0
ARC
  5
C4EA
  8
0
 10
7385.0404015249687291
 20
2010.1394737635339425
 30
0.0
 40
2.602987697490355
 50
356.6279981503591898
 51
12.6708861839634608
  0
ARC
  5
C4EB
  8
0
 10
7385.9787235776493617
 20
2008.7381213108160409
 30
0.0
 40
1.0991490926861689
 50
354.1058887827646231
 51
357.7560385624668129
  0
ARC
  5
C4EC
  8
0
 10
7386.9077078710570277
 20
2008.643626680071975
 30
0.0
 40
0.1653782550636562
 50
348.1806183234314744
 51
353.619946551021485
  0
ARC
  5
C4ED
  8
0
 10
7387.0432649920412587
 20
2008.6152594618999956
 30
0.0
 40
0.026884817978006
 50
337.8443149335251974
 51
348.1806183234187984
  0
ARC
  5
C4EE
  8
0
 10
7387.0633480380420224
 20
2008.6070818368530126
 30
0.0
 40
0.0052006696627794
 50
317.6770536307425914
 51
337.8443149334934787
  0
ARC
  5
C4EF
  8
0
 10
7387.0665226057699329
 20
2008.6041908775800948
 30
0.0
 40
0.0009070085471531
 50
262.1363476452020222
 51
317.6770536306593726
  0
ARC
  5
C4F0
  8
0
 10
7387.0667568733269945
 20
2008.6045980345791122
 30
0.0
 40
0.0013539236071953
 50
215.8143503335888909
 51
254.6518643149003935
  0
ARC
  5
C4F1
  8
0
 10
7387.0801426759708193
 20
2008.6124267312720804
 30
0.0
 40
0.016855241594932
 50
189.9154298975971074
 51
210.7618323485687029
  0
ARC
  5
C4F2
  8
0
 10
7387.4767686085051537
 20
2008.6817591088320114
 30
0.0
 40
0.4194954146221926
 50
186.9640167294697051
 51
189.9154298975971074
  0
ARC
  5
C4F3
  8
0
 10
7387.7512029193367198
 20
2008.7152804682309579
 30
0.0
 40
0.6959694143007864
 50
180.0557116686894119
 51
186.9640167294697051
  0
ARC
  5
C4F4
  8
0
 10
7382.9417993550723622
 20
2008.8639307206999547
 30
0.0
 40
4.1386761031930863
 50
357.6618485484464145
 51
0.5874914642656091
  0
ARC
  5
C4F5
  8
0
 10
7382.9183199033268465
 20
2008.8636899619380074
 30
0.0
 40
4.162156789278896
 50
0.5874914642656091
 51
2.9958664616984718
  0
ARC
  5
C4F6
  8
0
 10
7386.6808801498918911
 20
2009.0606051987690535
 30
0.0
 40
0.3944472437412303
 50
2.9958664616984718
 51
9.0801480836291173
  0
ARC
  5
C4F7
  8
0
 10
7387.0312572450666266
 20
2009.1166020099140042
 30
0.0
 40
0.0396236936743376
 50
9.0801480836291173
 51
23.9040324656016203
  0
ARC
  5
C4F8
  8
0
 10
7387.0665135620647561
 20
2009.1321812402240994
 30
0.0
 40
0.0010795375826319
 50
26.1942745843742912
 51
102.3848304286851061
  0
ARC
  5
C4F9
  8
0
 10
7387.0669852081136924
 20
2009.1316666920110947
 30
0.0
 40
0.0017193349133895
 50
114.1410738376307989
 51
146.5832273403194961
  0
ARC
  5
C4FA
  8
0
 10
7387.0764857916637993
 20
2009.1258945245099312
 30
0.0
 40
0.0128349100658349
 50
148.4328227480285989
 51
167.7241919429824861
  0
ARC
  5
C4FB
  8
0
 10
7387.2512449738387659
 20
2009.0878681498600145
 30
0.0
 40
0.1916833848246695
 50
167.7241919429824861
 51
173.9332891956248091
  0
ARC
  5
C4FC
  8
0
 10
7387.8632789008870532
 20
2009.0228202261259867
 30
0.0
 40
0.807164302677097
 50
173.9332891956248091
 51
177.2458081180010936
  0
ARC
  5
C4FD
  8
0
 10
7391.0110507286517532
 20
2008.8713910728959036
 30
0.0
 40
3.9585764096724438
 50
177.2458081180010936
 51
178.465268243253405
  0
ARC
  5
C4FE
  8
0
 10
7391.174661570706121
 20
2008.8670075244290274
 30
0.0
 40
4.1222459643688163
 50
178.465268243253405
 51
182.118768294311991
  0
ARC
  5
C4FF
  8
0
 10
7387.2640317433197197
 20
2009.8025461799479672
 30
0.0
 40
0.0340352070784844
 50
326.707836001709893
 51
343.3907866949962795
  0
ARC
  5
C500
  8
0
 10
7387.2881490833806311
 20
2009.7867087697709394
 30
0.0
 40
0.0051826568859806
 50
301.629132217596009
 51
326.707836001709893
  0
ARC
  5
C501
  8
0
 10
7387.2888589823978691
 20
2009.785556158944928
 30
0.0
 40
0.0038289699453515
 50
281.8132703886578838
 51
301.629132217596009
  0
ARC
  5
C502
  8
0
 10
7387.289259020544705
 20
2009.7844717862469679
 30
0.0
 40
0.0026910153724105
 50
236.4571950764866131
 51
278.2004346062013269
  0
ARC
  5
C503
  8
0
 10
7387.2920166569638241
 20
2009.7886313651829369
 30
0.0
 40
0.0076816721976647
 50
206.2449181519197907
 51
236.4571950764793939
  0
ARC
  5
C504
  8
0
 10
7387.3694534973983536
 20
2009.8268104506551026
 30
0.0
 40
0.0940188416200596
 50
202.3152810927880978
 51
206.2449181519315005
  0
ARC
  5
C505
  8
0
 10
7387.5187974767741252
 20
2009.8641516758459602
 30
0.0
 40
0.2473515913738025
 50
186.164230592696299
 51
197.1749280866563936
  0
ARC
  5
C506
  8
0
 10
7408.2594215681674541
 20
2012.1042043187969739
 30
0.0
 40
21.1085913326656787
 50
185.9322293116848073
 51
186.164230592696299
  0
ARC
  5
C507
  8
0
 10
7390.6128842630751024
 20
2010.2705791819039405
 30
0.0
 40
3.3670451767459189
 50
179.2906512812384108
 51
185.9322293116848073
  0
ARC
  5
C508
  8
0
 10
7402.9624391293682493
 20
2010.6780125531249723
 30
0.0
 40
15.7205972581171896
 50
177.7806578010331862
 51
181.3331398976534103
  0
ARC
  5
C509
  8
0
 10
7390.6795940626889205
 20
2011.1551281940799072
 30
0.0
 40
3.428489355475274
 50
173.7169092227948966
 51
177.7990878229782936
  0
ARC
  5
C50A
  8
0
 10
7387.5925703023913229
 20
2011.4968866316899039
 30
0.0
 40
0.3226114103598965
 50
164.4327439831733955
 51
174.0470216123771934
  0
ARC
  5
C50B
  8
0
 10
7387.3129038248962388
 20
2011.5747986566530017
 30
0.0
 40
0.0322949928627002
 50
147.0883214547446016
 51
164.4327439831733955
  0
ARC
  5
C50C
  8
0
 10
7387.2905286253653685
 20
2011.5892802926989589
 30
0.0
 40
0.0056422756166007
 50
102.9335189504990069
 51
147.0883214547336024
  0
ARC
  5
C50D
  8
0
 10
7387.2890191632850474
 20
2011.5910715562110909
 30
0.0
 40
0.0037160606180665
 50
34.9328422473780122
 51
86.1949813868626649
  0
ARC
  5
C50E
  8
0
 10
7387.2448617657719296
 20
2011.560229284757952
 30
0.0
 40
0.0575781202094677
 50
31.3196600996764793
 51
34.9328422473780122
  0
ARC
  5
C50F
  8
0
 10
7386.9771729656677053
 20
2011.4895330962569915
 30
0.0
 40
0.3324701700338281
 50
4.6719658839042522
 51
17.6175441122210685
  0
ARC
  5
C510
  8
0
 10
7380.1391183629721127
 20
2010.8620665239350274
 30
0.0
 40
7.1992371588581339
 50
358.7703352485049777
 51
5.2164715613956307
  0
ARC
  5
C511
  8
0
 10
7297.9363716392372226
 20
2012.6265480166689485
 30
0.0
 40
89.4209189943969989
 50
358.291305047319895
 51
358.7703352485049777
  0
ARC
  5
C512
  8
0
 10
7386.4221603732639778
 20
2009.9869110172319324
 30
0.0
 40
0.8957672499824809
 50
347.4859774737033717
 51
358.291305047319895
  0
ARC
  5
C513
  8
0
 10
7370.376750651364091
 20
2011.4903817777949371
 30
0.0
 40
16.7896298820276613
 50
358.7454805466267089
 51
0.6577804294402297
  0
ARC
  5
C514
  8
0
 10
7377.9535739667098824
 20
2011.3244569645050888
 30
0.0
 40
9.2109899911490221
 50
356.5318530189110788
 51
358.7454805466267089
  0
ARC
  5
C515
  8
0
 10
7385.2566762321048373
 20
2010.881855231911004
 30
0.0
 40
1.8944881636013451
 50
352.6487880355767857
 51
356.5318530189110788
  0
ARC
  5
C516
  8
0
 10
7386.7697763437699905
 20
2010.6866478502840891
 30
0.0
 40
0.3688480127905584
 50
345.7782711484375113
 51
352.6487880355767857
  0
ARC
  5
C517
  8
0
 10
7387.0833736792001218
 20
2010.6071689695329496
 30
0.0
 40
0.045335754485438
 50
330.3555492367826787
 51
345.7782711484375113
  0
ARC
  5
C518
  8
0
 10
7387.1163515652169735
 20
2010.5884010667850816
 30
0.0
 40
0.0073913854725591
 50
302.1914066649055144
 51
330.3555492367826787
  0
ARC
  5
C519
  8
0
 10
7387.1190155062004123
 20
2010.5841693929039593
 30
0.0
 40
0.0023910209467511
 50
268.2019962589280908
 51
302.1914066649055144
  0
ARC
  5
C51A
  8
0
 10
7387.1190407874710218
 20
2010.5849747497370572
 30
0.0
 40
0.0031967744887273
 50
224.0100923326203883
 51
268.2019962589280908
  0
ARC
  5
C51B
  8
0
 10
7387.1280997563690107
 20
2010.5937259785901006
 30
0.0
 40
0.0157923659367097
 50
200.5976107047603136
 51
224.0100923326297959
  0
ARC
  5
C51C
  8
0
 10
7387.235121727778278
 20
2010.6339477996259575
 30
0.0
 40
0.1301230147220629
 50
193.9214765884709948
 51
200.5976107047603136
  0
ARC
  5
C51D
  8
0
 10
7387.5397284361779384
 20
2010.7094515207520544
 30
0.0
 40
0.4439479001389325
 50
181.9381640719421114
 51
193.9214765884709948
  0
ARC
  5
C51E
  8
0
 10
7394.0746018647860183
 20
2011.2600494291900759
 30
0.0
 40
7.0014512713972517
 50
180.0768692263972071
 51
184.6336921122924082
  0
ARC
  5
C51F
  8
0
 10
7401.8964208750358011
 20
2011.4857481721269323
 30
0.0
 40
14.8251281040422107
 50
177.5722732196404081
 51
180.9086158240270095
  0
ARC
  5
C520
  8
0
 10
7390.353945439904237
 20
2011.9751168301609141
 30
0.0
 40
3.2722833957419768
 50
174.2734027937513872
 51
177.5722732196404081
  0
ARC
  5
C521
  8
0
 10
7381.9207993261779848
 20
2011.7773760589429912
 30
0.0
 40
5.2453215415632561
 50
358.9704722112139734
 51
5.7859036469186904
  0
ARC
  5
C522
  8
0
 10
7386.7333890189438534
 20
2012.2768428158849474
 30
0.0
 40
0.4070672226829188
 50
4.1307415353294079
 51
15.5227342721840902
  0
ARC
  5
C523
  8
0
 10
7387.1063273896952524
 20
2012.3804271552780847
 30
0.0
 40
0.0200107103420485
 50
15.5227342721840902
 51
40.1359787054276111
  0
ARC
  5
C524
  8
0
 10
7387.1185001587864463
 20
2012.3908055606059406
 30
0.0
 40
0.0040154254668758
 50
38.8823347949669227
 51
81.1205574147320903
  0
ARC
  5
C525
  8
0
 10
7387.1189409026155772
 20
2012.3921346438869477
 30
0.0
 40
0.0026442884864377
 50
86.1172613573973393
 51
118.0953239008661058
  0
ARC
  5
C526
  8
0
 10
7387.1201506753259309
 20
2012.3898684958251124
 30
0.0
 40
0.0052131359023862
 50
118.0953239008722022
 51
140.3114071120658934
  0
ARC
  5
C527
  8
0
 10
7387.1308277098996768
 20
2012.3810078412159328
 30
0.0
 40
0.0190879428344658
 50
140.311407112055889
 51
163.1234379802648959
  0
ARC
  5
C528
  8
0
 10
7387.4441629129341891
 20
2012.2859493181229027
 30
0.0
 40
0.3465250700403113
 50
163.1234379802648959
 51
177.4062987233652962
  0
ARC
  5
C529
  8
0
 10
7382.8611846528092428
 20
2013.8644758385189562
 30
0.0
 40
4.219247371901532
 50
357.7006142179309904
 51
0.3431516751234662
  0
ARC
  5
C52A
  8
0
 10
7385.8918119384788952
 20
2013.742785813853061
 30
0.0
 40
1.186177935381644
 50
354.6041121482650738
 51
357.7006142179309904
  0
ARC
  5
C52B
  8
0
 10
7386.8483208664902122
 20
2013.6524383614789713
 30
0.0
 40
0.2254115790217365
 50
349.9466836592529262
 51
354.6041121482650738
  0
ARC
  5
C52C
  8
0
 10
7387.0196692641002301
 20
2013.6220605839230302
 30
0.0
 40
0.0513912275308242
 50
341.1048402570269218
 51
349.9466836592529262
  0
ARC
  5
C52D
  8
0
 10
7387.0632413569646815
 20
2013.6071466344139935
 30
0.0
 40
0.0053374202338588
 50
320.3833599163450003
 51
341.1048402570269218
  0
ARC
  5
C52E
  8
0
 10
7387.0662380744797701
 20
2013.6046660677830005
 30
0.0
 40
0.0014472368603404
 50
290.8424231073432793
 51
320.3833599162514929
  0
ARC
  5
C52F
  8
0
 10
7387.0665326288326469
 20
2013.6038923741359667
 30
0.0
 40
0.0006193696442195
 50
249.0988442699386098
 51
290.8424231071160762
  0
ARC
  5
C530
  8
0
 10
7387.0668259904550723
 20
2013.6046605657820692
 30
0.0
 40
0.0014416709548343
 50
220.8104107300414967
 51
249.0988442698271967
  0
ARC
  5
C531
  8
0
 10
7387.0740585250478034
 20
2013.6095667271220009
 30
0.0
 40
0.0101728814319641
 50
194.370944162769888
 51
215.0925440334989105
  0
ARC
  5
C532
  8
0
 10
7387.4705243433345458
 20
2013.6859905184619493
 30
0.0
 40
0.4139192526357756
 50
180.410691514946194
 51
190.9956526155218057
  0
ARC
  5
C533
  8
0
 10
7373.8957880593197842
 20
2013.5886862398799622
 30
0.0
 40
13.1611657674719797
 50
0.4106915149462616
 51
1.424155383630455
  0
ARC
  5
C534
  8
0
 10
7388.2680612330314034
 20
2013.9459999330779283
 30
0.0
 40
1.2155483652874359
 50
175.8364806407006995
 51
181.4241553836303922
  0
ARC
  5
C535
  8
0
 10
7375.2471614735732146
 20
2014.8938602182358864
 30
0.0
 40
11.8398056960160591
 50
355.8364806407006995
 51
356.2166525420258267
  0
ARC
  5
C536
  8
0
 10
7387.1378517820321576
 20
2014.1075525489470692
 30
0.0
 40
0.0768547322425032
 50
163.5762624626231059
 51
176.2166525420257983
  0
ARC
  5
C537
  8
0
 10
7387.0796885063573427
 20
2014.1246971193579611
 30
0.0
 40
0.0162172608921474
 50
151.1779073853784041
 51
163.5762624626231059
  0
ARC
  5
C538
  8
0
 10
7387.0669380544522937
 20
2014.1317131432940641
 30
0.0
 40
0.0016639583243402
 50
117.9831725379457055
 51
151.177907385401312
  0
ARC
  5
C539
  8
0
 10
7387.0665370867109232
 20
2014.1324677885329493
 30
0.0
 40
0.0008094031374716
 50
81.1490204600979723
 51
117.9831725378353013
  0
ARC
  5
C53A
  8
0
 10
7387.0665258034396174
 20
2014.1323953295320734
 30
0.0
 40
0.0008827353885775
 50
43.5653036067570625
 51
81.149020460256466
  0
ARC
  5
C53B
  8
0
 10
7387.0637170275631433
 20
2014.1297238099059541
 30
0.0
 40
0.0047591047005174
 50
30.3056473393556516
 51
43.5653036067664914
  0
ARC
  5
C53C
  8
0
 10
7387.0595241419741797
 20
2014.1272731309720712
 30
0.0
 40
0.0096156587050124
 50
12.4267029501205108
 51
30.3056473393668995
  0
ARC
  5
C53D
  8
0
 10
7386.8411401657913302
 20
2014.0791515900079958
 30
0.0
 40
0.2332386534035417
 50
2.682345491560711
 51
12.4267029501077904
  0
ARC
  5
C53E
  8
0
 10
7393.5843614811810767
 20
2014.1923777237200284
 30
0.0
 40
6.5110420892840137
 50
180.9003509159281009
 51
182.6640605520580039
  0
ARC
  5
C53F
  8
0
 10
7386.7394972589809186
 20
2019.5538276131730981
 30
0.0
 40
0.4416053679491741
 50
2.6142908324663829
 51
9.27585412218294
  0
ARC
  5
C540
  8
0
 10
7387.1459093391858914
 20
2019.6202042906409133
 30
0.0
 40
0.0298085221045587
 50
9.27585412218294
 51
21.1860767276127504
  0
ARC
  5
C541
  8
0
 10
7387.1655323985851282
 20
2019.6274607909469978
 30
0.0
 40
0.0088952325757723
 50
23.2843663716055893
 51
38.0306202735529411
  0
ARC
  5
C542
  8
0
 10
7387.1718295900982412
 20
2019.6321887174769927
 30
0.0
 40
0.0010340152634545
 50
46.6792097617694566
 51
85.9606498231240153
  0
ARC
  5
C543
  8
0
 10
7387.1718589632700969
 20
2019.6326046679710089
 30
0.0
 40
0.0006170289363009
 50
85.9606498234377341
 51
123.8212621683222068
  0
ARC
  5
C544
  8
0
 10
7387.1729769782759831
 20
2019.6309359370209222
 30
0.0
 40
0.0026256654230697
 50
123.8212621683800023
 51
137.1674466202998133
  0
ARC
  5
C545
  8
0
 10
7387.1766007345231628
 20
2019.628556880431006
 30
0.0
 40
0.0069378992551611
 50
143.1156811267119053
 51
160.431543616412398
  0
ARC
  5
C546
  8
0
 10
7387.2216148279785557
 20
2019.613439586604045
 30
0.0
 40
0.0544217155792302
 50
161.3080965243404989
 51
172.6754024528221123
  0
ARC
  5
C547
  8
0
 10
7433.2845086203642495
 20
2013.6925459991480238
 30
0.0
 40
46.4962903838692228
 50
172.6754024528221123
 51
172.6939045015813861
  0
ARC
  5
C548
  8
0
 10
7387.8871959019352289
 20
2019.5129848680348914
 30
0.0
 40
0.7273761441655021
 50
172.6939045015813861
 51
180.912684672219001
  0
ARC
  5
C549
  8
0
 10
7383.8067800581975462
 20
2019.4479809872439091
 30
0.0
 40
3.3535574453881161
 50
357.9510106196376
 51
0.9126846722190372
  0
ARC
  5
C54A
  8
0
 10
7388.4802161796806104
 20
2019.2807800990979104
 30
0.0
 40
1.3228686813226289
 50
177.9510106196377137
 51
186.0941397575377891
  0
ARC
  5
C54B
  8
0
 10
7387.7868332000853115
 20
2019.2067505639608953
 30
0.0
 40
0.6255449914430687
 50
186.0941397575377891
 51
188.9358788095269119
  0
ARC
  5
C54C
  8
0
 10
7387.1850742209426244
 20
2019.1121315206089548
 30
0.0
 40
0.0163926030034813
 50
188.935878809539787
 51
209.7884050106422933
  0
ARC
  5
C54D
  8
0
 10
7387.1722300769151843
 20
2019.1047790613870347
 30
0.0
 40
0.0015929174508907
 50
209.7884050107134044
 51
258.1297949750211842
  0
ARC
  5
C54E
  8
0
 10
7387.1718873546178656
 20
2019.1040873869299048
 30
0.0
 40
0.0008673110555405
 50
270.9953735178573879
 51
309.4623094958383263
  0
ARC
  5
C54F
  8
0
 10
7387.1703363572396484
 20
2019.1059714209500271
 30
0.0
 40
0.00330763420144
 50
309.4623094958383263
 51
341.6993011888536103
  0
ARC
  5
C550
  8
0
 10
7387.0987343000451801
 20
2019.1296525061350167
 30
0.0
 40
0.078724133657262
 50
341.6993011888536103
 51
346.7867652147165245
  0
ARC
  5
C551
  8
0
 10
7387.0504844647812206
 20
2019.1409811618530057
 30
0.0
 40
0.1282860650507846
 50
346.7867652147165245
 51
358.4343490321501804
  0
ARC
  5
C552
  8
0
 10
7371.2393563174309747
 20
2019.5731398926229758
 30
0.0
 40
15.9453191136497008
 50
358.4343490321501804
 51
359.6740419899539916
  0
ARC
  5
C553
  8
0
 10
7386.2072250224509844
 20
2019.4879861627080118
 30
0.0
 40
0.9772081864676398
 50
359.6740419899539916
 51
5.0479527684152536
  0
ARC
  5
C554
  8
0
 10
7380.0946012178537785
 20
2017.8704872671689827
 30
0.0
 40
7.5457955095554592
 50
359.0860790318446902
 51
4.4362363317863567
  0
ARC
  5
C555
  8
0
 10
7385.5265238812171447
 20
2018.2919068287069422
 30
0.0
 40
2.0975500793631801
 50
4.4362363317863567
 51
10.3540664420218107
  0
ARC
  5
C556
  8
0
 10
7387.1027793972225481
 20
2018.5798978058890043
 30
0.0
 40
0.4952017231444169
 50
10.3540664420218107
 51
19.1801213685773
  0
ARC
  5
C557
  8
0
 10
7387.4785894188371458
 20
2018.7106225212369282
 30
0.0
 40
0.0973045963033884
 50
19.1801213685773
 51
34.7108577443246205
  0
ARC
  5
C558
  8
0
 10
7387.5411215532867573
 20
2018.7539393579559146
 30
0.0
 40
0.0212347850641191
 50
34.7108577443246205
 51
78.1306320016794444
  0
ARC
  5
C559
  8
0
 10
7387.5462413780032875
 20
2018.7611959095190741
 30
0.0
 40
0.0135451183004434
 50
93.1835776007939955
 51
134.6572610857890879
  0
ARC
  5
C55A
  8
0
 10
7387.5902168416168934
 20
2018.7214994808869051
 30
0.0
 40
0.072769443496994
 50
137.3191807836718112
 51
162.1977088253617865
  0
ARC
  5
C55B
  8
0
 10
7388.2913581946413615
 20
2018.5003573358280846
 30
0.0
 40
0.8079576768473261
 50
162.4678283483374912
 51
172.9025660950563861
  0
ARC
  5
C55C
  8
0
 10
7392.2796268722622699
 20
2018.0037736038188996
 30
0.0
 40
4.8270225491510432
 50
172.9025660950563861
 51
175.5459203847395884
  0
ARC
  5
C55D
  8
0
 10
7393.2336366158460805
 20
2017.9294606986979943
 30
0.0
 40
5.7839222297459694
 50
175.5459203847395884
 51
181.170261737076089
  0
ARC
  5
C55E
  8
0
 10
7402.1591425493807037
 20
2018.1117888022099578
 30
0.0
 40
14.7112902465182493
 50
181.170261737076089
 51
182.9387050766090965
  0
ARC
  5
C55F
  8
0
 10
7389.7355543865232903
 20
2017.4740226303890722
 30
0.0
 40
2.271342958438253
 50
182.9387050766090965
 51
189.8263241056068011
  0
ARC
  5
C560
  8
0
 10
7388.1850817632694088
 20
2017.2054758408939961
 30
0.0
 40
0.6977856084802342
 50
189.8263241056068011
 51
197.1058087890131105
  0
ARC
  5
C561
  8
0
 10
7387.6271114805158504
 20
2017.0337598443170464
 30
0.0
 40
0.1139900792781291
 50
197.1058087890131105
 51
213.2955692891644048
  0
ARC
  5
C562
  8
0
 10
7387.5514765234402148
 20
2016.9840853359830817
 30
0.0
 40
0.023501386558206
 50
213.2955692891644048
 51
251.0577398042443065
  0
ARC
  5
C563
  8
0
 10
7387.545536166074271
 20
2016.9722324721169571
 30
0.0
 40
0.0105123303168362
 50
260.7567676571957804
 51
301.6739230991486806
  0
ARC
  5
C564
  8
0
 10
7387.5358020944840973
 20
2016.9874491975579076
 30
0.0
 40
0.0285752497390699
 50
302.2636662168974908
 51
331.4696487364524842
  0
ARC
  5
C565
  8
0
 10
7387.3831411774508524
 20
2017.0704420519459745
 30
0.0
 40
0.2023370679512115
 50
331.4696487364524842
 51
347.3291138160366245
  0
ARC
  5
C566
  8
0
 10
7385.0409556839476863
 20
2017.5970259095829533
 30
0.0
 40
2.602987697490355
 50
347.3291138160366245
 51
3.3720018496408208
  0
ARC
  5
C567
  8
0
 10
7385.979277736628319
 20
2018.9983783623010822
 30
0.0
 40
1.0991490926861689
 50
2.2439614375202601
 51
5.8941112172354373
  0
ARC
  5
C568
  8
0
 10
7386.9082620300350754
 20
2019.0928729930449208
 30
0.0
 40
0.1653782550636562
 50
6.3800534489784733
 51
11.81938167656849
  0
ARC
  5
C569
  8
0
 10
7387.043819151016578
 20
2019.1212402112169002
 30
0.0
 40
0.026884817978006
 50
11.8193816765812407
 51
22.15568506647476
  0
ARC
  5
C56A
  8
0
 10
7387.0639021970200702
 20
2019.1294178362641105
 30
0.0
 40
0.0052006696627794
 50
22.1556850665064715
 51
42.3229463692573589
  0
ARC
  5
C56B
  8
0
 10
7387.0670767647479806
 20
2019.1323087955370283
 30
0.0
 40
0.0009070085471531
 50
42.3229463693406203
 51
97.8636523547979351
  0
ARC
  5
C56C
  8
0
 10
7387.0673110323050423
 20
2019.1319016385389205
 30
0.0
 40
0.0013539236071953
 50
105.3481356850996065
 51
144.1856496664111091
  0
ARC
  5
C56D
  8
0
 10
7387.080696834948867
 20
2019.1240729418450428
 30
0.0
 40
0.016855241594932
 50
149.2381676514312971
 51
170.0845701024028926
  0
ARC
  5
C56E
  8
0
 10
7387.477322767482292
 20
2019.0547405642860213
 30
0.0
 40
0.4194954146221926
 50
170.0845701024028926
 51
173.0359832705302097
  0
ARC
  5
C56F
  8
0
 10
7387.7517570783156771
 20
2019.0212192048870747
 30
0.0
 40
0.6959694143007864
 50
173.0359832705302097
 51
179.9442883313105028
  0
ARC
  5
C570
  8
0
 10
7382.942353514048591
 20
2018.8725689524169411
 30
0.0
 40
4.1386761031930863
 50
359.4125085357343892
 51
2.3381514515536308
  0
ARC
  5
C571
  8
0
 10
7382.9188740623039848
 20
2018.8728097111788884
 30
0.0
 40
4.162156789278896
 50
357.0041335383015166
 51
359.4125085357343892
  0
ARC
  5
C572
  8
0
 10
7386.6814343088699388
 20
2018.6758944743480697
 30
0.0
 40
0.3944472437412303
 50
350.9198519163708738
 51
357.0041335383015166
  0
ARC
  5
C573
  8
0
 10
7387.0318114040455839
 20
2018.6198976632028916
 30
0.0
 40
0.0396236936743376
 50
336.0959675343984259
 51
350.9198519163708738
  0
ARC
  5
C574
  8
0
 10
7387.0670677210428039
 20
2018.6043184328930238
 30
0.0
 40
0.0010795375826319
 50
257.6151695713148797
 51
333.8057254156257159
  0
ARC
  5
C575
  8
0
 10
7387.0675393670917401
 20
2018.6048329811060285
 30
0.0
 40
0.0017193349133895
 50
213.4167726596805039
 51
245.8589261623691868
  0
ARC
  5
C576
  8
0
 10
7387.0770399506427566
 20
2018.6106051486069646
 30
0.0
 40
0.0128349100658349
 50
192.27580805703019
 51
211.5671772519714011
  0
ARC
  5
C577
  8
0
 10
7387.2517991328159042
 20
2018.6486315232571087
 30
0.0
 40
0.1916833848246695
 50
186.0667108043622022
 51
192.2758080570175139
  0
ARC
  5
C578
  8
0
 10
7387.8638330598641915
 20
2018.7136794469909091
 30
0.0
 40
0.807164302677097
 50
182.7541918819989064
 51
186.0667108043622022
  0
ARC
  5
C579
  8
0
 10
7391.0116048876298009
 20
2018.8651086002209922
 30
0.0
 40
3.9585764096724438
 50
181.5347317567465097
 51
182.7541918819989064
  0
ARC
  5
C57A
  8
0
 10
7391.1752157296832593
 20
2018.8694921486880958
 30
0.0
 40
4.1222459643688163
 50
177.881231705688009
 51
181.5347317567465097
  0
ARC
  5
C57B
  8
0
 10
7387.2645859022995865
 20
2017.9339534931689286
 30
0.0
 40
0.0340352070784844
 50
16.6092133050036992
 51
33.2921639982901212
  0
ARC
  5
C57C
  8
0
 10
7387.2887032423577693
 20
2017.9497909033459564
 30
0.0
 40
0.0051826568859806
 50
33.2921639982901212
 51
58.3708677824039981
  0
ARC
  5
C57D
  8
0
 10
7387.2894131413759169
 20
2017.9509435141731046
 30
0.0
 40
0.0038289699453515
 50
58.3708677824039981
 51
78.1867296113421588
  0
ARC
  5
C57E
  8
0
 10
7387.2898131795218433
 20
2017.9520278868710648
 30
0.0
 40
0.0026910153724105
 50
81.7995653937987157
 51
123.5428049235134011
  0
ARC
  5
C57F
  8
0
 10
7387.2925708159409623
 20
2017.9478683079350958
 30
0.0
 40
0.0076816721976647
 50
123.5428049235206061
 51
153.7550818480800956
  0
ARC
  5
C580
  8
0
 10
7387.3700076563745824
 20
2017.90968922246293
 30
0.0
 40
0.0940188416200596
 50
153.7550818480684995
 51
157.6847189072117885
  0
ARC
  5
C581
  8
0
 10
7387.519351635752173
 20
2017.8723479972709356
 30
0.0
 40
0.2473515913738025
 50
162.8250719133434927
 51
173.835769407303701
  0
ARC
  5
C582
  8
0
 10
7408.2599757271445924
 20
2015.6322953543199219
 30
0.0
 40
21.1085913326656787
 50
173.835769407303701
 51
174.0677706883151927
  0
ARC
  5
C583
  8
0
 10
7390.6134384220540596
 20
2017.4659204912129553
 30
0.0
 40
3.3670451767459189
 50
174.0677706883151927
 51
180.709348718761504
  0
ARC
  5
C584
  8
0
 10
7402.962993288348116
 20
2017.0584871199930603
 30
0.0
 40
15.7205972581171896
 50
178.6668601023465897
 51
182.2193421989667002
  0
ARC
  5
C585
  8
0
 10
7390.6801482216660588
 20
2016.5813714790369886
 30
0.0
 40
3.428489355475274
 50
182.2009121770215927
 51
186.2830907772051034
  0
ARC
  5
C586
  8
0
 10
7387.5931244613693707
 20
2016.2396130414279014
 30
0.0
 40
0.3226114103598965
 50
185.9529783876097895
 51
195.5672560168264908
  0
ARC
  5
C587
  8
0
 10
7387.3134579838751961
 20
2016.161701016465031
 30
0.0
 40
0.0322949928627002
 50
195.5672560168264908
 51
212.9116785452553984
  0
ARC
  5
C588
  8
0
 10
7387.2910827843443258
 20
2016.1472193804179369
 30
0.0
 40
0.0056422756166007
 50
212.9116785452663976
 51
257.0664810495010215
  0
ARC
  5
C589
  8
0
 10
7387.2895733222630952
 20
2016.1454281169060323
 30
0.0
 40
0.0037160606180665
 50
273.8050186131372925
 51
325.0671577526219949
  0
ARC
  5
C58A
  8
0
 10
7387.2454159247508869
 20
2016.1762703883589438
 30
0.0
 40
0.0575781202094677
 50
325.0671577526219949
 51
328.6803399003234745
  0
ARC
  5
C58B
  8
0
 10
7386.9777271246439341
 20
2016.2469665768599043
 30
0.0
 40
0.3324701700338281
 50
342.3824558877789173
 51
355.3280341160958073
  0
ARC
  5
C58C
  8
0
 10
7380.1396725219501604
 20
2016.8744331491820958
 30
0.0
 40
7.1992371588581339
 50
354.7835284386043782
 51
1.229664751494965
  0
ARC
  5
C58D
  8
0
 10
7386.4227145322429351
 20
2017.7495886558849634
 30
0.0
 40
0.8957672499824809
 50
1.708694952680041
 51
12.5140225262965892
  0
ARC
  5
C58E
  8
0
 10
7370.3773048103430483
 20
2016.2461178953230956
 30
0.0
 40
16.7896298820276613
 50
359.3422195705597915
 51
1.2545194533733519
  0
ARC
  5
C58F
  8
0
 10
7377.9541281256861112
 20
2016.4120427086120344
 30
0.0
 40
9.2109899911490221
 50
1.2545194533733519
 51
3.4681469810888261
  0
ARC
  5
C590
  8
0
 10
7385.2572303910819755
 20
2016.8546444412058918
 30
0.0
 40
1.8944881636013451
 50
3.4681469810888261
 51
7.3512119644231859
  0
ARC
  5
C591
  8
0
 10
7386.7703305027480383
 20
2017.049851822833034
 30
0.0
 40
0.3688480127905584
 50
7.3512119644231859
 51
14.2217288515624602
  0
ARC
  5
C592
  8
0
 10
7387.0839278381781696
 20
2017.129330703585083
 30
0.0
 40
0.045335754485438
 50
14.2217288515624602
 51
29.6444507632173391
  0
ARC
  5
C593
  8
0
 10
7387.1169057241950213
 20
2017.1480986063320415
 30
0.0
 40
0.0073913854725591
 50
29.6444507632173391
 51
57.8085933350944501
  0
ARC
  5
C594
  8
0
 10
7387.1195696651775506
 20
2017.1523302802129365
 30
0.0
 40
0.0023910209467511
 50
57.8085933350944501
 51
91.7980037410718666
  0
ARC
  5
C595
  8
0
 10
7387.1195949464490695
 20
2017.151524923380066
 30
0.0
 40
0.0031967744887273
 50
91.7980037410718666
 51
135.989907667379498
  0
ARC
  5
C596
  8
0
 10
7387.128653915346149
 20
2017.1427736945270226
 30
0.0
 40
0.0157923659367097
 50
135.9899076673702041
 51
159.4023892952396864
  0
ARC
  5
C597
  8
0
 10
7387.2356758867554163
 20
2017.1025518734909383
 30
0.0
 40
0.1301230147220629
 50
159.4023892952396864
 51
166.0785234115288915
  0
ARC
  5
C598
  8
0
 10
7387.5402825951568957
 20
2017.0270481523650687
 30
0.0
 40
0.4439479001389325
 50
166.0785234115288915
 51
178.0618359280578034
  0
ARC
  5
C599
  8
0
 10
7394.0751560237631566
 20
2016.4764502439270473
 30
0.0
 40
7.0014512713972517
 50
175.3663078877075918
 51
179.9231307736027077
  0
ARC
  5
C59A
  8
0
 10
7401.8969750340147584
 20
2016.2507515009899635
 30
0.0
 40
14.8251281040422107
 50
179.0913841759729053
 51
182.4277267803464895
  0
ARC
  5
C59B
  8
0
 10
7390.3544995988822848
 20
2015.7613828429559817
 30
0.0
 40
3.2722833957419768
 50
182.4277267803464895
 51
185.7265972062484991
  0
ARC
  5
C59C
  8
0
 10
7381.9213534851551231
 20
2015.9591236141750414
 30
0.0
 40
5.2453215415632561
 50
354.214096353081402
 51
1.029527788786055
  0
ARC
  5
C59D
  8
0
 10
7386.7339431779219012
 20
2015.4596568572319484
 30
0.0
 40
0.4070672226829188
 50
344.4772657278159045
 51
355.8692584646706223
  0
ARC
  5
C59E
  8
0
 10
7387.1068815486742096
 20
2015.356072517839948
 30
0.0
 40
0.0200107103420485
 50
319.8640212945724102
 51
344.4772657278159045
  0
ARC
  5
C59F
  8
0
 10
7387.1190543177626751
 20
2015.3456941125109552
 30
0.0
 40
0.0040154254668758
 50
278.8794425852678955
 51
321.1176652050331199
  0
ARC
  5
C5A0
  8
0
 10
7387.119495061593625
 20
2015.344365029229948
 30
0.0
 40
0.0026442884864377
 50
241.9046760991338942
 51
273.8827386426027033
  0
ARC
  5
C5A1
  8
0
 10
7387.1207048343039787
 20
2015.3466311772920108
 30
0.0
 40
0.0052131359023862
 50
219.6885928879341066
 51
241.904676099127812
  0
ARC
  5
C5A2
  8
0
 10
7387.1313818688768151
 20
2015.355491831900963
 30
0.0
 40
0.0190879428344658
 50
196.8765620197349904
 51
219.688592887944111
  0
ARC
  5
C5A3
  8
0
 10
7387.4447170719113274
 20
2015.4505503549939931
 30
0.0
 40
0.3465250700403113
 50
182.5937012766345902
 51
196.8765620197349904
  0
ARC
  5
C5A4
  8
0
 10
7373.7873599786789782
 20
2017.055336831816021
 30
0.0
 40
13.5499174984634791
 50
359.8883351224226885
 51
3.050024581754037
  0
ARC
  5
C5A5
  8
0
 10
7368.9051043295767158
 20
2004.7822896171439879
 30
0.0
 40
2.704624540030359
 50
356.8936582214321902
 51
359.00758243806888
  0
ARC
  5
C5A6
  8
0
 10
7371.2384268010346204
 20
2004.6556623665310326
 30
0.0
 40
0.3678686228663532
 50
353.9437495745282831
 51
356.8936582214321902
  0
ARC
  5
C5A7
  8
0
 10
7371.4154229799678433
 20
2004.6368836138199185
 30
0.0
 40
0.189879047581786
 50
351.8309951191500886
 51
353.9437495745282831
  0
ARC
  5
C5A8
  8
0
 10
7371.5568836096272207
 20
2004.6165769342039766
 30
0.0
 40
0.0469683377629039
 50
347.7788479062033957
 51
351.8309951191500886
  0
ARC
  5
C5A9
  8
0
 10
7371.5832397324220437
 20
2004.610868353117894
 30
0.0
 40
0.0200010778572246
 50
340.8120269860576173
 51
347.7788479062160718
  0
ARC
  5
C5AA
  8
0
 10
7371.5994229439884293
 20
2004.6052365712969277
 30
0.0
 40
0.0028659296792614
 50
326.2774049710837971
 51
340.8120269860207259
  0
ARC
  5
C5AB
  8
0
 10
7371.6008630233382064
 20
2004.6042753370441005
 30
0.0
 40
0.0011345141241815
 50
301.5840274352040069
 51
326.2774049709789779
  0
ARC
  5
C5AC
  8
0
 10
7371.6013186663503802
 20
2004.6036210036209013
 30
0.0
 40
0.0003414999881796
 50
236.2299829083279974
 51
293.9369189836650094
  0
ARC
  5
C5AD
  8
0
 10
7371.6017200644600962
 20
2004.6041991394649813
 30
0.0
 40
0.0010452840277697
 50
210.5797385233144041
 51
235.5552983470223865
  0
ARC
  5
C5AE
  8
0
 10
7371.6058968677361918
 20
2004.6066673008149337
 30
0.0
 40
0.0058968307970097
 50
190.1963568352385892
 51
210.5797385233144041
  0
ARC
  5
C5AF
  8
0
 10
7371.9731162288517226
 20
2004.6616697146860133
 30
0.0
 40
0.3772100092463028
 50
181.8544903806570119
 51
188.5447087957560939
  0
ARC
  5
C5B0
  8
0
 10
7375.2649610724029117
 20
2004.8128464448379873
 30
0.0
 40
3.6724934328520109
 50
180.5826372275267033
 51
182.5498451425555118
  0
ARC
  5
C5B1
  8
0
 10
7377.279046463805571
 20
2004.8716622226579602
 30
0.0
 40
5.6872019543217132
 50
178.0356528235041935
 51
180.9688161158404114
  0
ARC
  5
C5B2
  8
0
 10
7372.7071662531989205
 20
2005.0284674955969422
 30
0.0
 40
1.1126334988551241
 50
175.8802390421801078
 51
178.0356528235041935
  0
ARC
  5
C5B3
  8
0
 10
7371.9221146979580226
 20
2005.0850128481249612
 30
0.0
 40
0.3255481659464516
 50
172.8815083558386902
 51
175.8802390421801078
  0
ARC
  5
C5B4
  8
0
 10
7371.6446480786526081
 20
2005.1196640850610038
 30
0.0
 40
0.0459262192939959
 50
164.4779867571635918
 51
172.8815083558386902
  0
ARC
  5
C5B5
  8
0
 10
7371.6035791730282654
 20
2005.1310704947520662
 30
0.0
 40
0.0033027376047326
 50
143.3892769933189015
 51
164.4779867571369891
  0
ARC
  5
C5B6
  8
0
 10
7371.6014632487067502
 20
2005.1326425333320458
 30
0.0
 40
0.0006667480310904
 50
111.1650796544186051
 51
143.3892769932355975
  0
ARC
  5
C5B7
  8
0
 10
7371.6013233247358585
 20
2005.1330039320159813
 30
0.0
 40
0.0002792074197982
 50
63.8461878427045519
 51
111.1650796544718958
  0
ARC
  5
C5B8
  8
0
 10
7371.6011000539347151
 20
2005.132549260973974
 30
0.0
 40
0.0007857403474939
 50
45.3918723962870985
 51
63.8461878427685576
  0
ARC
  5
C5B9
  8
0
 10
7371.5994698335798603
 20
2005.1313141962759801
 30
0.0
 40
0.0028251073531432
 50
19.28631240005015
 51
39.4333973153057968
  0
ARC
  5
C5BA
  8
0
 10
7371.5731323342242831
 20
2005.1226467134908944
 30
0.0
 40
0.0305517069293332
 50
5.1446134726868502
 51
18.3149711176385317
  0
ARC
  5
C5BB
  8
0
 10
7370.3358267124331178
 20
2005.0112489565799478
 30
0.0
 40
1.272861918575261
 50
2.756765527252969
 51
5.1446134726868502
  0
ARC
  5
C5BC
  8
0
 10
7368.9709530134487068
 20
2004.9455278334930881
 30
0.0
 40
2.6393169965776941
 50
359.8085479108402751
 51
2.756765527252969
  0
ARC
  5
C5BD
  8
0
 10
7293.588312163999035
 20
2005.1974175523159829
 30
0.0
 40
78.0223786873027052
 50
359.660748410474298
 51
359.8085479108402751
  0
ARC
  5
C5BE
  8
0
 10
7368.9755388491075792
 20
2007.7716076682959283
 30
0.0
 40
2.704624540030359
 50
356.8936582214321902
 51
359.00758243806888
  0
ARC
  5
C5BF
  8
0
 10
7371.3088613205636648
 20
2007.644980417682973
 30
0.0
 40
0.3678686228663532
 50
353.9437495745282831
 51
356.8936582214321902
  0
ARC
  5
C5C0
  8
0
 10
7371.4858574994968876
 20
2007.6262016649720863
 30
0.0
 40
0.189879047581786
 50
351.8309951191500886
 51
353.9437495745282831
  0
ARC
  5
C5C1
  8
0
 10
7371.6273181291562651
 20
2007.605894985355917
 30
0.0
 40
0.0469683377629039
 50
347.7788479062033957
 51
351.8309951191500886
  0
ARC
  5
C5C2
  8
0
 10
7371.6536742519519976
 20
2007.6001864042700618
 30
0.0
 40
0.0200010778572246
 50
340.8120269860576173
 51
347.7788479062160718
  0
ARC
  5
C5C3
  8
0
 10
7371.6698574635192927
 20
2007.5945546224500049
 30
0.0
 40
0.0028659296792614
 50
326.2774049710837971
 51
340.8120269860207259
  0
ARC
  5
C5C4
  8
0
 10
7371.6712975428672507
 20
2007.5935933881960409
 30
0.0
 40
0.0011345141241815
 50
301.5840274352040069
 51
326.2774049709789779
  0
ARC
  5
C5C5
  8
0
 10
7371.6717531858803341
 20
2007.5929390547739786
 30
0.0
 40
0.0003414999881796
 50
236.2299829083279974
 51
293.9369189836650094
  0
ARC
  5
C5C6
  8
0
 10
7371.6721545839891405
 20
2007.5935171906180585
 30
0.0
 40
0.0010452840277697
 50
210.5797385233144041
 51
235.5552983470223865
  0
ARC
  5
C5C7
  8
0
 10
7371.6763313872652361
 20
2007.5959853519671015
 30
0.0
 40
0.0058968307970097
 50
190.1963568352385892
 51
210.5797385233144041
  0
ARC
  5
C5C8
  8
0
 10
7372.0435507483825859
 20
2007.6509877658379537
 30
0.0
 40
0.3772100092463028
 50
181.8544903806570119
 51
188.5447087957560939
  0
ARC
  5
C5C9
  8
0
 10
7375.335395591933775
 20
2007.8021644959899277
 30
0.0
 40
3.6724934328520109
 50
180.5826372275267033
 51
182.5498451425555118
  0
ARC
  5
C5CA
  8
0
 10
7377.3494809833346153
 20
2007.8609802738099006
 30
0.0
 40
5.6872019543217132
 50
178.0356528235041935
 51
180.9688161158404114
  0
ARC
  5
C5CB
  8
0
 10
7372.7776007727297838
 20
2008.0177855467500194
 30
0.0
 40
1.1126334988551241
 50
175.8802390421801078
 51
178.0356528235041935
  0
ARC
  5
C5CC
  8
0
 10
7371.9925492174879764
 20
2008.0743308992780385
 30
0.0
 40
0.3255481659464516
 50
172.8815083558386902
 51
175.8802390421801078
  0
ARC
  5
C5CD
  8
0
 10
7371.7150825981825619
 20
2008.108982136214081
 30
0.0
 40
0.0459262192939959
 50
164.4779867571635918
 51
172.8815083558386902
  0
ARC
  5
C5CE
  8
0
 10
7371.6740136925582192
 20
2008.1203885459040066
 30
0.0
 40
0.0033027376047326
 50
143.3892769933189015
 51
164.4779867571369891
  0
ARC
  5
C5CF
  8
0
 10
7371.6718977682357945
 20
2008.1219605844848957
 30
0.0
 40
0.0006667480310904
 50
111.1650796544186051
 51
143.3892769932355975
  0
ARC
  5
C5D0
  8
0
 10
7371.6717578442667218
 20
2008.1223219831679216
 30
0.0
 40
0.0002792074197982
 50
63.8461878427045519
 51
111.1650796544718958
  0
ARC
  5
C5D1
  8
0
 10
7371.6715345734646689
 20
2008.1218673121270513
 30
0.0
 40
0.0007857403474939
 50
45.3918723962870985
 51
63.8461878427685576
  0
ARC
  5
C5D2
  8
0
 10
7371.6699043531089046
 20
2008.1206322474279204
 30
0.0
 40
0.0028251073531432
 50
19.28631240005015
 51
39.4333973153057968
  0
ARC
  5
C5D3
  8
0
 10
7371.643566853752418
 20
2008.1119647646430622
 30
0.0
 40
0.0305517069293332
 50
5.1446134726868502
 51
18.3149711176385317
  0
ARC
  5
C5D4
  8
0
 10
7370.4062612319621621
 20
2008.0005670077318882
 30
0.0
 40
1.272861918575261
 50
2.756765527252969
 51
5.1446134726868502
  0
ARC
  5
C5D5
  8
0
 10
7369.0413875329777511
 20
2007.934845884645938
 30
0.0
 40
2.6393169965776941
 50
359.8085479108402751
 51
2.756765527252969
  0
ARC
  5
C5D6
  8
0
 10
7293.6587466835280793
 20
2008.1867356034679233
 30
0.0
 40
78.0223786873027052
 50
359.660748410474298
 51
359.8085479108402751
  0
ARC
  5
C5D7
  8
0
 10
7368.9056973101078256
 20
2010.7716076682970652
 30
0.0
 40
2.704624540030359
 50
356.8936582214321902
 51
359.00758243806888
  0
ARC
  5
C5D8
  8
0
 10
7371.2390197815639112
 20
2010.644980417682973
 30
0.0
 40
0.3678686228663532
 50
353.9437495745282831
 51
356.8936582214321902
  0
ARC
  5
C5D9
  8
0
 10
7371.4160159604962246
 20
2010.6262016649720863
 30
0.0
 40
0.189879047581786
 50
351.8309951191500886
 51
353.9437495745282831
  0
ARC
  5
C5DA
  8
0
 10
7371.557476590155602
 20
2010.605894985355917
 30
0.0
 40
0.0469683377629039
 50
347.7788479062033957
 51
351.8309951191500886
  0
ARC
  5
C5DB
  8
0
 10
7371.583832712952244
 20
2010.6001864042700618
 30
0.0
 40
0.0200010778572246
 50
340.8120269860576173
 51
347.7788479062160718
  0
ARC
  5
C5DC
  8
0
 10
7371.6000159245177201
 20
2010.5945546224500049
 30
0.0
 40
0.0028659296792614
 50
326.2774049710837971
 51
340.8120269860207259
  0
ARC
  5
C5DD
  8
0
 10
7371.6014560038693162
 20
2010.5935933881960409
 30
0.0
 40
0.0011345141241815
 50
301.5840274352040069
 51
326.2774049709789779
  0
ARC
  5
C5DE
  8
0
 10
7371.601911646879671
 20
2010.5929390547739786
 30
0.0
 40
0.0003414999881796
 50
236.2299829083279974
 51
293.9369189836650094
  0
ARC
  5
C5DF
  8
0
 10
7371.602313044987568
 20
2010.5935171906169217
 30
0.0
 40
0.0010452840277697
 50
210.5797385233144041
 51
235.5552983470223865
  0
ARC
  5
C5E0
  8
0
 10
7371.6064898482636636
 20
2010.5959853519671015
 30
0.0
 40
0.0058968307970097
 50
190.1963568352385892
 51
210.5797385233144041
  0
ARC
  5
C5E1
  8
0
 10
7371.9737092093819228
 20
2010.6509877658379537
 30
0.0
 40
0.3772100092463028
 50
181.8544903806570119
 51
188.5447087957560939
  0
ARC
  5
C5E2
  8
0
 10
7375.265554052933112
 20
2010.8021644959899277
 30
0.0
 40
3.6724934328520109
 50
180.5826372275267033
 51
182.5498451425555118
  0
ARC
  5
C5E3
  8
0
 10
7377.2796394443348618
 20
2010.8609802738099006
 30
0.0
 40
5.6872019543217132
 50
178.0356528235041935
 51
180.9688161158404114
  0
ARC
  5
C5E4
  8
0
 10
7372.7077592337300302
 20
2011.0177855467491099
 30
0.0
 40
1.1126334988551241
 50
175.8802390421801078
 51
178.0356528235041935
  0
ARC
  5
C5E5
  8
0
 10
7371.9227076784891324
 20
2011.0743308992780385
 30
0.0
 40
0.3255481659464516
 50
172.8815083558386902
 51
175.8802390421801078
  0
ARC
  5
C5E6
  8
0
 10
7371.6452410591828084
 20
2011.108982136214081
 30
0.0
 40
0.0459262192939959
 50
164.4779867571635918
 51
172.8815083558386902
  0
ARC
  5
C5E7
  8
0
 10
7371.6041721535566467
 20
2011.1203885459040066
 30
0.0
 40
0.0033027376047326
 50
143.3892769933189015
 51
164.4779867571369891
  0
ARC
  5
C5E8
  8
0
 10
7371.6020562292351315
 20
2011.1219605844848957
 30
0.0
 40
0.0006667480310904
 50
111.1650796544186051
 51
143.3892769932355975
  0
ARC
  5
C5E9
  8
0
 10
7371.6019163052660588
 20
2011.1223219831679216
 30
0.0
 40
0.0002792074197982
 50
63.8461878427045519
 51
111.1650796544718958
  0
ARC
  5
C5EA
  8
0
 10
7371.6016930344667344
 20
2011.1218673121259144
 30
0.0
 40
0.0007857403474939
 50
45.3918723962870985
 51
63.8461878427685576
  0
ARC
  5
C5EB
  8
0
 10
7371.6000628141100606
 20
2011.1206322474279204
 30
0.0
 40
0.0028251073531432
 50
19.28631240005015
 51
39.4333973153057968
  0
ARC
  5
C5EC
  8
0
 10
7371.5737253147517549
 20
2011.1119647646419253
 30
0.0
 40
0.0305517069293332
 50
5.1446134726868502
 51
18.3149711176385317
  0
ARC
  5
C5ED
  8
0
 10
7370.3364196929633181
 20
2011.0005670077318882
 30
0.0
 40
1.272861918575261
 50
2.756765527252969
 51
5.1446134726868502
  0
ARC
  5
C5EE
  8
0
 10
7368.9715459939779976
 20
2010.934845884645938
 30
0.0
 40
2.6393169965776941
 50
359.8085479108402751
 51
2.756765527252969
  0
ARC
  5
C5EF
  8
0
 10
7293.5889051445274163
 20
2011.1867356034679233
 30
0.0
 40
78.0223786873027052
 50
359.660748410474298
 51
359.8085479108402751
  0
ARC
  5
C5F0
  8
0
 10
7368.9755388491075792
 20
2013.7716076682959283
 30
0.0
 40
2.704624540030359
 50
356.8936582214321902
 51
359.00758243806888
  0
ARC
  5
C5F1
  8
0
 10
7371.3088613205636648
 20
2013.644980417682973
 30
0.0
 40
0.3678686228663532
 50
353.9437495745282831
 51
356.8936582214321902
  0
ARC
  5
C5F2
  8
0
 10
7371.4858574994968876
 20
2013.6262016649729958
 30
0.0
 40
0.189879047581786
 50
351.8309951191500886
 51
353.9437495745282831
  0
ARC
  5
C5F3
  8
0
 10
7371.6273181291562651
 20
2013.6058949853570539
 30
0.0
 40
0.0469683377629039
 50
347.7788479062033957
 51
351.8309951191500886
  0
ARC
  5
C5F4
  8
0
 10
7371.6536742519519976
 20
2013.6001864042700618
 30
0.0
 40
0.0200010778572246
 50
340.8120269860576173
 51
347.7788479062160718
  0
ARC
  5
C5F5
  8
0
 10
7371.6698574635192927
 20
2013.5945546224500049
 30
0.0
 40
0.0028659296792614
 50
326.2774049710837971
 51
340.8120269860207259
  0
ARC
  5
C5F6
  8
0
 10
7371.6712975428672507
 20
2013.5935933881960409
 30
0.0
 40
0.0011345141241815
 50
301.5840274352040069
 51
326.2774049709789779
  0
ARC
  5
C5F7
  8
0
 10
7371.6717531858803341
 20
2013.5929390547739786
 30
0.0
 40
0.0003414999881796
 50
236.2299829083279974
 51
293.9369189836650094
  0
ARC
  5
C5F8
  8
0
 10
7371.6721545839891405
 20
2013.5935171906180585
 30
0.0
 40
0.0010452840277697
 50
210.5797385233144041
 51
235.5552983470223865
  0
ARC
  5
C5F9
  8
0
 10
7371.6763313872652361
 20
2013.5959853519671015
 30
0.0
 40
0.0058968307970097
 50
190.1963568352385892
 51
210.5797385233144041
  0
ARC
  5
C5FA
  8
0
 10
7372.0435507483825859
 20
2013.6509877658390906
 30
0.0
 40
0.3772100092463028
 50
181.8544903806570119
 51
188.5447087957560939
  0
ARC
  5
C5FB
  8
0
 10
7375.335395591933775
 20
2013.8021644959899277
 30
0.0
 40
3.6724934328520109
 50
180.5826372275267033
 51
182.5498451425555118
  0
ARC
  5
C5FC
  8
0
 10
7377.3494809833346153
 20
2013.8609802738099006
 30
0.0
 40
5.6872019543217132
 50
178.0356528235041935
 51
180.9688161158404114
  0
ARC
  5
C5FD
  8
0
 10
7372.7776007727297838
 20
2014.0177855467491099
 30
0.0
 40
1.1126334988551241
 50
175.8802390421801078
 51
178.0356528235041935
  0
ARC
  5
C5FE
  8
0
 10
7371.9925492174879764
 20
2014.0743308992780385
 30
0.0
 40
0.3255481659464516
 50
172.8815083558386902
 51
175.8802390421801078
  0
ARC
  5
C5FF
  8
0
 10
7371.7150825981825619
 20
2014.108982136214081
 30
0.0
 40
0.0459262192939959
 50
164.4779867571635918
 51
172.8815083558386902
  0
ARC
  5
C600
  8
0
 10
7371.6740136925582192
 20
2014.1203885459040066
 30
0.0
 40
0.0033027376047326
 50
143.3892769933189015
 51
164.4779867571369891
  0
ARC
  5
C601
  8
0
 10
7371.6718977682357945
 20
2014.1219605844848957
 30
0.0
 40
0.0006667480310904
 50
111.1650796544186051
 51
143.3892769932355975
  0
ARC
  5
C602
  8
0
 10
7371.6717578442667218
 20
2014.1223219831679216
 30
0.0
 40
0.0002792074197982
 50
63.8461878427045519
 51
111.1650796544718958
  0
ARC
  5
C603
  8
0
 10
7371.6715345734646689
 20
2014.1218673121259144
 30
0.0
 40
0.0007857403474939
 50
45.3918723962870985
 51
63.8461878427685576
  0
ARC
  5
C604
  8
0
 10
7371.6699043531089046
 20
2014.1206322474279204
 30
0.0
 40
0.0028251073531432
 50
19.28631240005015
 51
39.4333973153057968
  0
ARC
  5
C605
  8
0
 10
7371.643566853752418
 20
2014.1119647646430622
 30
0.0
 40
0.0305517069293332
 50
5.1446134726868502
 51
18.3149711176385317
  0
ARC
  5
C606
  8
0
 10
7370.4062612319621621
 20
2014.0005670077318882
 30
0.0
 40
1.272861918575261
 50
2.756765527252969
 51
5.1446134726868502
  0
ARC
  5
C607
  8
0
 10
7369.0413875329777511
 20
2013.934845884645938
 30
0.0
 40
2.6393169965776941
 50
359.8085479108402751
 51
2.756765527252969
  0
ARC
  5
C608
  8
0
 10
7293.6587466835280793
 20
2014.1867356034679233
 30
0.0
 40
78.0223786873027052
 50
359.660748410474298
 51
359.8085479108402751
  0
ARC
  5
C609
  8
0
 10
7368.9056973101078256
 20
2016.7716076682959283
 30
0.0
 40
2.704624540030359
 50
356.8936582214321902
 51
359.00758243806888
  0
ARC
  5
C60A
  8
0
 10
7371.2390197815639112
 20
2016.644980417682973
 30
0.0
 40
0.3678686228663532
 50
353.9437495745282831
 51
356.8936582214321902
  0
ARC
  5
C60B
  8
0
 10
7371.4160159604962246
 20
2016.6262016649729958
 30
0.0
 40
0.189879047581786
 50
351.8309951191500886
 51
353.9437495745282831
  0
ARC
  5
C60C
  8
0
 10
7371.557476590155602
 20
2016.6058949853570539
 30
0.0
 40
0.0469683377629039
 50
347.7788479062033957
 51
351.8309951191500886
  0
ARC
  5
C60D
  8
0
 10
7371.583832712952244
 20
2016.6001864042700618
 30
0.0
 40
0.0200010778572246
 50
340.8120269860576173
 51
347.7788479062160718
  0
ARC
  5
C60E
  8
0
 10
7371.6000159245177201
 20
2016.5945546224500049
 30
0.0
 40
0.0028659296792614
 50
326.2774049710837971
 51
340.8120269860207259
  0
ARC
  5
C60F
  8
0
 10
7371.6014560038693162
 20
2016.5935933881960409
 30
0.0
 40
0.0011345141241815
 50
301.5840274352040069
 51
326.2774049709789779
  0
ARC
  5
C610
  8
0
 10
7371.601911646879671
 20
2016.5929390547739786
 30
0.0
 40
0.0003414999881796
 50
236.2299829083279974
 51
293.9369189836650094
  0
ARC
  5
C611
  8
0
 10
7371.602313044987568
 20
2016.5935171906180585
 30
0.0
 40
0.0010452840277697
 50
210.5797385233144041
 51
235.5552983470223865
  0
ARC
  5
C612
  8
0
 10
7371.6064898482636636
 20
2016.5959853519671015
 30
0.0
 40
0.0058968307970097
 50
190.1963568352385892
 51
210.5797385233144041
  0
ARC
  5
C613
  8
0
 10
7371.9737092093819228
 20
2016.6509877658379537
 30
0.0
 40
0.3772100092463028
 50
181.8544903806570119
 51
188.5447087957560939
  0
ARC
  5
C614
  8
0
 10
7375.265554052933112
 20
2016.8021644959899277
 30
0.0
 40
3.6724934328520109
 50
180.5826372275267033
 51
182.5498451425555118
  0
ARC
  5
C615
  8
0
 10
7377.2796394443348618
 20
2016.8609802738099006
 30
0.0
 40
5.6872019543217132
 50
178.0356528235041935
 51
180.9688161158404114
  0
ARC
  5
C616
  8
0
 10
7372.7077592337300302
 20
2017.0177855467491099
 30
0.0
 40
1.1126334988551241
 50
175.8802390421801078
 51
178.0356528235041935
  0
ARC
  5
C617
  8
0
 10
7371.9227076784891324
 20
2017.0743308992780385
 30
0.0
 40
0.3255481659464516
 50
172.8815083558386902
 51
175.8802390421801078
  0
ARC
  5
C618
  8
0
 10
7371.6452410591828084
 20
2017.108982136214081
 30
0.0
 40
0.0459262192939959
 50
164.4779867571635918
 51
172.8815083558386902
  0
ARC
  5
C619
  8
0
 10
7371.6041721535566467
 20
2017.1203885459049161
 30
0.0
 40
0.0033027376047326
 50
143.3892769933189015
 51
164.4779867571369891
  0
ARC
  5
C61A
  8
0
 10
7371.6020562292351315
 20
2017.1219605844848957
 30
0.0
 40
0.0006667480310904
 50
111.1650796544186051
 51
143.3892769932355975
  0
ARC
  5
C61B
  8
0
 10
7371.6019163052660588
 20
2017.1223219831679216
 30
0.0
 40
0.0002792074197982
 50
63.8461878427045519
 51
111.1650796544718958
  0
ARC
  5
C61C
  8
0
 10
7371.6016930344667344
 20
2017.1218673121259144
 30
0.0
 40
0.0007857403474939
 50
45.3918723962870985
 51
63.8461878427685576
  0
ARC
  5
C61D
  8
0
 10
7371.6000628141100606
 20
2017.1206322474279204
 30
0.0
 40
0.0028251073531432
 50
19.28631240005015
 51
39.4333973153057968
  0
ARC
  5
C61E
  8
0
 10
7371.5737253147517549
 20
2017.1119647646430622
 30
0.0
 40
0.0305517069293332
 50
5.1446134726868502
 51
18.3149711176385317
  0
ARC
  5
C61F
  8
0
 10
7370.3364196929633181
 20
2017.0005670077318882
 30
0.0
 40
1.272861918575261
 50
2.756765527252969
 51
5.1446134726868502
  0
ARC
  5
C620
  8
0
 10
7368.9715459939779976
 20
2016.934845884645938
 30
0.0
 40
2.6393169965776941
 50
359.8085479108402751
 51
2.756765527252969
  0
ARC
  5
C621
  8
0
 10
7293.5889051445274163
 20
2017.1867356034679233
 30
0.0
 40
78.0223786873027052
 50
359.660748410474298
 51
359.8085479108402751
  0
ARC
  5
C622
  8
0
 10
7368.9056973101078256
 20
2022.7716076682959283
 30
0.0
 40
2.704624540030359
 50
356.8936582214321902
 51
359.00758243806888
  0
ARC
  5
C623
  8
0
 10
7371.2390197815639112
 20
2022.644980417682973
 30
0.0
 40
0.3678686228663532
 50
353.9437495745282831
 51
356.8936582214321902
  0
ARC
  5
C624
  8
0
 10
7371.4160159604962246
 20
2022.6262016649720863
 30
0.0
 40
0.189879047581786
 50
351.8309951191500886
 51
353.9437495745282831
  0
ARC
  5
C625
  8
0
 10
7371.557476590155602
 20
2022.605894985355917
 30
0.0
 40
0.0469683377629039
 50
347.7788479062033957
 51
351.8309951191500886
  0
ARC
  5
C626
  8
0
 10
7371.583832712952244
 20
2022.6001864042700618
 30
0.0
 40
0.0200010778572246
 50
340.8120269860576173
 51
347.7788479062160718
  0
ARC
  5
C627
  8
0
 10
7371.6000159245177201
 20
2022.5945546224490954
 30
0.0
 40
0.0028659296792614
 50
326.2774049710837971
 51
340.8120269860207259
  0
ARC
  5
C628
  8
0
 10
7371.6014560038693162
 20
2022.5935933881960409
 30
0.0
 40
0.0011345141241815
 50
301.5840274352040069
 51
326.2774049709789779
  0
ARC
  5
C629
  8
0
 10
7371.601911646879671
 20
2022.5929390547739786
 30
0.0
 40
0.0003414999881796
 50
236.2299829083279974
 51
293.9369189836650094
  0
ARC
  5
C62A
  8
0
 10
7371.602313044987568
 20
2022.5935171906169217
 30
0.0
 40
0.0010452840277697
 50
210.5797385233144041
 51
235.5552983470223865
  0
ARC
  5
C62B
  8
0
 10
7371.6064898482636636
 20
2022.5959853519671015
 30
0.0
 40
0.0058968307970097
 50
190.1963568352385892
 51
210.5797385233144041
  0
ARC
  5
C62C
  8
0
 10
7371.9737092093819228
 20
2022.6509877658379537
 30
0.0
 40
0.3772100092463028
 50
181.8544903806570119
 51
188.5447087957560939
  0
ARC
  5
C62D
  8
0
 10
7375.265554052933112
 20
2022.8021644959899277
 30
0.0
 40
3.6724934328520109
 50
180.5826372275267033
 51
182.5498451425555118
  0
ARC
  5
C62E
  8
0
 10
7377.2796394443348618
 20
2022.8609802738099006
 30
0.0
 40
5.6872019543217132
 50
178.0356528235041935
 51
180.9688161158404114
  0
ARC
  5
C62F
  8
0
 10
7372.7077592337300302
 20
2023.0177855467491099
 30
0.0
 40
1.1126334988551241
 50
175.8802390421801078
 51
178.0356528235041935
  0
ARC
  5
C630
  8
0
 10
7371.9227076784891324
 20
2023.0743308992780385
 30
0.0
 40
0.3255481659464516
 50
172.8815083558386902
 51
175.8802390421801078
  0
ARC
  5
C631
  8
0
 10
7371.6452410591828084
 20
2023.108982136214081
 30
0.0
 40
0.0459262192939959
 50
164.4779867571635918
 51
172.8815083558386902
  0
ARC
  5
C632
  8
0
 10
7371.6041721535566467
 20
2023.1203885459049161
 30
0.0
 40
0.0033027376047326
 50
143.3892769933189015
 51
164.4779867571369891
  0
ARC
  5
C633
  8
0
 10
7371.6020562292351315
 20
2023.1219605844848957
 30
0.0
 40
0.0006667480310904
 50
111.1650796544186051
 51
143.3892769932355975
  0
ARC
  5
C634
  8
0
 10
7371.6019163052660588
 20
2023.1223219831679216
 30
0.0
 40
0.0002792074197982
 50
63.8461878427045519
 51
111.1650796544718958
  0
ARC
  5
C635
  8
0
 10
7371.6016930344667344
 20
2023.1218673121259144
 30
0.0
 40
0.0007857403474939
 50
45.3918723962870985
 51
63.8461878427685576
  0
ARC
  5
C636
  8
0
 10
7371.6000628141100606
 20
2023.1206322474279204
 30
0.0
 40
0.0028251073531432
 50
19.28631240005015
 51
39.4333973153057968
  0
ARC
  5
C637
  8
0
 10
7371.5737253147517549
 20
2023.1119647646430622
 30
0.0
 40
0.0305517069293332
 50
5.1446134726868502
 51
18.3149711176385317
  0
ARC
  5
C638
  8
0
 10
7370.3364196929633181
 20
2023.0005670077318882
 30
0.0
 40
1.272861918575261
 50
2.756765527252969
 51
5.1446134726868502
  0
ARC
  5
C639
  8
0
 10
7368.9715459939779976
 20
2022.934845884645938
 30
0.0
 40
2.6393169965776941
 50
359.8085479108402751
 51
2.756765527252969
  0
ARC
  5
C63A
  8
0
 10
7293.5889051445274163
 20
2023.1867356034679233
 30
0.0
 40
78.0223786873027052
 50
359.660748410474298
 51
359.8085479108402751
  0
ARC
  5
C63B
  8
0
 10
7370.7506871343375678
 20
2009.1216944762270487
 30
0.0
 40
1.0413966746389789
 50
352.5736826674137774
 51
356.6472777082743164
  0
ARC
  5
C63C
  8
0
 10
7371.6254206013400108
 20
2009.0076778466209362
 30
0.0
 40
0.1592637877561098
 50
346.0600522349616881
 51
352.5736826674137774
  0
ARC
  5
C63D
  8
0
 10
7371.7493723739944471
 20
2008.9769111537868866
 30
0.0
 40
0.0315507056863615
 50
337.6669588615213797
 51
346.0600522349491257
  0
ARC
  5
C63E
  8
0
 10
7371.7685867506797877
 20
2008.9690178162441043
 30
0.0
 40
0.0107781986374904
 50
322.0919147974925068
 51
337.6669588615213797
  0
ARC
  5
C63F
  8
0
 10
7371.7757994230951226
 20
2008.9634012691619773
 30
0.0
 40
0.001636631787549
 50
286.7887706703348272
 51
322.0919147975553756
  0
ARC
  5
C640
  8
0
 10
7371.7759228337836248
 20
2008.9629922235169488
 30
0.0
 40
0.0012093747949181
 50
256.5416969909251179
 51
286.7887706702849187
  0
ARC
  5
C641
  8
0
 10
7371.7759809231101826
 20
2008.9632349610519668
 30
0.0
 40
0.0014589662215638
 50
222.2923959046028131
 51
256.5416969909251179
  0
ARC
  5
C642
  8
0
 10
7371.7806881295064159
 20
2008.9675170474720289
 30
0.0
 40
0.0078224602435563
 50
201.7406615534819139
 51
222.2923959045002107
  0
ARC
  5
C643
  8
0
 10
7371.8728985931848001
 20
2008.9995945732368909
 30
0.0
 40
0.1054458529040934
 50
183.3161301198121009
 51
199.3711979446134137
  0
ARC
  5
C644
  8
0
 10
7374.0430720935555655
 20
2009.2297324106400538
 30
0.0
 40
2.2876730512294108
 50
182.5348479901172141
 51
185.927235214132196
  0
ARC
  5
C645
  8
0
 10
7385.8663153656780196
 20
2009.7531513008671027
 30
0.0
 40
14.1224966158809302
 50
179.5329131632599058
 51
182.5348479901172141
  0
ARC
  5
C646
  8
0
 10
7461.6965857346922348
 20
2009.1349538337099148
 30
0.0
 40
89.9552868345343342
 50
179.200489738548697
 51
179.5329131632599058
  0
ARC
  5
C647
  8
0
 10
7377.1982208502849971
 20
2010.314127859403925
 30
0.0
 40
5.4486946684699618
 50
176.3440417761956098
 51
179.200489738548697
  0
ARC
  5
C648
  8
0
 10
7373.8098172786158102
 20
2010.5306307490509425
 30
0.0
 40
2.0533813890039481
 50
174.3397448513765084
 51
176.3440417761956098
  0
ARC
  5
C649
  8
0
 10
7372.086112430583853
 20
2010.7014718395701038
 30
0.0
 40
0.3212309678973471
 50
169.0815137348809003
 51
174.3397448513765084
  0
ARC
  5
C64A
  8
0
 10
7371.8291288413283837
 20
2010.7510450735780978
 30
0.0
 40
0.0595096071402681
 50
159.6943540517017937
 51
169.0815137348809003
  0
ARC
  5
C64B
  8
0
 10
7371.7807464926881948
 20
2010.7689476679720428
 30
0.0
 40
0.0079212892178719
 50
136.8718001811940042
 51
159.6943540516896007
  0
ARC
  5
C64C
  8
0
 10
7371.7759169353730613
 20
2010.7734715483650234
 30
0.0
 40
0.0013038790240647
 50
98.3456213340333534
 51
136.8718001811845113
  0
ARC
  5
C64D
  8
0
 10
7371.7759112886478761
 20
2010.7735100406659967
 30
0.0
 40
0.0012649747471682
 50
65.4665240003182589
 51
98.3456213340333534
  0
ARC
  5
C64E
  8
0
 10
7371.7756650723204075
 20
2010.7729706036889183
 30
0.0
 40
0.0018579458533672
 50
40.3209947691342521
 51
65.4665240003656663
  0
ARC
  5
C64F
  8
0
 10
7371.7711563971797659
 20
2010.7691441279121136
 30
0.0
 40
0.007771495412518
 50
28.4224529811919204
 51
40.3209947691342521
  0
ARC
  5
C650
  8
0
 10
7371.7621262560569448
 20
2010.764256974573982
 30
0.0
 40
0.0180392953934895
 50
12.6194685366625805
 51
28.4224529811556614
  0
ARC
  5
C651
  8
0
 10
7371.6198441864917186
 20
2010.7271806385560922
 30
0.0
 40
0.1650631152815165
 50
6.5777226759176139
 51
14.3885093336511698
  0
ARC
  5
C652
  8
0
 10
7369.0327675404223555
 20
2010.4288649662289572
 30
0.0
 40
2.769282348180258
 50
359.2060153164813983
 51
6.5777226759176139
  0
ARC
  5
C653
  8
0
 10
7379.8186056513595759
 20
2010.2793890614659631
 30
0.0
 40
8.0175914714895473
 50
179.2060153164813983
 51
182.2870048779084016
  0
ARC
  5
C654
  8
0
 10
7366.874190901984548
 20
2009.7624282610179307
 30
0.0
 40
4.937142090920263
 50
357.1046334829551938
 51
2.2870048779083949
  0
ARC
  5
C655
  8
0
 10
7384.3750297739343296
 20
2008.877292920130003
 30
0.0
 40
12.5860661140179495
 50
177.1046334829551938
 51
179.1646294836234858
  0
ARC
  5
C656
  8
0
 10
7370.7506871343375678
 20
2017.1216944762270487
 30
0.0
 40
1.0413966746389789
 50
352.5736826674137774
 51
356.6472777082743164
  0
ARC
  5
C657
  8
0
 10
7371.6254206013400108
 20
2017.0076778466209362
 30
0.0
 40
0.1592637877561098
 50
346.0600522349616881
 51
352.5736826674137774
  0
ARC
  5
C658
  8
0
 10
7371.7493723739944471
 20
2016.9769111537868866
 30
0.0
 40
0.0315507056863615
 50
337.6669588615213797
 51
346.0600522349491257
  0
ARC
  5
C659
  8
0
 10
7371.7685867506797877
 20
2016.9690178162441043
 30
0.0
 40
0.0107781986374904
 50
322.0919147974925068
 51
337.6669588615213797
  0
ARC
  5
C65A
  8
0
 10
7371.7757994230951226
 20
2016.9634012691619773
 30
0.0
 40
0.001636631787549
 50
286.7887706703348272
 51
322.0919147975553756
  0
ARC
  5
C65B
  8
0
 10
7371.7759228337836248
 20
2016.9629922235169488
 30
0.0
 40
0.0012093747949181
 50
256.5416969909251179
 51
286.7887706702849187
  0
ARC
  5
C65C
  8
0
 10
7371.7759809231101826
 20
2016.9632349610519668
 30
0.0
 40
0.0014589662215638
 50
222.2923959046028131
 51
256.5416969909251179
  0
ARC
  5
C65D
  8
0
 10
7371.7806881295064159
 20
2016.9675170474720289
 30
0.0
 40
0.0078224602435563
 50
201.7406615534819139
 51
222.2923959045002107
  0
ARC
  5
C65E
  8
0
 10
7371.8728985931848001
 20
2016.9995945732368909
 30
0.0
 40
0.1054458529040934
 50
183.3161301198121009
 51
199.3711979446134137
  0
ARC
  5
C65F
  8
0
 10
7374.0430720935555655
 20
2017.2297324106400538
 30
0.0
 40
2.2876730512294108
 50
182.5348479901172141
 51
185.927235214132196
  0
ARC
  5
C660
  8
0
 10
7385.8663153656780196
 20
2017.7531513008671027
 30
0.0
 40
14.1224966158809302
 50
179.5329131632599058
 51
182.5348479901172141
  0
ARC
  5
C661
  8
0
 10
7461.6965857346922348
 20
2017.1349538337099148
 30
0.0
 40
89.9552868345343342
 50
179.200489738548697
 51
179.5329131632599058
  0
ARC
  5
C662
  8
0
 10
7377.1982208502849971
 20
2018.3141278594050618
 30
0.0
 40
5.4486946684699618
 50
176.3440417761956098
 51
179.200489738548697
  0
ARC
  5
C663
  8
0
 10
7373.8098172786158102
 20
2018.5306307490509425
 30
0.0
 40
2.0533813890039481
 50
174.3397448513765084
 51
176.3440417761956098
  0
ARC
  5
C664
  8
0
 10
7372.086112430583853
 20
2018.7014718395701038
 30
0.0
 40
0.3212309678973471
 50
169.0815137348809003
 51
174.3397448513765084
  0
ARC
  5
C665
  8
0
 10
7371.8291288413283837
 20
2018.7510450735780978
 30
0.0
 40
0.0595096071402681
 50
159.6943540517017937
 51
169.0815137348809003
  0
ARC
  5
C666
  8
0
 10
7371.7807464926881948
 20
2018.7689476679720428
 30
0.0
 40
0.0079212892178719
 50
136.8718001811940042
 51
159.6943540516896007
  0
ARC
  5
C667
  8
0
 10
7371.7759169353730613
 20
2018.7734715483650234
 30
0.0
 40
0.0013038790240647
 50
98.3456213340333534
 51
136.8718001811845113
  0
ARC
  5
C668
  8
0
 10
7371.7759112886478761
 20
2018.7735100406659967
 30
0.0
 40
0.0012649747471682
 50
65.4665240003182589
 51
98.3456213340333534
  0
ARC
  5
C669
  8
0
 10
7371.7756650723204075
 20
2018.7729706036889183
 30
0.0
 40
0.0018579458533672
 50
40.3209947691342521
 51
65.4665240003656663
  0
ARC
  5
C66A
  8
0
 10
7371.7711563971797659
 20
2018.7691441279121136
 30
0.0
 40
0.007771495412518
 50
28.4224529811919204
 51
40.3209947691342521
  0
ARC
  5
C66B
  8
0
 10
7371.7621262560569448
 20
2018.764256974573982
 30
0.0
 40
0.0180392953934895
 50
12.6194685366625805
 51
28.4224529811556614
  0
ARC
  5
C66C
  8
0
 10
7371.6198441864917186
 20
2018.7271806385560922
 30
0.0
 40
0.1650631152815165
 50
6.5777226759176139
 51
14.3885093336511698
  0
ARC
  5
C66D
  8
0
 10
7369.0327675404223555
 20
2018.4288649662300941
 30
0.0
 40
2.769282348180258
 50
359.2060153164813983
 51
6.5777226759176139
  0
ARC
  5
C66E
  8
0
 10
7379.8186056513595759
 20
2018.2793890614659631
 30
0.0
 40
8.0175914714895473
 50
179.2060153164813983
 51
182.2870048779084016
  0
ARC
  5
C66F
  8
0
 10
7366.874190901984548
 20
2017.7624282610170212
 30
0.0
 40
4.937142090920263
 50
357.1046334829551938
 51
2.2870048779083949
  0
ARC
  5
C670
  8
0
 10
7384.3750297739343296
 20
2016.877292920130003
 30
0.0
 40
12.5860661140179495
 50
177.1046334829551938
 51
179.1646294836234858
  0
ARC
  5
C671
  8
0
 10
7368.9755082849806058
 20
2019.7931799464529377
 30
0.0
 40
2.704624540030359
 50
356.8936582214321902
 51
359.00758243806888
  0
ARC
  5
C672
  8
0
 10
7371.3088307564366914
 20
2019.6665526958399823
 30
0.0
 40
0.3678686228663532
 50
353.9437495745282831
 51
356.8936582214321902
  0
ARC
  5
C673
  8
0
 10
7371.4858269353690048
 20
2019.6477739431290956
 30
0.0
 40
0.189879047581786
 50
351.8309951191500886
 51
353.9437495745282831
  0
ARC
  5
C674
  8
0
 10
7371.6272875650302012
 20
2019.6274672635129264
 30
0.0
 40
0.0469683377629039
 50
347.7788479062033957
 51
351.8309951191500886
  0
ARC
  5
C675
  8
0
 10
7371.6536436878250242
 20
2019.6217586824270711
 30
0.0
 40
0.0200010778572246
 50
340.8120269860576173
 51
347.7788479062160718
  0
ARC
  5
C676
  8
0
 10
7371.6698268993914098
 20
2019.6161269006061048
 30
0.0
 40
0.0028659296792614
 50
326.2774049710837971
 51
340.8120269860207259
  0
ARC
  5
C677
  8
0
 10
7371.6712669787430059
 20
2019.6151656663530503
 30
0.0
 40
0.0011345141241815
 50
301.5840274352040069
 51
326.2774049709789779
  0
ARC
  5
C678
  8
0
 10
7371.6717226217542702
 20
2019.6145113329300784
 30
0.0
 40
0.0003414999881796
 50
236.2299829083279974
 51
293.9369189836650094
  0
ARC
  5
C679
  8
0
 10
7371.6721240198630767
 20
2019.615089468773931
 30
0.0
 40
0.0010452840277697
 50
210.5797385233144041
 51
235.5552983470223865
  0
ARC
  5
C67A
  8
0
 10
7371.6763008231382628
 20
2019.6175576301241108
 30
0.0
 40
0.0058968307970097
 50
190.1963568352385892
 51
210.5797385233144041
  0
ARC
  5
C67B
  8
0
 10
7372.0435201842556125
 20
2019.6725600439949631
 30
0.0
 40
0.3772100092463028
 50
181.8544903806570119
 51
188.5447087957560939
  0
ARC
  5
C67C
  8
0
 10
7375.3353650278068017
 20
2019.823736774146937
 30
0.0
 40
3.6724934328520109
 50
180.5826372275267033
 51
182.5498451425555118
  0
ARC
  5
C67D
  8
0
 10
7377.3494504192085515
 20
2019.88255255196691
 30
0.0
 40
5.6872019543217132
 50
178.0356528235041935
 51
180.9688161158404114
  0
ARC
  5
C67E
  8
0
 10
7372.7775702086037199
 20
2020.0393578249058919
 30
0.0
 40
1.1126334988551241
 50
175.8802390421801078
 51
178.0356528235041935
  0
ARC
  5
C67F
  8
0
 10
7371.9925186533610031
 20
2020.095903177433911
 30
0.0
 40
0.3255481659464516
 50
172.8815083558386902
 51
175.8802390421801078
  0
ARC
  5
C680
  8
0
 10
7371.7150520340574076
 20
2020.1305544143699535
 30
0.0
 40
0.0459262192939959
 50
164.4779867571635918
 51
172.8815083558386902
  0
ARC
  5
C681
  8
0
 10
7371.6739831284303364
 20
2020.141960824061016
 30
0.0
 40
0.0033027376047326
 50
143.3892769933189015
 51
164.4779867571369891
  0
ARC
  5
C682
  8
0
 10
7371.6718672041097307
 20
2020.143532862641905
 30
0.0
 40
0.0006667480310904
 50
111.1650796544186051
 51
143.3892769932355975
  0
ARC
  5
C683
  8
0
 10
7371.671727280140658
 20
2020.143894261324931
 30
0.0
 40
0.0002792074197982
 50
63.8461878427045519
 51
111.1650796544718958
  0
ARC
  5
C684
  8
0
 10
7371.6715040093386051
 20
2020.1434395902829237
 30
0.0
 40
0.0007857403474939
 50
45.3918723962870985
 51
63.8461878427685576
  0
ARC
  5
C685
  8
0
 10
7371.6698737889837503
 20
2020.1422045255849298
 30
0.0
 40
0.0028251073531432
 50
19.28631240005015
 51
39.4333973153057968
  0
ARC
  5
C686
  8
0
 10
7371.6435362896263541
 20
2020.1335370427989346
 30
0.0
 40
0.0305517069293332
 50
5.1446134726868502
 51
18.3149711176385317
  0
ARC
  5
C687
  8
0
 10
7370.4062306678351888
 20
2020.0221392858888976
 30
0.0
 40
1.272861918575261
 50
2.756765527252969
 51
5.1446134726868502
  0
ARC
  5
C688
  8
0
 10
7369.0413569688507778
 20
2019.9564181628029473
 30
0.0
 40
2.6393169965776941
 50
359.8085479108402751
 51
2.756765527252969
  0
ARC
  5
C689
  8
0
 10
7293.658716119401106
 20
2020.2083078816249326
 30
0.0
 40
78.0223786873027052
 50
359.660748410474298
 51
359.8085479108402751
  0
ARC
  5
C68A
  8
0
 10
7375.8444948138030668
 20
2012.731174700217025
 30
0.0
 40
4.3258168308677378
 50
182.7451890421507983
 51
185.4342418499807934
  0
ARC
  5
C68B
  8
0
 10
7372.1421731435048059
 20
2012.3789697353349766
 30
0.0
 40
0.6067801158486406
 50
185.4342418499807934
 51
189.3339752631175088
  0
ARC
  5
C68C
  8
0
 10
7371.9080305584739108
 20
2012.3404848376189875
 30
0.0
 40
0.3694958191141619
 50
189.3339752631175088
 51
192.7179036302638053
  0
ARC
  5
C68D
  8
0
 10
7371.6111620480160127
 20
2012.2734851465891097
 30
0.0
 40
0.0651606895292178
 50
192.7179036302765098
 51
203.2124225398019917
  0
ARC
  5
C68E
  8
0
 10
7371.5614651494761347
 20
2012.2521722731389673
 30
0.0
 40
0.0110864784922335
 50
203.2124225398019917
 51
231.353360787374811
  0
ARC
  5
C68F
  8
0
 10
7371.5555296092916251
 20
2012.2454808050179054
 30
0.0
 40
0.0022014374918883
 50
243.3294093841375059
 51
269.3470736798673784
  0
ARC
  5
C690
  8
0
 10
7371.5554819832641442
 20
2012.2454672401340758
 30
0.0
 40
0.0021878457742647
 50
270.5902828131212914
 51
296.1141505852708065
  0
ARC
  5
C691
  8
0
 10
7371.5546526167026968
 20
2012.2471591301421086
 30
0.0
 40
0.0040720805510014
 50
296.1141505852240812
 51
326.8526390349916824
  0
ARC
  5
C692
  8
0
 10
7371.532844885792656
 20
2012.2614011118419057
 30
0.0
 40
0.0301184079343117
 50
326.8526390349808253
 51
333.922308905032196
  0
ARC
  5
C693
  8
0
 10
7371.4649566361367761
 20
2012.2848178209869729
 30
0.0
 40
0.1017713431974423
 50
338.8884824412240278
 51
349.8452251081205873
  0
ARC
  5
C694
  8
0
 10
7369.7384483360992817
 20
2012.5470667846871038
 30
0.0
 40
1.8480495519324041
 50
351.2794697225335199
 51
358.3162580995746112
  0
ARC
  5
C695
  8
0
 10
6957.9133576559770518
 20
2024.6527897777220915
 30
0.0
 40
413.8510275058254138
 50
358.3162580995746112
 51
358.4280106962578998
  0
ARC
  5
C696
  8
0
 10
7354.709662198967635
 20
2013.7633994639709272
 30
0.0
 40
16.9053308162402303
 50
358.4280106962578998
 51
1.142017851550283
  0
ARC
  5
C697
  8
0
 10
7424.1531535831873043
 20
2015.1477284924048945
 30
0.0
 40
52.5519572282056089
 50
180.4031497555797046
 51
181.1420178515502073
  0
ARC
  5
C698
  8
0
 10
7363.2793865816538528
 20
2014.7193959081869252
 30
0.0
 40
8.3233167158175263
 50
0.4031497555927995
 51
4.3750337828530164
  0
ARC
  5
C699
  8
0
 10
7370.2062665023886439
 20
2015.2493541638700663
 30
0.0
 40
1.3761934846477519
 50
4.3750337828530164
 51
9.5274749533981815
  0
ARC
  5
C69A
  8
0
 10
7371.5186040328262607
 20
2015.4687495658461103
 30
0.0
 40
0.0456513505838208
 50
10.5939445786078394
 51
29.6629161877404286
  0
ARC
  5
C69B
  8
0
 10
7371.5547187738447974
 20
2015.4893138328091027
 30
0.0
 40
0.0040921946435306
 50
29.7146173915986012
 51
74.2371552329689735
  0
ARC
  5
C69C
  8
0
 10
7371.5555027484979291
 20
2015.4912868206758958
 30
0.0
 40
0.001992449723945
 50
80.5336337741138806
 51
104.8952649873395018
  0
ARC
  5
C69D
  8
0
 10
7371.5558545009944282
 20
2015.4902235827880759
 30
0.0
 40
0.0031110924486682
 50
106.1223518297766049
 51
137.6572296698433036
  0
ARC
  5
C69E
  8
0
 10
7371.5632352187003562
 20
2015.4834975682028926
 30
0.0
 40
0.0130967955313787
 50
137.6572296698626019
 51
159.8960469601697127
  0
ARC
  5
C69F
  8
0
 10
7371.6797379087511217
 20
2015.4408545233209225
 30
0.0
 40
0.1371584981875736
 50
159.8960469601697127
 51
173.7318996756825982
  0
ARC
  5
C6A0
  8
0
 10
7377.9288310959673254
 20
2014.7544696123559334
 30
0.0
 40
6.4238340829871348
 50
173.7318996756825982
 51
174.9097337382173123
  0
ARC
  5
C6A1
  8
0
 10
7375.2864802767153378
 20
2014.9898406739209804
 30
0.0
 40
3.7710209744882062
 50
174.9097337382173123
 51
179.4945549166203875
  0
ARC
  5
C6A2
  8
0
 10
7343.333509855311604
 20
2015.2717268949220397
 30
0.0
 40
28.1831928101246305
 50
358.0998659527331256
 51
359.494554916620416
  0
ARC
  5
C6A3
  8
0
 10
7384.6501431317228707
 20
2013.9010162371869228
 30
0.0
 40
13.1561713964616391
 50
178.0998659527330972
 51
181.7821173718353123
  0
ARC
  5
C6A4
  8
0
 10
7302.6540139330054444
 20
2011.3498009634279242
 30
0.0
 40
68.8796372662561538
 50
0.9767691085130232
 51
1.782117371835334
  0
ARC
  5
C6A5
  8
0
 10
7339.0329989469319116
 20
2009.3673541645739533
 30
0.0
 40
6.7574543156865543
 50
358.712718999343906
 51
0.3077569328936083
  0
ARC
  5
C6A6
  8
0
 10
7343.1920714381521975
 20
2009.2738953431630762
 30
0.0
 40
2.5973318969931798
 50
357.4000459842196733
 51
358.712718999343906
  0
ARC
  5
C6A7
  8
0
 10
7344.6980392933346593
 20
2009.2055109541679485
 30
0.0
 40
1.0898122103875021
 50
355.929456377607778
 51
357.4000459842196733
  0
ARC
  5
C6A8
  8
0
 10
7345.4708920332559501
 20
2009.150511539721947
 30
0.0
 40
0.315004948421341
 50
352.83267366185828
 51
355.929456377607778
  0
ARC
  5
C6A9
  8
0
 10
7345.7304245133536824
 20
2009.1178753157519168
 30
0.0
 40
0.0534285134341088
 50
347.9476339658560846
 51
352.83267366185828
  0
ARC
  5
C6AA
  8
0
 10
7345.7605676711445994
 20
2009.1114393898390063
 30
0.0
 40
0.0226059388511257
 50
342.5864249520490716
 51
347.9476339658560846
  0
ARC
  5
C6AB
  8
0
 10
7345.7778788683481253
 20
2009.1060098848120106
 30
0.0
 40
0.004463252351074
 50
326.0424609057645853
 51
342.5864249520615772
  0
ARC
  5
C6AC
  8
0
 10
7345.7811099547579943
 20
2009.1038339716778864
 30
0.0
 40
0.0005678040641898
 50
287.5877152191030746
 51
326.0424609053671929
  0
ARC
  5
C6AD
  8
0
 10
7345.7811861450081778
 20
2009.1035936107818998
 30
0.0
 40
0.0003156566576198
 50
239.0744331243020895
 51
287.5877152196471229
  0
ARC
  5
C6AE
  8
0
 10
7345.7815077485820439
 20
2009.1041304274449431
 30
0.0
 40
0.0009414369609927
 50
208.2114968289772889
 51
239.0744331239401959
  0
ARC
  5
C6AF
  8
0
 10
7345.7911441773730985
 20
2009.1088453242339256
 30
0.0
 40
0.0116688811456684
 50
187.0922466527987922
 51
206.244130639060387
  0
ARC
  5
C6B0
  8
0
 10
7346.3340016721303982
 20
2009.1763872008909857
 30
0.0
 40
0.5587119916191293
 50
183.987356711171401
 51
187.0922466527987922
  0
ARC
  5
C6B1
  8
0
 10
7347.1696059127216358
 20
2009.2346330524180757
 30
0.0
 40
1.3963437878856491
 50
180.1216378180075992
 51
183.987356711171401
  0
ARC
  5
C6B2
  8
0
 10
7389.8767785616073525
 20
2009.3252996799199082
 30
0.0
 40
44.1036126785436267
 50
179.7478316194766137
 51
180.1216378180075992
  0
ARC
  5
C6B3
  8
0
 10
7346.9039267807092983
 20
2009.5144316631269703
 30
0.0
 40
1.1303446961083621
 50
176.1154934356439981
 51
179.7478316194766137
  0
ARC
  5
C6B4
  8
0
 10
7350.0987481272532023
 20
2009.2974985095340799
 30
0.0
 40
4.3325226158161616
 50
175.7568687521697939
 51
176.1154934356439981
  0
ARC
  5
C6B5
  8
0
 10
7345.873799844253881
 20
2009.6109571122949546
 30
0.0
 40
0.0959621843280197
 50
168.3664842895659035
 51
175.7568687521697939
  0
ARC
  5
C6B6
  8
0
 10
7345.7915620977792059
 20
2009.6278882360620628
 30
0.0
 40
0.0119996337620238
 50
157.0664679552691894
 51
168.366484289553199
  0
ARC
  5
C6B7
  8
0
 10
7345.7821749102331523
 20
2009.6318600150220846
 30
0.0
 40
0.001806777532729
 50
132.3979210060608125
 51
157.0664679553374867
  0
ARC
  5
C6B8
  8
0
 10
7345.7811481752269174
 20
2009.6329845152690723
 30
0.0
 40
0.0002840544527229
 50
104.140351387360397
 51
132.3979210058487013
  0
ARC
  5
C6B9
  8
0
 10
7345.7812672647123691
 20
2009.632511809395055
 30
0.0
 40
0.0007715307591389
 50
95.7439512916749038
 51
104.1403513873099058
  0
ARC
  5
C6BA
  8
0
 10
7345.781215666153912
 20
2009.6330247783869254
 30
0.0
 40
0.0002559731985831
 50
52.4768479714828615
 51
95.743951291936753
  0
ARC
  5
C6BB
  8
0
 10
7345.7774211013802415
 20
2009.6280837405799957
 30
0.0
 40
0.0064859472299057
 50
50.8228758501444418
 51
52.4768479714749176
  0
ARC
  5
C6BC
  8
0
 10
7345.7797842923682765
 20
2009.6316038341919921
 30
0.0
 40
0.0022979502904449
 50
22.0148241830922586
 51
41.0066307659532967
  0
ARC
  5
C6BD
  8
0
 10
7345.5921876449338015
 20
2009.5926641131109136
 30
0.0
 40
0.1938568541833478
 50
0.3682816190320943
 51
11.8477521180908294
  0
ARC
  5
C6BE
  8
0
 10
7351.6420129948501199
 20
2009.6315512733599462
 30
0.0
 40
5.8560934741850543
 50
180.3682816190321034
 51
182.2303322538512873
  0
ARC
  5
C6BF
  8
0
 10
7339.1028712622310195
 20
2011.6173537356139605
 30
0.0
 40
6.7574543156865543
 50
358.712718999343906
 51
0.3077569328936083
  0
ARC
  5
C6C0
  8
0
 10
7343.2619437534513054
 20
2011.5238949142030833
 30
0.0
 40
2.5973318969931798
 50
357.4000459842196733
 51
358.712718999343906
  0
ARC
  5
C6C1
  8
0
 10
7344.7679116086337672
 20
2011.4555105252079557
 30
0.0
 40
1.0898122103875021
 50
355.929456377607778
 51
357.4000459842196733
  0
ARC
  5
C6C2
  8
0
 10
7345.5407643485568769
 20
2011.4005111107619541
 30
0.0
 40
0.315004948421341
 50
352.83267366185828
 51
355.929456377607778
  0
ARC
  5
C6C3
  8
0
 10
7345.8002968286546093
 20
2011.3678748867910144
 30
0.0
 40
0.0534285134341088
 50
347.9476339658560846
 51
352.83267366185828
  0
ARC
  5
C6C4
  8
0
 10
7345.8304399864437073
 20
2011.3614389608790134
 30
0.0
 40
0.0226059388511257
 50
342.5864249520490716
 51
347.9476339658560846
  0
ARC
  5
C6C5
  8
0
 10
7345.8477511836472331
 20
2011.3560094558520177
 30
0.0
 40
0.004463252351074
 50
326.0424609057645853
 51
342.5864249520615772
  0
ARC
  5
C6C6
  8
0
 10
7345.8509822700571021
 20
2011.3538335427190304
 30
0.0
 40
0.0005678040641898
 50
287.5877152191030746
 51
326.0424609053671929
  0
ARC
  5
C6C7
  8
0
 10
7345.8510584603091047
 20
2011.3535931818219069
 30
0.0
 40
0.0003156566576198
 50
239.0744331243020895
 51
287.5877152196471229
  0
ARC
  5
C6C8
  8
0
 10
7345.8513800638829707
 20
2011.3541299984849502
 30
0.0
 40
0.0009414369609927
 50
208.2114968289772889
 51
239.0744331239401959
  0
ARC
  5
C6C9
  8
0
 10
7345.8610164926740254
 20
2011.3588448952739327
 30
0.0
 40
0.0116688811456684
 50
187.0922466527987922
 51
206.244130639060387
  0
ARC
  5
C6CA
  8
0
 10
7346.4038739874304156
 20
2011.4263867719309928
 30
0.0
 40
0.5587119916191293
 50
183.987356711171401
 51
187.0922466527987922
  0
ARC
  5
C6CB
  8
0
 10
7347.2394782280225627
 20
2011.4846326234580829
 30
0.0
 40
1.3963437878856491
 50
180.1216378180075992
 51
183.987356711171401
  0
ARC
  5
C6CC
  8
0
 10
7389.9466508769082793
 20
2011.5752992509599153
 30
0.0
 40
44.1036126785436267
 50
179.7478316194766137
 51
180.1216378180075992
  0
ARC
  5
C6CD
  8
0
 10
7346.9737990960065872
 20
2011.7644312341669774
 30
0.0
 40
1.1303446961083621
 50
176.1154934356439981
 51
179.7478316194766137
  0
ARC
  5
C6CE
  8
0
 10
7350.1686204425523101
 20
2011.547498080574087
 30
0.0
 40
4.3325226158161616
 50
175.7568687521697939
 51
176.1154934356439981
  0
ARC
  5
C6CF
  8
0
 10
7345.9436721595548079
 20
2011.8609566833360986
 30
0.0
 40
0.0959621843280197
 50
168.3664842895659035
 51
175.7568687521697939
  0
ARC
  5
C6D0
  8
0
 10
7345.8614344130783138
 20
2011.8778878071029794
 30
0.0
 40
0.0119996337620238
 50
157.0664679552691894
 51
168.366484289553199
  0
ARC
  5
C6D1
  8
0
 10
7345.8520472255331697
 20
2011.8818595860620917
 30
0.0
 40
0.001806777532729
 50
132.3979210060608125
 51
157.0664679553374867
  0
ARC
  5
C6D2
  8
0
 10
7345.8510204905269347
 20
2011.8829840863090794
 30
0.0
 40
0.0002840544527229
 50
104.140351387360397
 51
132.3979210058487013
  0
ARC
  5
C6D3
  8
0
 10
7345.8511395800132959
 20
2011.8825113804339253
 30
0.0
 40
0.0007715307591389
 50
95.7439512916749038
 51
104.1403513873099058
  0
ARC
  5
C6D4
  8
0
 10
7345.8510879814521104
 20
2011.8830243494269325
 30
0.0
 40
0.0002559731985831
 50
52.4768479714828615
 51
95.743951291936753
  0
ARC
  5
C6D5
  8
0
 10
7345.8472934166793493
 20
2011.8780833116200029
 30
0.0
 40
0.0064859472299057
 50
50.8228758501444418
 51
52.4768479714749176
  0
ARC
  5
C6D6
  8
0
 10
7345.8496566076682939
 20
2011.8816034052319992
 30
0.0
 40
0.0022979502904449
 50
22.0148241830922586
 51
41.0066307659532967
  0
ARC
  5
C6D7
  8
0
 10
7345.6620599602338189
 20
2011.8426636841509207
 30
0.0
 40
0.1938568541833478
 50
0.3682816190320943
 51
11.8477521180908294
  0
ARC
  5
C6D8
  8
0
 10
7351.7118853101510467
 20
2011.8815508444010902
 30
0.0
 40
5.8560934741850543
 50
180.3682816190321034
 51
182.2303322538512873
  0
ARC
  5
C6D9
  8
0
 10
7339.0330395057699207
 20
2013.8673535836151132
 30
0.0
 40
6.7574543156865543
 50
358.712718999343906
 51
0.3077569328936083
  0
ARC
  5
C6DA
  8
0
 10
7343.1921119969883875
 20
2013.7738947622030992
 30
0.0
 40
2.5973318969931798
 50
357.4000459842196733
 51
358.712718999343906
  0
ARC
  5
C6DB
  8
0
 10
7344.6980798521717588
 20
2013.7055103732079715
 30
0.0
 40
1.0898122103875021
 50
355.929456377607778
 51
357.4000459842196733
  0
ARC
  5
C6DC
  8
0
 10
7345.4709325920939591
 20
2013.6505109587631068
 30
0.0
 40
0.315004948421341
 50
352.83267366185828
 51
355.929456377607778
  0
ARC
  5
C6DD
  8
0
 10
7345.7304650721916914
 20
2013.6178747347919398
 30
0.0
 40
0.0534285134341088
 50
347.9476339658560846
 51
352.83267366185828
  0
ARC
  5
C6DE
  8
0
 10
7345.7606082299844275
 20
2013.6114388088790292
 30
0.0
 40
0.0226059388511257
 50
342.5864249520490716
 51
347.9476339658560846
  0
ARC
  5
C6DF
  8
0
 10
7345.7779194271861343
 20
2013.6060093038520336
 30
0.0
 40
0.004463252351074
 50
326.0424609057645853
 51
342.5864249520615772
  0
ARC
  5
C6E0
  8
0
 10
7345.7811505135960033
 20
2013.6038333907179094
 30
0.0
 40
0.0005678040641898
 50
287.5877152191030746
 51
326.0424609053671929
  0
ARC
  5
C6E1
  8
0
 10
7345.7812267038461869
 20
2013.6035930298219228
 30
0.0
 40
0.0003156566576198
 50
239.0744331243020895
 51
287.5877152196471229
  0
ARC
  5
C6E2
  8
0
 10
7345.7815483074200529
 20
2013.604129846484966
 30
0.0
 40
0.0009414369609927
 50
208.2114968289772889
 51
239.0744331239401959
  0
ARC
  5
C6E3
  8
0
 10
7345.791184736210198
 20
2013.6088447432739486
 30
0.0
 40
0.0116688811456684
 50
187.0922466527987922
 51
206.244130639060387
  0
ARC
  5
C6E4
  8
0
 10
7346.3340422309665882
 20
2013.6763866199310087
 30
0.0
 40
0.5587119916191293
 50
183.987356711171401
 51
187.0922466527987922
  0
ARC
  5
C6E5
  8
0
 10
7347.1696464715596449
 20
2013.7346324714590082
 30
0.0
 40
1.3963437878856491
 50
180.1216378180075992
 51
183.987356711171401
  0
ARC
  5
C6E6
  8
0
 10
7389.8768191204453615
 20
2013.8252990989599311
 30
0.0
 40
44.1036126785436267
 50
179.7478316194766137
 51
180.1216378180075992
  0
ARC
  5
C6E7
  8
0
 10
7346.9039673395463979
 20
2014.0144310821679028
 30
0.0
 40
1.1303446961083621
 50
176.1154934356439981
 51
179.7478316194766137
  0
ARC
  5
C6E8
  8
0
 10
7350.0987886860893923
 20
2013.797497928572966
 30
0.0
 40
4.3325226158161616
 50
175.7568687521697939
 51
176.1154934356439981
  0
ARC
  5
C6E9
  8
0
 10
7345.87384040309189
 20
2014.1109565313358871
 30
0.0
 40
0.0959621843280197
 50
168.3664842895659035
 51
175.7568687521697939
  0
ARC
  5
C6EA
  8
0
 10
7345.791602656617215
 20
2014.1278876551029953
 30
0.0
 40
0.0119996337620238
 50
157.0664679552691894
 51
168.366484289553199
  0
ARC
  5
C6EB
  8
0
 10
7345.7822154690711614
 20
2014.1318594340621075
 30
0.0
 40
0.001806777532729
 50
132.3979210060608125
 51
157.0664679553374867
  0
ARC
  5
C6EC
  8
0
 10
7345.7811887340649264
 20
2014.1329839343090953
 30
0.0
 40
0.0002840544527229
 50
104.140351387360397
 51
132.3979210058487013
  0
ARC
  5
C6ED
  8
0
 10
7345.7813078235503781
 20
2014.132511228435078
 30
0.0
 40
0.0007715307591389
 50
95.7439512916749038
 51
104.1403513873099058
  0
ARC
  5
C6EE
  8
0
 10
7345.781256224991921
 20
2014.1330241974269484
 30
0.0
 40
0.0002559731985831
 50
52.4768479714828615
 51
95.743951291936753
  0
ARC
  5
C6EF
  8
0
 10
7345.7774616602182505
 20
2014.1280831596200187
 30
0.0
 40
0.0064859472299057
 50
50.8228758501444418
 51
52.4768479714749176
  0
ARC
  5
C6F0
  8
0
 10
7345.779824851205376
 20
2014.1316032532329245
 30
0.0
 40
0.0022979502904449
 50
22.0148241830922586
 51
41.0066307659532967
  0
ARC
  5
C6F1
  8
0
 10
7345.5922282037718105
 20
2014.0926635321509366
 30
0.0
 40
0.1938568541833478
 50
0.3682816190320943
 51
11.8477521180908294
  0
ARC
  5
C6F2
  8
0
 10
7351.6420535536881289
 20
2014.1315506923999692
 30
0.0
 40
5.8560934741850543
 50
180.3682816190321034
 51
182.2303322538512873
  0
ARC
  5
C6F3
  8
0
 10
7339.1028777881192582
 20
2016.1173536004880589
 30
0.0
 40
6.7574543156865543
 50
358.712718999343906
 51
0.3077569328936083
  0
ARC
  5
C6F4
  8
0
 10
7343.2619502793368156
 20
2016.0238947790769544
 30
0.0
 40
2.5973318969931798
 50
357.4000459842196733
 51
358.712718999343906
  0
ARC
  5
C6F5
  8
0
 10
7344.7679181345210964
 20
2015.9555103900820541
 30
0.0
 40
1.0898122103875021
 50
355.929456377607778
 51
357.4000459842196733
  0
ARC
  5
C6F6
  8
0
 10
7345.5407708744432966
 20
2015.900510975636962
 30
0.0
 40
0.315004948421341
 50
352.83267366185828
 51
355.929456377607778
  0
ARC
  5
C6F7
  8
0
 10
7345.800303354541029
 20
2015.8678747516651129
 30
0.0
 40
0.0534285134341088
 50
347.9476339658560846
 51
352.83267366185828
  0
ARC
  5
C6F8
  8
0
 10
7345.830446512330127
 20
2015.8614388257531118
 30
0.0
 40
0.0226059388511257
 50
342.5864249520490716
 51
347.9476339658560846
  0
ARC
  5
C6F9
  8
0
 10
7345.8477577095336528
 20
2015.8560093207258888
 30
0.0
 40
0.004463252351074
 50
326.0424609057645853
 51
342.5864249520615772
  0
ARC
  5
C6FA
  8
0
 10
7345.8509887959453408
 20
2015.8538334075929015
 30
0.0
 40
0.0005678040641898
 50
287.5877152191030746
 51
326.0424609053671929
  0
ARC
  5
C6FB
  8
0
 10
7345.8510649861927959
 20
2015.8535930466960053
 30
0.0
 40
0.0003156566576198
 50
239.0744331243020895
 51
287.5877152196471229
  0
ARC
  5
C6FC
  8
0
 10
7345.8513865897675714
 20
2015.8541298633590486
 30
0.0
 40
0.0009414369609927
 50
208.2114968289772889
 51
239.0744331239401959
  0
ARC
  5
C6FD
  8
0
 10
7345.8610230185577166
 20
2015.8588447601480311
 30
0.0
 40
0.0116688811456684
 50
187.0922466527987922
 51
206.244130639060387
  0
ARC
  5
C6FE
  8
0
 10
7346.4038805133159258
 20
2015.9263866368060008
 30
0.0
 40
0.5587119916191293
 50
183.987356711171401
 51
187.0922466527987922
  0
ARC
  5
C6FF
  8
0
 10
7347.2394847539089824
 20
2015.9846324883330908
 30
0.0
 40
1.3963437878856491
 50
180.1216378180075992
 51
183.987356711171401
  0
ARC
  5
C700
  8
0
 10
7389.9466574027919705
 20
2016.0752991158349232
 30
0.0
 40
44.1036126785436267
 50
179.7478316194766137
 51
180.1216378180075992
  0
ARC
  5
C701
  8
0
 10
7346.9738056218939164
 20
2016.2644310990410759
 30
0.0
 40
1.1303446961083621
 50
176.1154934356439981
 51
179.7478316194766137
  0
ARC
  5
C702
  8
0
 10
7350.1686269684378203
 20
2016.0474979454470486
 30
0.0
 40
4.3325226158161616
 50
175.7568687521697939
 51
176.1154934356439981
  0
ARC
  5
C703
  8
0
 10
7345.9436786854412276
 20
2016.3609565482099697
 30
0.0
 40
0.0959621843280197
 50
168.3664842895659035
 51
175.7568687521697939
  0
ARC
  5
C704
  8
0
 10
7345.861440938963824
 20
2016.3778876719770778
 30
0.0
 40
0.0119996337620238
 50
157.0664679552691894
 51
168.366484289553199
  0
ARC
  5
C705
  8
0
 10
7345.8520537514195894
 20
2016.3818594509359627
 30
0.0
 40
0.001806777532729
 50
132.3979210060608125
 51
157.0664679553374867
  0
ARC
  5
C706
  8
0
 10
7345.8510270164124449
 20
2016.3829839511829505
 30
0.0
 40
0.0002840544527229
 50
104.140351387360397
 51
132.3979210058487013
  0
ARC
  5
C707
  8
0
 10
7345.8511461058988061
 20
2016.3825112453089332
 30
0.0
 40
0.0007715307591389
 50
95.7439512916749038
 51
104.1403513873099058
  0
ARC
  5
C708
  8
0
 10
7345.8510945073403491
 20
2016.383024214301031
 30
0.0
 40
0.0002559731985831
 50
52.4768479714828615
 51
95.743951291936753
  0
ARC
  5
C709
  8
0
 10
7345.847299942565769
 20
2016.3780831764941013
 30
0.0
 40
0.0064859472299057
 50
50.8228758501444418
 51
52.4768479714749176
  0
ARC
  5
C70A
  8
0
 10
7345.8496631335528946
 20
2016.3816032701060976
 30
0.0
 40
0.0022979502904449
 50
22.0148241830922586
 51
41.0066307659532967
  0
ARC
  5
C70B
  8
0
 10
7345.6620664861202386
 20
2016.3426635490250192
 30
0.0
 40
0.1938568541833478
 50
0.3682816190320943
 51
11.8477521180908294
  0
ARC
  5
C70C
  8
0
 10
7351.7118918360356474
 20
2016.3815507092749613
 30
0.0
 40
5.8560934741850543
 50
180.3682816190321034
 51
182.2303322538512873
  0
ARC
  5
C70D
  8
0
 10
7339.0330395071887324
 20
2018.3673535836139763
 30
0.0
 40
6.7574543156865543
 50
358.712718999343906
 51
0.3077569328936083
  0
ARC
  5
C70E
  8
0
 10
7343.1921119984071993
 20
2018.2738947622019623
 30
0.0
 40
2.5973318969931798
 50
357.4000459842196733
 51
358.712718999343906
  0
ARC
  5
C70F
  8
0
 10
7344.6980798535896611
 20
2018.2055103732079715
 30
0.0
 40
1.0898122103875021
 50
355.929456377607778
 51
357.4000459842196733
  0
ARC
  5
C710
  8
0
 10
7345.4709325935127708
 20
2018.15051095876197
 30
0.0
 40
0.315004948421341
 50
352.83267366185828
 51
355.929456377607778
  0
ARC
  5
C711
  8
0
 10
7345.7304650736114127
 20
2018.1178747347910303
 30
0.0
 40
0.0534285134341088
 50
347.9476339658560846
 51
352.83267366185828
  0
ARC
  5
C712
  8
0
 10
7345.7606082313996012
 20
2018.1114388088790292
 30
0.0
 40
0.0226059388511257
 50
342.5864249520490716
 51
347.9476339658560846
  0
ARC
  5
C713
  8
0
 10
7345.777919428604946
 20
2018.1060093038520336
 30
0.0
 40
0.004463252351074
 50
326.0424609057645853
 51
342.5864249520615772
  0
ARC
  5
C714
  8
0
 10
7345.781150515014815
 20
2018.1038333907190463
 30
0.0
 40
0.0005678040641898
 50
287.5877152191030746
 51
326.0424609053671929
  0
ARC
  5
C715
  8
0
 10
7345.7812267052640891
 20
2018.1035930298219228
 30
0.0
 40
0.0003156566576198
 50
239.0744331243020895
 51
287.5877152196471229
  0
ARC
  5
C716
  8
0
 10
7345.7815483088379551
 20
2018.1041298464840565
 30
0.0
 40
0.0009414369609927
 50
208.2114968289772889
 51
239.0744331239401959
  0
ARC
  5
C717
  8
0
 10
7345.7911847376290098
 20
2018.1088447432739486
 30
0.0
 40
0.0116688811456684
 50
187.0922466527987922
 51
206.244130639060387
  0
ARC
  5
C718
  8
0
 10
7346.334042232387219
 20
2018.1763866199319182
 30
0.0
 40
0.5587119916191293
 50
183.987356711171401
 51
187.0922466527987922
  0
ARC
  5
C719
  8
0
 10
7347.1696464729793661
 20
2018.2346324714580987
 30
0.0
 40
1.3963437878856491
 50
180.1216378180075992
 51
183.987356711171401
  0
ARC
  5
C71A
  8
0
 10
7389.8768191218632637
 20
2018.3252990989599311
 30
0.0
 40
44.1036126785436267
 50
179.7478316194766137
 51
180.1216378180075992
  0
ARC
  5
C71B
  8
0
 10
7346.9039673409633906
 20
2018.5144310821669933
 30
0.0
 40
1.1303446961083621
 50
176.1154934356439981
 51
179.7478316194766137
  0
ARC
  5
C71C
  8
0
 10
7350.098788687508204
 20
2018.297497928572966
 30
0.0
 40
4.3325226158161616
 50
175.7568687521697939
 51
176.1154934356439981
  0
ARC
  5
C71D
  8
0
 10
7345.8738404045107018
 20
2018.6109565313358871
 30
0.0
 40
0.0959621843280197
 50
168.3664842895659035
 51
175.7568687521697939
  0
ARC
  5
C71E
  8
0
 10
7345.7916026580351172
 20
2018.6278876551029953
 30
0.0
 40
0.0119996337620238
 50
157.0664679552691894
 51
168.366484289553199
  0
ARC
  5
C71F
  8
0
 10
7345.7822154704890636
 20
2018.6318594340621075
 30
0.0
 40
0.001806777532729
 50
132.3979210060608125
 51
157.0664679553374867
  0
ARC
  5
C720
  8
0
 10
7345.7811887354828286
 20
2018.6329839343090953
 30
0.0
 40
0.0002840544527229
 50
104.140351387360397
 51
132.3979210058487013
  0
ARC
  5
C721
  8
0
 10
7345.7813078249682803
 20
2018.632511228435078
 30
0.0
 40
0.0007715307591389
 50
95.7439512916749038
 51
104.1403513873099058
  0
ARC
  5
C722
  8
0
 10
7345.7812562264089138
 20
2018.6330241974269484
 30
0.0
 40
0.0002559731985831
 50
52.4768479714828615
 51
95.743951291936753
  0
ARC
  5
C723
  8
0
 10
7345.7774616616352432
 20
2018.6280831596209282
 30
0.0
 40
0.0064859472299057
 50
50.8228758501444418
 51
52.4768479714749176
  0
ARC
  5
C724
  8
0
 10
7345.7798248526232783
 20
2018.631603253232015
 30
0.0
 40
0.0022979502904449
 50
22.0148241830922586
 51
41.0066307659532967
  0
ARC
  5
C725
  8
0
 10
7345.5922282051897128
 20
2018.5926635321509366
 30
0.0
 40
0.1938568541833478
 50
0.3682816190320943
 51
11.8477521180908294
  0
ARC
  5
C726
  8
0
 10
7351.6420535551069406
 20
2018.6315506924011061
 30
0.0
 40
5.8560934741850543
 50
180.3682816190321034
 51
182.2303322538512873
  0
ARC
  5
C727
  8
0
 10
7345.6491998314086231
 20
2008.9645998617450005
 30
0.0
 40
0.0031193709934645
 50
301.0293056498098281
 51
328.971226890967273
  0
ARC
  5
C728
  8
0
 10
7345.6502955337882668
 20
2008.9627784176830119
 30
0.0
 40
0.0009937599813414
 50
273.9397891778430107
 51
301.029305649635603
  0
ARC
  5
C729
  8
0
 10
7345.6502702301550016
 20
2008.9631458245689828
 30
0.0
 40
0.0013620371789064
 50
247.2596939420973001
 51
273.9397891780000123
  0
ARC
  5
C72A
  8
0
 10
7345.6504321136380895
 20
2008.9635320560819309
 30
0.0
 40
0.0017808223775839
 50
216.6336557509937961
 51
247.2596939420922979
  0
ARC
  5
C72B
  8
0
 10
7345.6588394270165736
 20
2008.9697835436900277
 30
0.0
 40
0.0122576547034307
 50
197.066579563993912
 51
216.6336557510352918
  0
ARC
  5
C72C
  8
0
 10
7345.8930218410423549
 20
2009.0416779623110415
 30
0.0
 40
0.2572274701253075
 50
196.2040263166184104
 51
197.066579563993912
  0
ARC
  5
C72D
  8
0
 10
7345.9795358327100985
 20
2009.0400613682759285
 30
0.0
 40
0.3408234429299844
 50
184.8869021053421875
 51
191.8803671781566891
  0
ARC
  5
C72E
  8
0
 10
7352.6385976036963257
 20
2009.5096981420811062
 30
0.0
 40
7.0163895524948767
 50
180.7824278328268122
 51
184.0755812847204993
  0
ARC
  5
C72F
  8
0
 10
7379.6192958093834022
 20
2009.8781678925859069
 30
0.0
 40
33.9996036980225327
 50
179.3187005182026041
 51
180.7824278328268122
  0
ARC
  5
C730
  8
0
 10
7354.4242388273878532
 20
2010.1777743991119678
 30
0.0
 40
8.8027653966665902
 50
177.4681163183732053
 51
179.3187005182026041
  0
ARC
  5
C731
  8
0
 10
7351.4879556378682537
 20
2010.3076124153960791
 30
0.0
 40
5.8636129883135339
 50
176.3228294307320141
 51
177.4681163183732053
  0
ARC
  5
C732
  8
0
 10
7346.5935359352797605
 20
2010.6221620594160413
 30
0.0
 40
0.9590961208084834
 50
171.9937685468023858
 51
176.3228294307320141
  0
ARC
  5
C733
  8
0
 10
7345.7309168291149035
 20
2010.743490941069922
 30
0.0
 40
0.0879862426380637
 50
161.9198292289406993
 51
171.9937685468023858
  0
ARC
  5
C734
  8
0
 10
7345.6584396231728533
 20
2010.7671523836550023
 30
0.0
 40
0.0117444611386836
 50
146.8349358724206866
 51
161.9198292289406993
  0
ARC
  5
C735
  8
0
 10
7345.6516075292302048
 20
2010.7716172333080067
 30
0.0
 40
0.0035828197545345
 50
122.3204504878272019
 51
146.834935872409801
  0
ARC
  5
C736
  8
0
 10
7345.6501658716797465
 20
2010.7738959089260788
 30
0.0
 40
0.0008863889545101
 50
85.3866825614457952
 51
122.3204504878922023
  0
ARC
  5
C737
  8
0
 10
7345.650098038264332
 20
2010.7730552631360297
 30
0.0
 40
0.0017297671119954
 50
66.0998681577246288
 51
85.3866825614457952
  0
ARC
  5
C738
  8
0
 10
7345.6502300989750438
 20
2010.7733532732170261
 30
0.0
 40
0.0014038069313761
 50
42.2249093961658701
 51
66.0998681576082419
  0
ARC
  5
C739
  8
0
 10
7345.6455045129641803
 20
2010.7690646284070226
 30
0.0
 40
0.007785314390194
 50
31.3059010795034496
 51
42.2249093961851685
  0
ARC
  5
C73A
  8
0
 10
7345.5930101727262809
 20
2010.7486508015010713
 30
0.0
 40
0.0640040364733623
 50
7.601664288301154
 51
22.4669117541368912
  0
ARC
  5
C73B
  8
0
 10
7344.4027347056153303
 20
2010.5897989563241026
 30
0.0
 40
1.2648327487893509
 50
3.3911819476318441
 51
7.601664288301154
  0
ARC
  5
C73C
  8
0
 10
7339.4806722183320744
 20
2010.298134754638113
 30
0.0
 40
6.1955291636231777
 50
2.028836114826968
 51
3.3911819476318441
  0
ARC
  5
C73D
  8
0
 10
7328.8826135967892696
 20
2009.9227019482400465
 30
0.0
 40
16.8002354932564906
 50
359.2154976307807033
 51
2.028836114826968
  0
ARC
  5
C73E
  8
0
 10
7318.9215920486858522
 20
2010.0590982665189586
 30
0.0
 40
26.7621908353283402
 50
357.9040460885614721
 51
359.2154976307807033
  0
ARC
  5
C73F
  8
0
 10
7344.7591654565130739
 20
2009.113504494298013
 30
0.0
 40
0.9073199753350385
 50
351.7746111151934088
 51
357.9040460885614721
  0
ARC
  5
C740
  8
0
 10
7345.5572941407526741
 20
2008.9981313603400395
 30
0.0
 40
0.1008955482206788
 50
339.6181337691390922
 51
351.7746111151934088
  0
ARC
  5
C741
  8
0
 10
7345.6488418510361953
 20
2016.9645488400410613
 30
0.0
 40
0.0031193709934645
 50
301.0293056498098281
 51
328.971226890967273
  0
ARC
  5
C742
  8
0
 10
7345.6499375534140199
 20
2016.9627273959779359
 30
0.0
 40
0.0009937599813414
 50
273.9397891778430107
 51
301.029305649635603
  0
ARC
  5
C743
  8
0
 10
7345.6499122497798453
 20
2016.9630948028650437
 30
0.0
 40
0.0013620371789064
 50
247.2596939420973001
 51
273.9397891780000123
  0
ARC
  5
C744
  8
0
 10
7345.6500741332638427
 20
2016.9634810343770823
 30
0.0
 40
0.0017808223775839
 50
216.6336557509937961
 51
247.2596939420922979
  0
ARC
  5
C745
  8
0
 10
7345.6584814466441458
 20
2016.9697325219849517
 30
0.0
 40
0.0122576547034307
 50
197.066579563993912
 51
216.6336557510352918
  0
ARC
  5
C746
  8
0
 10
7345.8926638606699271
 20
2017.0416269406059655
 30
0.0
 40
0.2572274701253075
 50
196.2040263166184104
 51
197.066579563993912
  0
ARC
  5
C747
  8
0
 10
7345.9791778523367611
 20
2017.0400103465719894
 30
0.0
 40
0.3408234429299844
 50
184.8869021053421875
 51
191.8803671781566891
  0
ARC
  5
C748
  8
0
 10
7352.6382396233211693
 20
2017.5096471203769397
 30
0.0
 40
7.0163895524948767
 50
180.7824278328268122
 51
184.0755812847204993
  0
ARC
  5
C749
  8
0
 10
7379.6189378290091554
 20
2017.8781168708819678
 30
0.0
 40
33.9996036980225327
 50
179.3187005182026041
 51
180.7824278328268122
  0
ARC
  5
C74A
  8
0
 10
7354.4238808470154254
 20
2018.1777233774068918
 30
0.0
 40
8.8027653966665902
 50
177.4681163183732053
 51
179.3187005182026041
  0
ARC
  5
C74B
  8
0
 10
7351.4875976574949163
 20
2018.3075613936919126
 30
0.0
 40
5.8636129883135339
 50
176.3228294307320141
 51
177.4681163183732053
  0
ARC
  5
C74C
  8
0
 10
7346.5931779549073326
 20
2018.6221110377109653
 30
0.0
 40
0.9590961208084834
 50
171.9937685468023858
 51
176.3228294307320141
  0
ARC
  5
C74D
  8
0
 10
7345.7305588487415662
 20
2018.7434399193659829
 30
0.0
 40
0.0879862426380637
 50
161.9198292289406993
 51
171.9937685468023858
  0
ARC
  5
C74E
  8
0
 10
7345.6580816428004255
 20
2018.7671013619499263
 30
0.0
 40
0.0117444611386836
 50
146.8349358724206866
 51
161.9198292289406993
  0
ARC
  5
C74F
  8
0
 10
7345.6512495488568675
 20
2018.7715662116040676
 30
0.0
 40
0.0035828197545345
 50
122.3204504878272019
 51
146.834935872409801
  0
ARC
  5
C750
  8
0
 10
7345.6498078913073186
 20
2018.7738448872210029
 30
0.0
 40
0.0008863889545101
 50
85.3866825614457952
 51
122.3204504878922023
  0
ARC
  5
C751
  8
0
 10
7345.6497400578909946
 20
2018.7730042414320906
 30
0.0
 40
0.0017297671119954
 50
66.0998681577246288
 51
85.3866825614457952
  0
ARC
  5
C752
  8
0
 10
7345.6498721186017065
 20
2018.7733022515119501
 30
0.0
 40
0.0014038069313761
 50
42.2249093961658701
 51
66.0998681576082419
  0
ARC
  5
C753
  8
0
 10
7345.645146532590843
 20
2018.7690136067030835
 30
0.0
 40
0.007785314390194
 50
31.3059010795034496
 51
42.2249093961851685
  0
ARC
  5
C754
  8
0
 10
7345.5926521923511245
 20
2018.7485997797959953
 30
0.0
 40
0.0640040364733623
 50
7.601664288301154
 51
22.4669117541368912
  0
ARC
  5
C755
  8
0
 10
7344.4023767252410835
 20
2018.5897479346199361
 30
0.0
 40
1.2648327487893509
 50
3.3911819476318441
 51
7.601664288301154
  0
ARC
  5
C756
  8
0
 10
7339.4803142379587371
 20
2018.2980837329339465
 30
0.0
 40
6.1955291636231777
 50
2.028836114826968
 51
3.3911819476318441
  0
ARC
  5
C757
  8
0
 10
7328.8822556164168418
 20
2017.9226509265361074
 30
0.0
 40
16.8002354932564906
 50
359.2154976307807033
 51
2.028836114826968
  0
ARC
  5
C758
  8
0
 10
7318.9212340683116054
 20
2018.0590472448150194
 30
0.0
 40
26.7621908353283402
 50
357.9040460885614721
 51
359.2154976307807033
  0
ARC
  5
C759
  8
0
 10
7344.758807476138827
 20
2017.1134534725940739
 30
0.0
 40
0.9073199753350385
 50
351.7746111151934088
 51
357.9040460885614721
  0
ARC
  5
C75A
  8
0
 10
7345.5569361603811558
 20
2016.9980803386349635
 30
0.0
 40
0.1008955482206788
 50
339.6181337691390922
 51
351.7746111151934088
  0
ARC
  5
C75B
  8
0
 10
7344.8637574087679241
 20
2008.2953617538130402
 30
0.0
 40
0.003457149635493
 50
93.8069337803297145
 51
160.6906564361543133
  0
ARC
  5
C75C
  8
0
 10
7344.8901111664308701
 20
2008.281145456294098
 30
0.0
 40
0.0333623485989296
 50
152.5881576952914997
 51
167.0523549334562858
  0
ARC
  5
C75D
  8
0
 10
7345.1986142996647686
 20
2008.2102187583750492
 30
0.0
 40
0.3499137341480077
 50
167.0523549334562858
 51
174.8970328380146952
  0
ARC
  5
C75E
  8
0
 10
7349.7313535825951476
 20
2007.8054459479549223
 30
0.0
 40
4.9006901992223728
 50
174.8970328380146952
 51
178.5167952217165919
  0
ARC
  5
C75F
  8
0
 10
-13571.5765088840998942
 20
2549.5123113876179559
 30
0.0
 40
20923.4190943457215326
 50
358.5159926776668158
 51
358.5167952217166203
  0
ARC
  5
C760
  8
0
 10
7357.0916465870714092
 20
2007.3215236417179312
 30
0.0
 40
12.2710450346785098
 50
178.5159926776667021
 51
179.9954663767204011
  0
ARC
  5
C761
  8
0
 10
7444.106974892186372
 20
2007.3146384099829902
 30
0.0
 40
99.2863736121955753
 50
179.9954663767204011
 51
180.4681287642652023
  0
ARC
  5
C762
  8
0
 10
7355.7624076626416354
 20
2006.5928129331380205
 30
0.0
 40
10.93885756904705
 50
180.4681287642652023
 51
183.4329063332837109
  0
ARC
  5
C763
  8
0
 10
7346.4392524144359413
 20
2006.0335418561348888
 30
0.0
 40
1.5989427985721709
 50
183.4329063332837109
 51
186.949682398392298
  0
ARC
  5
C764
  8
0
 10
7345.0768522350454077
 20
2005.8674745262389933
 30
0.0
 40
0.2264586978036813
 50
186.949682398392298
 51
196.7920473269660988
  0
ARC
  5
C765
  8
0
 10
7344.8651266439401297
 20
2005.8035828665340432
 30
0.0
 40
0.0053029379672533
 50
196.7920473269784907
 51
235.160421904393786
  0
ARC
  5
C766
  8
0
 10
7344.8633124793959723
 20
2005.8009764694641035
 30
0.0
 40
0.0021273279977194
 50
235.160421904393786
 51
266.1432715604021269
  0
ARC
  5
C767
  8
0
 10
7344.8632667423880775
 20
2005.800298024382073
 30
0.0
 40
0.0014473429954675
 50
266.1432715605581052
 51
313.4264252218998195
  0
ARC
  5
C768
  8
0
 10
7344.8570696980032153
 20
2005.806845163835078
 30
0.0
 40
0.0104622414480549
 50
313.4264252218529805
 51
324.1064036335417882
  0
ARC
  5
C769
  8
0
 10
7344.8273836665011913
 20
2005.8202913301070112
 30
0.0
 40
0.0428915054030427
 50
332.8384874976978267
 51
348.4377583231428162
  0
ARC
  5
C76A
  8
0
 10
7344.1712252885108683
 20
2005.9436218368380196
 30
0.0
 40
0.710534625198941
 50
349.2996067352381147
 51
356.7115952178821203
  0
ARC
  5
C76B
  8
0
 10
7346.0240642768740145
 20
2005.8371640229920558
 30
0.0
 40
1.1453601948063601
 50
174.9038917260484141
 51
176.7115952178820919
  0
ARC
  5
C76C
  8
0
 10
7341.8815903157355933
 20
2006.2065863642410477
 30
0.0
 40
3.0135535317459792
 50
354.9038917260483004
 51
359.8400957960465121
  0
ARC
  5
C76D
  8
0
 10
7362.0232951714888259
 20
2006.1503736436779946
 30
0.0
 40
17.1282297648294488
 50
177.9985200945426129
 51
179.8400957960465121
  0
ARC
  5
C76E
  8
0
 10
7337.2686190003041702
 20
2007.0154661584379028
 30
0.0
 40
7.6415578281101517
 50
357.9985200945425845
 51
1.8617973142974269
  0
ARC
  5
C76F
  8
0
 10
7359.3425768531724316
 20
2007.7330007946070509
 30
0.0
 40
14.4440590128179505
 50
179.8195771174299864
 51
181.8617973142974051
  0
ARC
  5
C770
  8
0
 10
7340.4905686858210174
 20
2007.7923654620819889
 30
0.0
 40
4.4080426234874217
 50
359.8195771174169977
 51
4.8695253924337916
  0
ARC
  5
C771
  8
0
 10
7412.0300203245687953
 20
2013.8871314688140046
 30
0.0
 40
67.3905598242584603
 50
184.8100060214376867
 51
184.8695253924337862
  0
ARC
  5
C772
  8
0
 10
7344.4888196250085457
 20
2008.2036597745839117
 30
0.0
 40
0.389346065594234
 50
4.81000602143774
 51
12.4472933397116901
  0
ARC
  5
C773
  8
0
 10
7344.8315601170334048
 20
2008.279312795109945
 30
0.0
 40
0.038355432688513
 50
12.4472933397116901
 51
26.4830564155728112
  0
ARC
  5
C774
  8
0
 10
7344.8610540997042335
 20
2008.2940070638769612
 30
0.0
 40
0.0054037021062152
 50
26.4830564155494912
 51
62.7552652321043567
  0
ARC
  5
C775
  8
0
 10
7344.9180387997748767
 20
2008.5054388494791056
 30
0.0
 40
0.0064788535237545
 50
121.0626290381483017
 51
158.7691849967351061
  0
ARC
  5
C776
  8
0
 10
7345.071879070182149
 20
2008.4456729345820349
 30
0.0
 40
0.17152064635979
 50
158.7691849967351061
 51
161.8801266457180077
  0
ARC
  5
C777
  8
0
 10
7345.0455026454492327
 20
2008.4795742071930817
 30
0.0
 40
0.1380145058294139
 50
171.9015593807959874
 51
178.441518736326401
  0
ARC
  5
C778
  8
0
 10
7341.7664221054092195
 20
2008.600307081218034
 30
0.0
 40
3.1432945622671209
 50
355.9836870116920977
 51
357.8672168334715025
  0
ARC
  5
C779
  8
0
 10
7344.5841916466333714
 20
2008.3931308564799565
 30
0.0
 40
0.3180705845077656
 50
346.5205993609858979
 51
357.6608907357037879
  0
LINE
  5
C77A
  8
0
 10
7344.915564501490735
 20
2008.5111717510669678
 30
0.0
 11
7345.4862161250102872
 21
2008.4712564481731079
 31
0.0
  0
ARC
  5
C77B
  8
0
 10
7345.4805821785557782
 20
2008.3907137291400886
 30
0.0
 40
0.0807395252756169
 50
53.8055019558952381
 51
85.9986897410232558
  0
ARC
  5
C77C
  8
0
 10
7345.4759987730076318
 20
2008.3844500376569613
 30
0.0
 40
0.0885010610387936
 50
11.82176051491302
 51
53.8055019558952381
  0
ARC
  5
C77D
  8
0
 10
7344.9155169594851031
 20
2008.5092994527819883
 30
0.0
 40
0.0018729017879622
 50
88.5454394904481461
 51
104.6679931733919062
  0
ARC
  5
C77E
  8
0
 10
7344.9155984246235676
 20
2008.5089882178990592
 30
0.0
 40
0.002194621730357
 50
104.6679931733919062
 51
114.2837059508026982
  0
LINE
  5
C77F
  8
0
 10
7344.8892426800603062
 20
2008.3085200530060774
 30
0.0
 11
7344.8884845254588072
 21
2005.7395160054070402
 31
0.0
  0
ARC
  5
C780
  8
0
 10
7345.0084335388983163
 20
2008.3020432372270534
 30
0.0
 40
0.119366700405294
 50
172.5272372717284952
 51
176.8893402948862104
  0
ARC
  5
C781
  8
0
 10
7344.8961142801736059
 20
2008.3167760317719512
 30
0.0
 40
0.0060853201379649
 50
163.6646393378794073
 51
172.5272372716767961
  0
ARC
  5
C782
  8
0
 10
7344.8932754529641898
 20
2008.3176080651110169
 30
0.0
 40
0.0031270741362173
 50
151.8830997647795868
 51
163.6646393378919129
  0
ARC
  5
C783
  8
0
 10
7344.8906453017452804
 20
2008.318992378475059
 30
0.0
 40
0.0001560332664579
 50
72.26579127476829
 51
145.0482683348743933
  0
ARC
  5
C784
  8
0
 10
7344.9297852728032012
 20
2009.0196600380459131
 30
0.0
 40
0.7016089694133436
 50
266.8059237363494844
 51
267.0355467926531787
  0
LINE
  5
C785
  8
0
 10
7344.893500591198972
 20
2008.3189899531689662
 30
0.0
 11
7345.4656679346599049
 21
2008.2895051768070971
 31
0.0
  0
ARC
  5
C786
  8
0
 10
7345.4620765978597774
 20
2008.2198134277380177
 30
0.0
 40
0.0697842216290707
 50
23.5725276963484482
 51
87.0500583920919269
  0
ARC
  5
C787
  8
0
 10
7345.4052137397748083
 20
2008.1950031178939753
 30
0.0
 40
0.1318240161507378
 50
13.3355990074135509
 51
23.5725276963365111
  0
ARC
  5
C788
  8
0
 10
7345.5373952857507902
 20
2008.2383843838790654
 30
0.0
 40
0.0135523956459797
 50
253.2221140913293027
 51
281.0478295334986001
  0
ARC
  5
C789
  8
0
 10
7345.5377786306844428
 20
2008.2364211394419726
 30
0.0
 40
0.0115520751572956
 50
281.0476942596126833
 51
311.3801876421920838
  0
ARC
  5
C78A
  8
0
 10
7345.5295412662835588
 20
2008.2457711109771026
 30
0.0
 40
0.0240130598693307
 50
311.3801876421835004
 51
336.6883799117359217
  0
ARC
  5
C78B
  8
0
 10
7345.471512830183201
 20
2008.2707760564860564
 30
0.0
 40
0.0871996620569976
 50
336.6883799117359217
 51
0.5233132022471773
  0
ARC
  5
C78C
  8
0
 10
7347.217929105580879
 20
2008.2867274601630925
 30
0.0
 40
1.659289460225633
 50
179.0750643976988101
 51
180.5233132022470954
  0
ARC
  5
C78D
  8
0
 10
7345.2296195728140447
 20
2008.3188278707280006
 30
0.0
 40
0.3292791793864129
 50
359.0750643976987817
 51
10.8064085917519908
  0
ARC
  5
C78E
  8
0
 10
7345.6110827294724004
 20
2008.3916400802509088
 30
0.0
 40
0.0590708659883724
 50
183.3352471490709092
 51
190.806408591751989
  0
ARC
  5
C78F
  8
0
 10
7345.4600571394312283
 20
2008.3828387795740582
 30
0.0
 40
0.0922109628630048
 50
3.3352471490709572
 51
73.5056921058499313
  0
LINE
  5
C790
  8
0
 10
7344.823422473107712
 20
2006.5661705690808958
 30
0.0
 11
7344.8655685753592479
 21
2006.5661714016071073
 31
0.0
  0
ARC
  5
C791
  8
0
 10
7364.6076242791295954
 20
2006.8081964983759917
 30
0.0
 40
19.743539185217319
 50
180.3889650515953065
 51
182.5235081687102081
  0
ARC
  5
C792
  8
0
 10
7382.0333282559731742
 20
2006.9264965552229114
 30
0.0
 40
37.1696447166324688
 50
179.183496027220599
 51
180.3889650515953065
  0
ARC
  5
C793
  8
0
 10
7394.1802651884090665
 20
2006.7533826925300673
 30
0.0
 40
49.3178151653063424
 50
178.3580039896176004
 51
179.183496027220599
  0
LINE
  5
C794
  8
0
 10
7344.8213343234519925
 20
2007.4556250823800383
 30
0.0
 11
7344.8674577175588638
 21
2007.4561714391070382
 31
0.0
  0
LINE
  5
C795
  8
0
 10
7344.9157022734598286
 20
2005.511176864006984
 30
0.0
 11
7345.4862953723586543
 21
2005.5511123874071018
 31
0.0
  0
ARC
  5
C796
  8
0
 10
7345.4806290718470336
 20
2005.6320716861430355
 30
0.0
 40
0.0811573472533642
 50
274.0035740387115766
 51
325.4694339840165185
  0
ARC
  5
C797
  8
0
 10
7345.4622102764760712
 20
2005.64474504617192
 30
0.0
 40
0.103515032225847
 50
325.4694339840165185
 51
345.9467920051545207
  0
ARC
  5
C798
  8
0
 10
7342.6125825411609185
 20
2006.3580485172740282
 30
0.0
 40
3.0410616398155059
 50
345.9467920051545207
 51
353.7375342686110002
  0
ARC
  5
C799
  8
0
 10
7327.0783284275139522
 20
2008.0627464102810791
 30
0.0
 40
18.668570903091819
 50
353.7375342686110002
 51
356.2020256427106233
  0
ARC
  5
C79A
  8
0
 10
7341.6514212441343261
 20
2007.0953201442100635
 30
0.0
 40
4.06340237198234
 50
356.2020256427106233
 51
7.5818969642221763
  0
ARC
  5
C79B
  8
0
 10
7488.1904000227132201
 20
2026.6006720286870859
 30
0.0
 40
143.7680254558175932
 50
187.3760100013483907
 51
187.58189696422221
  0
ARC
  5
C79C
  8
0
 10
7343.5828524321059376
 20
2007.8809965676439333
 30
0.0
 40
2.046133903061381
 50
7.3760100013484582
 51
14.8940028975240608
  0
LINE
  5
C79D
  8
0
 10
7344.868804410744815
 20
2007.545044648368048
 30
0.0
 11
7345.4371619723433469
 21
2007.5218270987029427
 31
0.0
  0
ARC
  5
C79E
  8
0
 10
7364.5889918679740731
 20
2007.2992808854880877
 30
0.0
 40
19.0780110605631208
 50
177.2174191976610018
 51
179.275029187588899
  0
ARC
  5
C79F
  8
0
 10
7343.3369772665164419
 20
2007.2833016647709883
 30
0.0
 40
2.1907014657667769
 50
359.6557713417884088
 51
6.7468380327045461
  0
ARC
  5
C7A0
  8
0
 10
7343.7629159827329204
 20
2007.2754701296200892
 30
0.0
 40
1.7647313333270029
 50
351.6366545213687118
 51
359.8258087062671962
  0
ARC
  5
C7A1
  8
0
 10
7378.7064587638642479
 20
2006.9805710675839237
 30
0.0
 40
33.1976003310404124
 50
179.9340383207222942
 51
181.4238085550396988
  0
ARC
  5
C7A2
  8
0
 10
7344.6370450418962719
 20
2005.9447768176698901
 30
0.0
 40
0.9069288924685389
 50
351.1038795000072241
 51
13.4477402381425595
  0
ARC
  5
C7A3
  8
0
 10
7346.967432833026578
 20
2005.8612945028569357
 30
0.0
 40
1.435491872726318
 50
182.266424821724911
 51
189.5093422221146113
  0
ARC
  5
C7A4
  8
0
 10
7345.6049119607978355
 20
2005.6403623960441109
 30
0.0
 40
0.0556621112982613
 50
196.9453396600846986
 51
206.9627277051104954
  0
ARC
  5
C7A5
  8
0
 10
7345.5587701646572896
 20
2005.6173895519038979
 30
0.0
 40
0.0041437290777985
 50
213.1339870466630941
 51
303.008750418120087
  0
ARC
  5
C7A6
  8
0
 10
7344.9157023750431108
 20
2005.5137792844479918
 30
0.0
 40
0.0026024204426209
 50
217.0018679686440919
 51
269.997763529406825
  0
ARC
  5
C7A7
  8
0
 10
7344.9304173175023607
 20
2005.5248685411099814
 30
0.0
 40
0.021027977283675
 50
195.7493995899189088
 51
217.0018679686440919
  0
ARC
  5
C7A8
  8
0
 10
7345.359345676232806
 20
2005.6458339970829456
 30
0.0
 40
0.4666872400198506
 50
178.3033927508168119
 51
195.7493995899189088
  0
ARC
  5
C7A9
  8
0
 10
7344.3678730511137474
 20
2005.670921637110041
 30
0.0
 40
0.5251109355013729
 50
358.7701718112007256
 51
7.5059030111951222
  0
LINE
  5
C7AA
  8
0
 10
7344.8914834386359871
 20
2005.7105909786960183
 30
0.0
 11
7345.4604489838902737
 21
2005.7507076506149133
 31
0.0
  0
ARC
  5
C7AB
  8
0
 10
7345.4545349948348303
 20
2005.8345843992860864
 30
0.0
 40
0.084084982215454
 50
274.0331411795129952
 51
339.0548265237982832
  0
LINE
  5
C7AC
  8
0
 10
7344.8923166048543862
 20
2006.0760792735670748
 30
0.0
 11
7345.445428330723189
 21
2006.0920260344580583
 31
0.0
  0
ARC
  5
C7AD
  8
0
 10
7345.4432072469080595
 20
2006.1690640932140468
 30
0.0
 40
0.077070070132599
 50
271.65143680849161
 51
350.0073229269725061
  0
LINE
  5
C7AE
  8
0
 10
7344.8637725020362268
 20
2007.007819465376997
 30
0.0
 11
7345.508880432418664
 21
2007.0187897461930788
 31
0.0
  0
ARC
  5
C7AF
  8
0
 10
7345.4407977332566588
 20
2007.6673449380800776
 30
0.0
 40
0.1455632520052004
 50
268.568763622015183
 51
299.5142419499928792
  0
ARC
  5
C7B1
  8
0
 10
7353.4948642280287459
 20
2028.0147700415921008
 30
0.0
 40
5.3465001680944511
 50
301.9214712997829793
 51
327.0930935484943234
  0
ARC
  5
C7B2
  8
0
 10
7353.7442428158210532
 20
2027.6144610464339166
 30
0.0
 40
4.874867926135396
 50
277.6172819993565213
 51
301.9214712997829793
  0
ARC
  5
C7B3
  8
0
 10
7353.7377800205622407
 20
2027.6627862508898943
 30
0.0
 40
4.9236233679689407
 50
228.6790357754493073
 51
277.6172819993565213
  0
ARC
  5
C7B4
  8
0
 10
7354.6790291486731803
 20
2028.7333973541080923
 30
0.0
 40
6.3491611806923753
 50
212.7061383223887958
 51
228.6790357754493073
  0
ARC
  5
C7B5
  8
0
 10
7350.1489286312998956
 20
2020.4913568941130961
 30
0.0
 40
4.8262848475636062
 50
84.6146603211078343
 51
90.6268917986562741
  0
ARC
  5
C7B6
  8
0
 10
7349.857720110911032
 20
2009.9100645661039835
 30
0.0
 40
15.4091326454948803
 50
89.1135084321260393
 51
91.2126577076393943
  0
ARC
  5
C7B7
  8
0
 10
7351.4592542629188756
 20
1978.4143955866729812
 30
0.0
 40
46.9409467403366065
 50
92.3535277649765902
 51
92.555896225870697
  0
ARC
  5
C7B8
  8
0
 10
7349.3767574393168616
 20
2025.1391840637920723
 30
0.0
 40
0.1698041022433867
 50
93.6426641733222738
 51
103.0162351579792954
  0
ARC
  5
C7B9
  8
0
 10
7349.3393366350510405
 20
2025.3009549049070301
 30
0.0
 40
0.0037616518890988
 50
102.6485293285089
 51
139.2417780655553088
  0
ARC
  5
C7BA
  8
0
 10
7349.3370087066850829
 20
2025.3030983110170382
 30
0.0
 40
0.0006078679560321
 50
149.067866079732795
 51
214.7190386437924019
  0
ARC
  5
C7BB
  8
0
 10
7354.1457807663227868
 20
2028.2670707573279287
 30
0.0
 40
4.6243261337542307
 50
219.9720671988590937
 51
226.6137029970666958
  0
ARC
  5
C7BC
  8
0
 10
7353.8518643351590072
 20
2027.9561139088239088
 30
0.0
 40
4.1964464425557244
 50
226.6137029970666958
 51
266.9247872282360277
  0
ARC
  5
C7BD
  8
0
 10
7353.7331304265626386
 20
2027.6779806673050643
 30
0.0
 40
3.9137165733372612
 50
268.4422556715807104
 51
312.7192072660834015
  0
ARC
  5
C7BE
  8
0
 10
7348.9700765986126498
 20
2032.421103356158028
 30
0.0
 40
10.6334416239948002
 50
314.2366757094029026
 51
317.1049850006464794
  0
ARC
  5
C7BF
  8
0
 10
7357.7196956359821343
 20
2024.7736570632230269
 30
0.0
 40
0.4275980529885232
 50
51.8995047624890304
 51
77.1840684983990997
  0
ARC
  5
C7C0
  8
0
 10
7357.2960953146202883
 20
2006.9208429556310875
 30
0.0
 40
18.2771143899765605
 50
88.3745256851911734
 51
91.0201792381172652
  0
ARC
  5
C7C1
  8
0
 10
7357.0205568243836751
 20
2022.3941280340820867
 30
0.0
 40
2.8013761982579699
 50
91.0201792381172652
 51
95.3335551988946577
  0
ATTDEF
  5
C875
  8
DEFPOINTS
 10
7365.9316369481630318
 20
2027.8725670689639173
 30
0.0
 40
0.001
  1
K-23769T-LCP
  3

  2
MODELNUMBER
 70
     0
1001
ACDBATTR
1070
     0
1070
     1
  0
ATTDEF
  5
C876
  8
DEFPOINTS
 10
7365.9316369481630318
 20
2027.8709004022969111
 30
0.0
 40
0.001
  1
BELAY
  3

  2
TRADENAME
 70
     0
1001
ACDBATTR
1070
     0
1070
     1
  0
ATTDEF
  5
C877
  8
DEFPOINTS
 10
7365.9316369481630318
 20
2027.8692337356299049
 30
0.0
 40
0.001
  1
BATH
  3

  2
PRODUCT
 70
     0
1001
ACDBATTR
1070
     0
1070
     1
  0
ENDSEC
  0
EOF
