  0
SECTION
  2
HEADER
  9
$ACADVER
  1
AC1009
  9
$INSBASE
 10
3146.0701236256968514
 20
198.9452366085743051
 30
0.0
  9
$EXTMIN
 10
3113.8425870466489869
 20
198.9393051470011073
 30
-0.0000000000000058
  9
$EXTMAX
 10
3146.2424766098738473
 20
240.9102319095202915
 30
0.0000000000000104
  9
$LIMMIN
 10
0.0
 20
0.0
  9
$LIMMAX
 10
11.6929133858000007
 20
8.2677165353999982
  9
$ORTHOMODE
 70
     0
  9
$REGENMODE
 70
     1
  9
$FILLMODE
 70
     1
  9
$QTEXTMODE
 70
     0
  9
$MIRRTEXT
 70
     0
  9
$DRAGMODE
 70
     2
  9
$LTSCALE
 40
0.6431102362
  9
$OSMODE
 70
  4095
  9
$ATTMODE
 70
     1
  9
$TEXTSIZE
 40
0.2
  9
$TRACEWID
 40
0.05
  9
$TEXTSTYLE
  7
STANDARD
  9
$CLAYER
  8
0
  9
$CELTYPE
  6
BYLAYER
  9
$CECOLOR
 62
   256
  9
$DIMSCALE
 40
1.0
  9
$DIMASZ
 40
0.1875
  9
$DIMEXO
 40
0.0625
  9
$DIMDLI
 40
0.4443307087
  9
$DIMRND
 40
0.0
  9
$DIMDLE
 40
0.0
  9
$DIMEXE
 40
0.125
  9
$DIMTP
 40
0.01
  9
$DIMTM
 40
0.01
  9
$DIMTXT
 40
2.0
  9
$DIMCEN
 40
0.1052362205
  9
$DIMTSZ
 40
0.0
  9
$DIMTOL
 70
     1
  9
$DIMLIM
 70
     0
  9
$DIMTIH
 70
     1
  9
$DIMTOH
 70
     1
  9
$DIMSE1
 70
     0
  9
$DIMSE2
 70
     0
  9
$DIMTAD
 70
     0
  9
$DIMZIN
 70
     0
  9
$DIMBLK
  1

  9
$DIMASO
 70
     1
  9
$DIMSHO
 70
     1
  9
$DIMPOST
  1
\X
  9
$DIMAPOST
  1

  9
$DIMALT
 70
     1
  9
$DIMALTD
 70
     2
  9
$DIMALTF
 40
25.3999999999999986
  9
$DIMLFAC
 40
1.0
  9
$DIMTOFL
 70
     0
  9
$DIMTVP
 40
0.0
  9
$DIMTIX
 70
     0
  9
$DIMSOXD
 70
     0
  9
$DIMSAH
 70
     0
  9
$DIMBLK1
  1

  9
$DIMBLK2
  1

  9
$DIMSTYLE
  2
STANDARD
  9
$DIMCLRD
 70
     0
  9
$DIMCLRE
 70
     0
  9
$DIMCLRT
 70
     0
  9
$DIMTFAC
 40
1.0
  9
$DIMGAP
 40
0.09
  9
$LUNITS
 70
     2
  9
$LUPREC
 70
     4
  9
$SKETCHINC
 40
0.1
  9
$FILLETRAD
 40
0.0
  9
$AUNITS
 70
     0
  9
$AUPREC
 70
     0
  9
$MENU
  1
.
  9
$ELEVATION
 40
0.0
  9
$PELEVATION
 40
0.0
  9
$THICKNESS
 40
0.0
  9
$LIMCHECK
 70
     0
  9
$BLIPMODE
 70
     0
  9
$CHAMFERA
 40
0.0
  9
$CHAMFERB
 40
0.0
  9
$SKPOLY
 70
     0
  9
$TDCREATE
 40
2458060.468368056230247
  9
$TDUPDATE
 40
2459634.5006712968461215
  9
$TDINDWG
 40
0.368421412
  9
$TDUSRTIMER
 40
0.368421412
  9
$USRTIMER
 70
     1
  9
$ANGBASE
 50
0.0
  9
$ANGDIR
 70
     0
  9
$PDMODE
 70
     0
  9
$PDSIZE
 40
0.3125
  9
$PLINEWID
 40
0.0
  9
$COORDS
 70
     1
  9
$SPLFRAME
 70
     0
  9
$SPLINETYPE
 70
     6
  9
$SPLINESEGS
 70
     8
  9
$ATTDIA
 70
     1
  9
$ATTREQ
 70
     1
  9
$HANDLING
 70
     1
  9
$HANDSEED
  5
AA6F
  9
$SURFTAB1
 70
     6
  9
$SURFTAB2
 70
     6
  9
$SURFTYPE
 70
     6
  9
$SURFU
 70
     6
  9
$SURFV
 70
     6
  9
$UCSNAME
  2

  9
$UCSORG
 10
0.0
 20
0.0
 30
0.0
  9
$UCSXDIR
 10
1.0
 20
0.0
 30
0.0
  9
$UCSYDIR
 10
0.0
 20
1.0
 30
0.0
  9
$PUCSNAME
  2

  9
$PUCSORG
 10
0.0
 20
0.0
 30
0.0
  9
$PUCSXDIR
 10
1.0
 20
0.0
 30
0.0
  9
$PUCSYDIR
 10
0.0
 20
1.0
 30
0.0
  9
$USERI1
 70
     0
  9
$USERI2
 70
     0
  9
$USERI3
 70
     0
  9
$USERI4
 70
     0
  9
$USERI5
 70
     0
  9
$USERR1
 40
0.0
  9
$USERR2
 40
0.0
  9
$USERR3
 40
0.0
  9
$USERR4
 40
0.0
  9
$USERR5
 40
0.0
  9
$WORLDVIEW
 70
     1
  9
$SHADEDGE
 70
     3
  9
$SHADEDIF
 70
    70
  9
$TILEMODE
 70
     1
  9
$MAXACTVP
 70
    64
  9
$PLIMCHECK
 70
     0
  9
$PEXTMIN
 10
1.0000000000000000E+20
 20
1.0000000000000000E+20
 30
1.0000000000000000E+20
  9
$PEXTMAX
 10
-1.0000000000000000E+20
 20
-1.0000000000000000E+20
 30
-1.0000000000000000E+20
  9
$PLIMMIN
 10
0.0
 20
0.0
  9
$PLIMMAX
 10
12.0
 20
9.0
  9
$UNITMODE
 70
     0
  9
$VISRETAIN
 70
     1
  9
$PLINEGEN
 70
     0
  9
$PSLTSCALE
 70
     1
  0
ENDSEC
  0
SECTION
  2
TABLES
  0
TABLE
  2
VPORT
 70
     1
  0
VPORT
  2
*ACTIVE
 70
     0
 10
0.0
 20
0.0
 11
1.0
 21
1.0
 12
788.0676783126363034
 22
83.591270948068825
 13
0.0
 23
0.0
 14
1.0
 24
1.0
 15
0.0
 25
0.0
 16
0.0
 26
0.0
 36
48.1717359839548322
 17
2341.974853515625
 27
136.3334975801919029
 37
0.0
 40
42.2337926921383087
 41
2.005224660397074
 42
50.0
 43
0.0
 44
0.0
 50
0.0
 51
0.0
 71
     0
 72
   100
 73
     1
 74
     1
 75
     0
 76
     0
 77
     0
 78
     0
  0
ENDTAB
  0
TABLE
  2
LTYPE
 70
     2
  0
LTYPE
  2
CONTINUOUS
 70
     0
  3
Solid line
 72
    65
 73
     0
 40
0.0
  0
LTYPE
  2
PHANTOM2
 70
     0
  3
___ _ _ ___ _ _ ___ _ _ ___ _ _
 72
    65
 73
     6
 40
1.25
 49
0.625
 49
-0.125
 49
0.125
 49
-0.125
 49
0.125
 49
-0.125
  0
ENDTAB
  0
TABLE
  2
LAYER
 70
     2
  0
LAYER
  2
0
 70
     0
 62
   255
  6
CONTINUOUS
  0
LAYER
  2
DEFPOINTS
 70
     0
 62
     7
  6
CONTINUOUS
  0
ENDTAB
  0
TABLE
  2
STYLE
 70
     1
  0
STYLE
  2
STANDARD
 70
     0
 40
0.0
 41
0.8
 50
0.0
 71
     0
 42
0.2
  3
txt
  4

  0
ENDTAB
  0
TABLE
  2
VIEW
 70
     0
  0
ENDTAB
  0
TABLE
  2
UCS
 70
     0
  0
ENDTAB
  0
TABLE
  2
APPID
 70
     9
  0
APPID
  2
ACAD
 70
     0
  0
APPID
  2
ACAD_MLEADERVER
 70
     0
  0
APPID
  2
ACAD_EXEMPT_FROM_CAD_STANDARDS
 70
     0
  0
APPID
  2
ACAD_NAV_VCDISPLAY
 70
     0
  0
APPID
  2
ACAECLAYERSTANDARD
 70
     0
  0
APPID
  2
ACCMTRANSPARENCY
 70
     0
  0
APPID
  2
ACAD_DSTYLE_DIMJAG
 70
     0
  0
APPID
  2
ACAD_DSTYLE_DIMTALN
 70
     0
  0
APPID
  2
ACDBATTR
 70
     0
  0
ENDTAB
  0
TABLE
  2
DIMSTYLE
 70
     1
  0
DIMSTYLE
  2
STANDARD
 70
     0
  3

  4

  5

  6

  7

 40
1.0
 41
0.1875
 42
0.0625
 43
0.38
 44
0.125
 45
0.0
 46
0.0
 47
0.01
 48
0.01
140
0.15625
141
0.09
142
0.0
143
25.3999999999999986
144
1.0
145
0.0
146
1.0
147
0.09
 71
     1
 72
     0
 73
     1
 74
     1
 75
     0
 76
     0
 77
     0
 78
     4
170
     0
171
     2
172
     0
173
     0
174
     0
175
     0
176
     0
177
     0
178
     0
  0
ENDTAB
  0
ENDSEC
  0
SECTION
  2
BLOCKS
  0
BLOCK
  8
0
  2
$MODEL_SPACE
 70
     0
 10
0.0
 20
0.0
 30
0.0
  3
$MODEL_SPACE
  1

  0
ENDBLK
  5
21
  8
0
  0
BLOCK
 67
     1
  8
0
  2
$PAPER_SPACE
 70
     0
 10
0.0
 20
0.0
 30
0.0
  3
$PAPER_SPACE
  1

  0
ENDBLK
  5
1D
 67
     1
  8
0
  0
ENDSEC
  0
SECTION
  2
ENTITIES
  0
ATTDEF
  5
3930
  8
DEFPOINTS
 10
3146.066022679885009
 20
198.9492176376471946
 30
0.0
 40
0.001
  1
K-23768T-RCP
  3

  2
MODELNUMBER
 70
     0
1001
ACDBATTR
1070
     0
1070
     1
  0
ATTDEF
  5
3931
  8
DEFPOINTS
 10
3146.066022679885009
 20
198.9475509709805863
 30
0.0
 40
0.001
  1
BELAY
  3

  2
TRADENAME
 70
     0
1001
ACDBATTR
1070
     0
1070
     1
  0
ATTDEF
  5
3932
  8
DEFPOINTS
 10
3146.066022679885009
 20
198.9458843043138927
 30
0.0
 40
0.001
  1
BATH
  3

  2
PRODUCT
 70
     0
1001
ACDBATTR
1070
     0
1070
     1
  0
LINE
  5
A94E
  8
0
 10
3114.1150208866929461
 20
198.9452366085743051
 30
0.0
 11
3114.4650208866919456
 21
198.9452366085743051
 31
0.0
  0
LINE
  5
A94F
  8
0
 10
3114.5798476195709554
 20
240.8287261951969924
 30
0.0
 11
3146.0701236256968514
 21
240.8287261951969924
 31
0.0
  0
LINE
  5
A950
  8
0
 10
3114.0617510789929838
 20
239.819236608574414
 30
0.0
 11
3146.0701236256968514
 21
239.819236608574414
 31
0.0
  0
LINE
  5
A951
  8
0
 10
3114.0801522060619391
 20
240.3461759435637077
 30
0.0
 11
3114.0617510789929838
 21
239.819236608574414
 31
0.0
  0
LINE
  5
A952
  8
0
 10
3113.952718405908854
 20
240.3161211706012068
 30
0.0
 11
3113.9436506169790846
 21
240.0690810278094034
 31
0.0
  0
ARC
  5
A953
  8
0
 10
3114.5798476195709554
 20
240.3287261951969924
 30
0.0
 40
0.5
 50
90.0
 51
177.9999999982381951
  0
ARC
  5
A954
  8
0
 10
3114.5523146206828642
 20
240.2941125534694038
 30
0.0
 40
0.6
 50
90.0
 51
177.8978602918002991
  0
ARC
  5
A955
  8
0
 10
3115.6485495030169659
 20
239.776679905685512
 30
0.0
 40
1.1175353595852611
 50
70.2877853622835147
 51
89.2231798396924773
  0
LINE
  5
A956
  8
0
 10
3114.4400208866918547
 20
239.7718943239472082
 30
0.0
 11
3114.4400208866918547
 21
238.690977925154499
 31
0.0
  0
ARC
  5
A957
  8
0
 10
3114.3174153071158798
 20
239.7630190508683938
 30
0.0
 40
0.1229263951134325
 50
4.140351867144175
 51
27.2147568075321402
  0
ARC
  5
A958
  8
0
 10
3114.5006102223778726
 20
239.2854184787190945
 30
0.0
 40
0.4950424543035251
 50
97.0816285965550065
 51
114.0727233475698057
  0
ARC
  5
A959
  8
0
 10
3114.2711709675181737
 20
239.8166180798880021
 30
0.0
 40
0.0838540009945214
 50
269.7626024765410193
 51
289.1542153539447213
  0
ARC
  5
A95A
  8
0
 10
3114.0966518219202044
 20
243.4474508933809886
 30
0.0
 40
3.7187670760984939
 50
271.9101996426072105
 51
272.6844800025630775
  0
ARC
  5
A95B
  8
0
 10
3114.2560268645761425
 20
240.0422683596054014
 30
0.0
 40
0.3135248622341639
 50
175.0940684085267947
 51
263.5137953076417716
  0
LINE
  5
A95C
  8
0
 10
3115.5530208866930479
 20
238.7493077834866995
 30
0.0
 11
3115.5530208866930479
 21
239.6396224645251039
 31
0.0
  0
LINE
  5
A95D
  8
0
 10
3115.7780208866920475
 20
239.6348776416743078
 30
0.0
 11
3115.7780208866920475
 21
238.7540526063428956
 31
0.0
  0
LINE
  5
A95E
  8
0
 10
3115.4463384713749292
 20
238.4045322691787021
 30
0.0
 11
3114.3017124878501818
 21
238.3445449632826865
 31
0.0
  0
LINE
  5
A95F
  8
0
 10
3115.4393012014411397
 20
238.6294722393159873
 30
0.0
 11
3114.2876823670399062
 21
238.5691184536347862
 31
0.0
  0
ARC
  5
A960
  8
0
 10
3115.4330208866931571
 20
238.7493077834866995
 30
0.0
 40
0.12
 50
272.9999999994839186
 51
0.0000000000016284
  0
LINE
  5
A961
  8
0
 10
3114.5355735781681688
 20
239.8068203665546889
 30
0.0
 11
3115.4393012014479609
 21
239.7594580086953044
 31
0.0
  0
ARC
  5
A962
  8
0
 10
3114.5486575673121479
 20
240.0564777515913022
 30
0.0
 40
0.2500000013504474
 50
251.6160811078194115
 51
266.999999910946201
  0
ARC
  5
A963
  8
0
 10
3115.4330208866931571
 20
239.6396224645251039
 30
0.0
 40
0.12
 50
0.0
 51
86.999999997046217
  0
ARC
  5
A964
  8
0
 10
3115.4280208866930479
 20
239.6348776416743078
 30
0.0
 40
0.3500000000000867
 50
0.0000000000048853
 51
31.7854468498983707
  0
ARC
  5
A965
  8
0
 10
3115.4280208866930479
 20
238.7540526063430093
 30
0.0
 40
0.35
 50
272.9999999994839186
 51
359.9999999999984084
  0
LINE
  5
A966
  8
0
 10
3114.2400208866920366
 20
237.995108887384788
 30
0.0
 11
3114.2400208866920366
 21
198.9452366085743051
 31
0.0
  0
LINE
  5
A967
  8
0
 10
3114.4650208866919456
 20
237.9951088872981018
 30
0.0
 11
3114.4650208866919456
 21
198.9452366085743051
 31
0.0
  0
ARC
  5
A968
  8
0
 10
3114.3200208866928733
 20
238.690977925154499
 30
0.0
 40
0.12
 50
272.9999999994839186
 51
0.0000000000065138
  0
ARC
  5
A969
  8
0
 10
3114.1190152848480466
 20
237.9960198097514024
 30
0.0
 40
0.1210090304792076
 50
359.5686891620670735
 51
60.6670985728152985
  0
ARC
  5
A96A
  8
0
 10
3114.3007663560988476
 20
238.3194610699461862
 30
0.0
 40
0.25
 50
92.9999999994837623
 51
240.6670985728435994
  0
ARC
  5
A96B
  8
0
 10
3114.1150208867820766
 20
237.9951088872981018
 30
0.0
 40
0.3499999999114607
 50
0.0
 51
59.9117480991296176
  0
ARC
  5
A96C
  8
0
 10
3114.3030208867589863
 20
238.3195792248583871
 30
0.0
 40
0.0250000000193981
 50
93.0000001036646466
 51
239.9117480991295963
  0
LINE
  5
A96D
  8
0
 10
3114.1150208866929461
 20
198.9452366085743051
 30
0.0
 11
3114.1150208866929461
 21
238.1129390867814948
 31
0.0
  0
LINE
  5
A96E
  8
0
 10
3114.1150208866929461
 20
198.9752366085743915
 30
0.0
 11
3114.1450208866931462
 21
198.9452366085743051
 31
0.0
  0
LINE
  5
A96F
  8
0
 10
3114.1450208866931462
 20
237.9792366085744106
 30
0.0
 11
3114.2400208866920366
 21
237.9792366085744106
 31
0.0
  0
LINE
  5
A970
  8
0
 10
3114.1450208866931462
 20
237.9792366085744106
 30
0.0
 11
3114.1150208866929461
 21
237.9492366085744095
 31
0.0
  0
ARC
  5
A971
  8
0
 10
3113.9900200685151503
 20
238.1130456445625043
 30
0.0
 40
0.1250008635961522
 50
359.9511574958453934
 51
25.3288957404844304
  0
LINE
  5
A972
  8
0
 10
3114.4650208866919456
 20
211.6092366085744061
 30
0.0
 11
3115.128020886692866
 21
211.6092366085744061
 31
0.0
  0
LINE
  5
A973
  8
0
 10
3115.128020886692866
 20
211.6092366085744061
 30
0.0
 11
3115.128020886692866
 21
210.429236608574314
 31
0.0
  0
LINE
  5
A974
  8
0
 10
3115.128020886692866
 20
210.429236608574314
 30
0.0
 11
3114.4650208866919456
 21
210.429236608574314
 31
0.0
  0
LINE
  5
A975
  8
0
 10
3114.6368604530930497
 20
210.429236608574314
 30
0.0
 11
3114.6368604530930497
 21
211.6092366085744061
 31
0.0
  0
LINE
  5
A976
  8
0
 10
3114.4650208866919456
 20
220.6092366085744061
 30
0.0
 11
3115.128020886692866
 21
220.6092366085744061
 31
0.0
  0
LINE
  5
A977
  8
0
 10
3115.128020886692866
 20
220.6092366085744061
 30
0.0
 11
3115.128020886692866
 21
219.4292366085743993
 31
0.0
  0
LINE
  5
A978
  8
0
 10
3115.128020886692866
 20
219.4292366085743993
 30
0.0
 11
3114.4650208866919456
 21
219.4292366085743993
 31
0.0
  0
LINE
  5
A979
  8
0
 10
3114.6368604530930497
 20
219.4292366085743993
 30
0.0
 11
3114.6368604530930497
 21
220.6092366085744061
 31
0.0
  0
LINE
  5
A97A
  8
0
 10
3114.4586516437698265
 20
229.6092366085744061
 30
0.0
 11
3115.1216516437698374
 21
229.6092366085744061
 31
0.0
  0
LINE
  5
A97B
  8
0
 10
3115.1216516437698374
 20
229.6092366085744061
 30
0.0
 11
3115.1216516437698374
 21
228.4292366085743993
 31
0.0
  0
LINE
  5
A97C
  8
0
 10
3115.1216516437698374
 20
228.4292366085743993
 30
0.0
 11
3114.4586516437698265
 21
228.4292366085743993
 31
0.0
  0
LINE
  5
A97D
  8
0
 10
3114.6304912101700211
 20
228.4292366085743993
 30
0.0
 11
3114.6304912101700211
 21
229.6092366085744061
 31
0.0
  0
LINE
  5
A97E
  8
0
 10
3117.502324839585981
 20
205.0386156659602079
 30
0.0
 11
3116.2884781551911146
 21
239.7986367668353012
 31
0.0
  0
LINE
  5
A97F
  8
0
 10
3118.9105339622929023
 20
239.569236608574414
 30
0.0
 11
3142.0530208866930479
 21
239.569236608574414
 31
0.0
  0
LINE
  5
A980
  8
0
 10
3118.9105339622929023
 20
239.569236608574414
 30
0.0
 11
3116.0530208866930479
 21
239.819236608574414
 31
0.0
  0
LINE
  5
A981
  8
0
 10
3116.3649972629359581
 20
203.0398569641452866
 30
0.0
 11
3125.9130785009369902
 21
202.7064304717576135
 31
0.0
  0
ARC
  5
A982
  8
0
 10
3119.6909907507588287
 20
205.1150455637387893
 30
0.0
 40
2.1899999999999991
 50
182.0000000000055991
 51
267.9999991106367929
  0
LINE
  5
A983
  8
0
 10
3139.809552788091878
 20
239.569236608574414
 30
0.0
 11
3138.6037169303481278
 21
205.0386155679993863
 31
0.0
  0
LINE
  5
A984
  8
0
 10
3140.6991207846931502
 20
239.569236608574414
 30
0.0
 11
3139.7628595417832003
 21
238.2321169806222088
 31
0.0
  0
LINE
  5
A985
  8
0
 10
3130.1929632756050523
 20
202.7064304718713004
 30
0.0
 11
3136.4914809169681575
 21
202.9263795546052904
 31
0.0
  0
LINE
  5
A986
  8
0
 10
3129.8224321416000748
 20
202.4156832179810976
 30
0.0
 11
3130.0517997458650825
 21
202.6450508222465032
 31
0.0
  0
LINE
  5
A987
  8
0
 10
3126.6371630222788554
 20
202.2692366085744027
 30
0.0
 11
3129.4688787510058319
 21
202.2692366085744027
 31
0.0
  0
LINE
  5
A988
  8
0
 10
3126.2836096316859766
 20
202.4156832179810976
 30
0.0
 11
3126.054242027420969
 21
202.6450508222465032
 31
0.0
  0
ARC
  5
A989
  8
0
 10
3126.6371630222788554
 20
202.7692366085744027
 30
0.0
 40
0.5
 50
224.9999999999965041
 51
270.0
  0
ARC
  5
A98A
  8
0
 10
3129.4688787510058319
 20
202.769236608574289
 30
0.0
 40
0.5
 50
270.0
 51
315.0000000000080149
  0
ARC
  5
A98B
  8
0
 10
3125.9057496033710777
 20
202.4965583981972941
 30
0.0
 40
0.21
 50
44.9999999999942375
 51
87.999999110636864
  0
ARC
  5
A98C
  8
0
 10
3130.2002921699140643
 20
202.4965583981974078
 30
0.0
 40
0.21
 50
92.0000000003686154
 51
135.0000000000079865
  0
LINE
  5
A98D
  8
0
 10
3130.1929631756661365
 20
202.7064304683813987
 30
0.0
 11
3125.9130785009369902
 21
202.7064304717576135
 31
0.0
  0
ARC
  5
A98E
  8
0
 10
3136.4150510191748253
 20
205.1150454657766886
 30
0.0
 40
2.1899999999999991
 50
272.0000000003685727
 51
358.0000000000317755
  0
LINE
  5
A98F
  8
0
 10
3115.9309761712738691
 20
203.4738780625438039
 30
0.0
 11
3115.0595158478931808
 21
228.4292366085743993
 31
0.0
  0
LINE
  5
A990
  8
0
 10
3115.0183093398909477
 20
229.6092366085744061
 30
0.0
 11
3114.841523182894889
 21
234.6717297771735957
 31
0.0
  0
LINE
  5
A991
  8
0
 10
3114.8393774801820655
 20
234.7331746635196907
 30
0.0
 11
3114.8298479665859304
 21
235.0060642285268102
 31
0.0
  0
LINE
  5
A992
  8
0
 10
3114.8272573203307729
 20
235.0802506308563125
 30
0.0
 11
3114.7125138346409585
 21
238.3660741495907871
 31
0.0
  0
ARC
  5
A993
  8
0
 10
3116.3807020434328479
 20
203.4895828360602081
 30
0.0
 40
0.45
 50
182.000000000026688
 51
267.999999110662884
  0
LINE
  5
A994
  8
0
 10
3117.376719838192912
 20
208.6413033132743067
 30
0.0
 11
3116.3747637777059936
 21
208.6063142366452041
 31
0.0
  0
LINE
  5
A995
  8
0
 10
3116.3747637777059936
 20
208.6063142366452041
 30
0.0
 11
3115.3343919500921402
 21
238.3986654006008052
 31
0.0
  0
LINE
  5
A996
  8
0
 10
3114.9910995348341203
 20
234.6459771750002972
 30
0.0
 11
3114.4650208866919456
 21
234.7365522823743902
 31
0.0
  0
LINE
  5
A997
  8
0
 10
3114.9905489888301418
 20
234.70599360856761
 30
0.0
 11
3114.4650208866919456
 21
234.8004850134018113
 31
0.0
  0
LINE
  5
A998
  8
0
 10
3114.599469208651044
 20
235.0889137443031132
 30
0.0
 11
3114.4650208866919456
 21
235.0061497348744126
 31
0.0
  0
LINE
  5
A999
  8
0
 10
3114.5664512971011391
 20
235.1426647636463088
 30
0.0
 11
3114.4650208866919456
 21
235.0789831971744093
 31
0.0
  0
ARC
  5
A99A
  8
0
 10
3114.4468822767880738
 20
234.3764645646577947
 30
0.0
 40
0.8000000004531781
 50
34.3084050208958615
 51
76.3606987938439232
  0
ARC
  5
A99B
  8
0
 10
3114.4468822769931649
 20
234.3764645650744001
 30
0.0
 40
0.7369249999999723
 50
35.032435204594691
 51
76.2895322041095056
  0
ARC
  5
A99C
  8
0
 10
3115.0011668866309265
 20
234.7650466376709915
 30
0.0
 40
0.06
 50
259.8069728418344084
 51
35.0324352085267421
  0
ARC
  5
A99D
  8
0
 10
3115.0109683433711325
 20
234.7613792566421012
 30
0.0
 40
0.1171
 50
260.2311430965833097
 51
34.3084050209293778
  0
ARC
  5
A99E
  8
0
 10
3114.6143064966631755
 20
235.066442195630998
 30
0.0
 40
0.09
 50
76.3606987937365176
 51
122.1220424702608938
  0
ARC
  5
A99F
  8
0
 10
3114.6146715751510783
 20
235.0642178326417024
 30
0.0
 40
0.029
 50
76.2895322034112411
 51
121.6157175451910035
  0
LINE
  5
A9A0
  8
0
 10
3117.2090833746888165
 20
208.6354493189739969
 30
0.0
 11
3116.1621383178708129
 21
238.6160331407353112
 31
0.0
  0
LINE
  5
A9A1
  8
0
 10
3116.3293549684931349
 20
238.6218730862744053
 30
0.0
 11
3116.1402210689088861
 21
238.6152676933961061
 31
0.0
  0
LINE
  5
A9A2
  8
0
 10
3116.1402210689088861
 20
238.6152676933961061
 30
0.0
 11
3116.0983160965001844
 21
239.8152737912039925
 31
0.0
  0
CIRCLE
  5
A9A3
  8
0
 10
3121.2759056137970219
 20
235.5824529925147885
 30
0.0
 40
1.2584030465393701
  0
ARC
  5
A9A4
  8
0
 10
3114.3197848320760386
 20
205.3868032425507977
 30
0.0
 40
0.2522625190407195
 50
177.831852714906006
 51
215.7320989972006089
  0
LINE
  5
A9A5
  8
0
 10
3114.0677029069879609
 20
205.3963469083516031
 30
0.0
 11
3114.1150208866929461
 21
229.6999809770609033
 31
0.0
  0
LINE
  5
A9A6
  8
0
 10
3146.0701236256968514
 20
239.819236608574414
 30
0.0
 11
3146.0701236256968514
 21
240.8287261951969924
 31
0.0
  0
LINE
  5
A9A7
  8
0
 10
3142.0530208866930479
 20
239.569236608574414
 30
0.0
 11
3142.0442906942398622
 21
239.819236608574414
 31
0.0
  0
LINE
  5
A9A9
  8
0
 10
3114.5523146206828642
 20
240.8941125534715866
 30
0.0
 11
3115.6637006608898446
 21
240.8941125534715866
 31
0.0
  0
ENDSEC
  0
EOF
