  0
SECTION
  2
HEADER
  9
$ACADVER
  1
AC1009
  9
$INSBASE
 10
3223.1888785539940727
 20
234.0185230291577057
 30
0.0
  9
$EXTMIN
 10
3192.9909788604531968
 20
201.8734628774701036
 30
-0.000000000000013
  9
$EXTMAX
 10
3253.1829664702390801
 20
234.0303293366090998
 30
0.0000000000000023
  9
$LIMMIN
 10
0.0
 20
0.0
  9
$LIMMAX
 10
11.6929133858000007
 20
8.2677165353999982
  9
$ORTHOMODE
 70
     0
  9
$REGENMODE
 70
     1
  9
$FILLMODE
 70
     1
  9
$QTEXTMODE
 70
     0
  9
$MIRRTEXT
 70
     0
  9
$DRAGMODE
 70
     2
  9
$LTSCALE
 40
0.6431102362
  9
$OSMODE
 70
  4095
  9
$ATTMODE
 70
     1
  9
$TEXTSIZE
 40
0.2
  9
$TRACEWID
 40
0.05
  9
$TEXTSTYLE
  7
STANDARD
  9
$CLAYER
  8
0
  9
$CELTYPE
  6
BYLAYER
  9
$CECOLOR
 62
   256
  9
$DIMSCALE
 40
1.0
  9
$DIMASZ
 40
0.1875
  9
$DIMEXO
 40
0.0625
  9
$DIMDLI
 40
0.4443307087
  9
$DIMRND
 40
0.0
  9
$DIMDLE
 40
0.0
  9
$DIMEXE
 40
0.125
  9
$DIMTP
 40
0.01
  9
$DIMTM
 40
0.01
  9
$DIMTXT
 40
2.0
  9
$DIMCEN
 40
0.1052362205
  9
$DIMTSZ
 40
0.0
  9
$DIMTOL
 70
     1
  9
$DIMLIM
 70
     0
  9
$DIMTIH
 70
     1
  9
$DIMTOH
 70
     1
  9
$DIMSE1
 70
     0
  9
$DIMSE2
 70
     0
  9
$DIMTAD
 70
     0
  9
$DIMZIN
 70
     0
  9
$DIMBLK
  1

  9
$DIMASO
 70
     1
  9
$DIMSHO
 70
     1
  9
$DIMPOST
  1
\X
  9
$DIMAPOST
  1

  9
$DIMALT
 70
     1
  9
$DIMALTD
 70
     2
  9
$DIMALTF
 40
25.3999999999999986
  9
$DIMLFAC
 40
1.0
  9
$DIMTOFL
 70
     0
  9
$DIMTVP
 40
0.0
  9
$DIMTIX
 70
     0
  9
$DIMSOXD
 70
     0
  9
$DIMSAH
 70
     0
  9
$DIMBLK1
  1

  9
$DIMBLK2
  1

  9
$DIMSTYLE
  2
STANDARD
  9
$DIMCLRD
 70
     0
  9
$DIMCLRE
 70
     0
  9
$DIMCLRT
 70
     0
  9
$DIMTFAC
 40
1.0
  9
$DIMGAP
 40
0.09
  9
$LUNITS
 70
     2
  9
$LUPREC
 70
     4
  9
$SKETCHINC
 40
0.1
  9
$FILLETRAD
 40
0.0
  9
$AUNITS
 70
     0
  9
$AUPREC
 70
     0
  9
$MENU
  1
.
  9
$ELEVATION
 40
0.0
  9
$PELEVATION
 40
0.0
  9
$THICKNESS
 40
0.0
  9
$LIMCHECK
 70
     0
  9
$BLIPMODE
 70
     0
  9
$CHAMFERA
 40
0.0
  9
$CHAMFERB
 40
0.0
  9
$SKPOLY
 70
     0
  9
$TDCREATE
 40
2458060.468368056230247
  9
$TDUPDATE
 40
2459634.5010763891041279
  9
$TDINDWG
 40
0.3685371528
  9
$TDUSRTIMER
 40
0.3685371528
  9
$USRTIMER
 70
     1
  9
$ANGBASE
 50
0.0
  9
$ANGDIR
 70
     0
  9
$PDMODE
 70
     0
  9
$PDSIZE
 40
0.3125
  9
$PLINEWID
 40
0.0
  9
$COORDS
 70
     1
  9
$SPLFRAME
 70
     0
  9
$SPLINETYPE
 70
     6
  9
$SPLINESEGS
 70
     8
  9
$ATTDIA
 70
     1
  9
$ATTREQ
 70
     1
  9
$HANDLING
 70
     1
  9
$HANDSEED
  5
ACBE
  9
$SURFTAB1
 70
     6
  9
$SURFTAB2
 70
     6
  9
$SURFTYPE
 70
     6
  9
$SURFU
 70
     6
  9
$SURFV
 70
     6
  9
$UCSNAME
  2

  9
$UCSORG
 10
0.0
 20
0.0
 30
0.0
  9
$UCSXDIR
 10
1.0
 20
0.0
 30
0.0
  9
$UCSYDIR
 10
0.0
 20
1.0
 30
0.0
  9
$PUCSNAME
  2

  9
$PUCSORG
 10
0.0
 20
0.0
 30
0.0
  9
$PUCSXDIR
 10
1.0
 20
0.0
 30
0.0
  9
$PUCSYDIR
 10
0.0
 20
1.0
 30
0.0
  9
$USERI1
 70
     0
  9
$USERI2
 70
     0
  9
$USERI3
 70
     0
  9
$USERI4
 70
     0
  9
$USERI5
 70
     0
  9
$USERR1
 40
0.0
  9
$USERR2
 40
0.0
  9
$USERR3
 40
0.0
  9
$USERR4
 40
0.0
  9
$USERR5
 40
0.0
  9
$WORLDVIEW
 70
     1
  9
$SHADEDGE
 70
     3
  9
$SHADEDIF
 70
    70
  9
$TILEMODE
 70
     1
  9
$MAXACTVP
 70
    64
  9
$PLIMCHECK
 70
     0
  9
$PEXTMIN
 10
1.0000000000000000E+20
 20
1.0000000000000000E+20
 30
1.0000000000000000E+20
  9
$PEXTMAX
 10
-1.0000000000000000E+20
 20
-1.0000000000000000E+20
 30
-1.0000000000000000E+20
  9
$PLIMMIN
 10
0.0
 20
0.0
  9
$PLIMMAX
 10
12.0
 20
9.0
  9
$UNITMODE
 70
     0
  9
$VISRETAIN
 70
     1
  9
$PLINEGEN
 70
     0
  9
$PSLTSCALE
 70
     1
  0
ENDSEC
  0
SECTION
  2
TABLES
  0
TABLE
  2
VPORT
 70
     1
  0
VPORT
  2
*ACTIVE
 70
     0
 10
0.0
 20
0.0
 11
1.0
 21
1.0
 12
881.1121191497204563
 22
81.6183985268477272
 13
0.0
 23
0.0
 14
1.0
 24
1.0
 15
0.0
 25
0.0
 16
0.0
 26
0.0
 36
48.1717359839548322
 17
2341.974853515625
 27
136.3334975801919029
 37
0.0
 40
32.3582664578392496
 41
2.005224660397074
 42
50.0
 43
0.0
 44
0.0
 50
0.0
 51
0.0
 71
     0
 72
   100
 73
     1
 74
     1
 75
     0
 76
     0
 77
     0
 78
     0
  0
ENDTAB
  0
TABLE
  2
LTYPE
 70
     2
  0
LTYPE
  2
CONTINUOUS
 70
     0
  3
Solid line
 72
    65
 73
     0
 40
0.0
  0
LTYPE
  2
PHANTOM2
 70
     0
  3
___ _ _ ___ _ _ ___ _ _ ___ _ _
 72
    65
 73
     6
 40
1.25
 49
0.625
 49
-0.125
 49
0.125
 49
-0.125
 49
0.125
 49
-0.125
  0
ENDTAB
  0
TABLE
  2
LAYER
 70
     2
  0
LAYER
  2
0
 70
     0
 62
   255
  6
CONTINUOUS
  0
LAYER
  2
DEFPOINTS
 70
     0
 62
     7
  6
CONTINUOUS
  0
ENDTAB
  0
TABLE
  2
STYLE
 70
     1
  0
STYLE
  2
STANDARD
 70
     0
 40
0.0
 41
0.8
 50
0.0
 71
     0
 42
0.2
  3
txt
  4

  0
ENDTAB
  0
TABLE
  2
VIEW
 70
     0
  0
ENDTAB
  0
TABLE
  2
UCS
 70
     0
  0
ENDTAB
  0
TABLE
  2
APPID
 70
     9
  0
APPID
  2
ACAD
 70
     0
  0
APPID
  2
ACAD_MLEADERVER
 70
     0
  0
APPID
  2
ACAD_EXEMPT_FROM_CAD_STANDARDS
 70
     0
  0
APPID
  2
ACAD_NAV_VCDISPLAY
 70
     0
  0
APPID
  2
ACAECLAYERSTANDARD
 70
     0
  0
APPID
  2
ACCMTRANSPARENCY
 70
     0
  0
APPID
  2
ACAD_DSTYLE_DIMJAG
 70
     0
  0
APPID
  2
ACAD_DSTYLE_DIMTALN
 70
     0
  0
APPID
  2
ACDBATTR
 70
     0
  0
ENDTAB
  0
TABLE
  2
DIMSTYLE
 70
     1
  0
DIMSTYLE
  2
STANDARD
 70
     0
  3

  4

  5

  6

  7

 40
1.0
 41
0.1875
 42
0.0625
 43
0.38
 44
0.125
 45
0.0
 46
0.0
 47
0.01
 48
0.01
140
0.15625
141
0.09
142
0.0
143
25.3999999999999986
144
1.0
145
0.0
146
1.0
147
0.09
 71
     1
 72
     0
 73
     1
 74
     1
 75
     0
 76
     0
 77
     0
 78
     4
170
     0
171
     2
172
     0
173
     0
174
     0
175
     0
176
     0
177
     0
178
     0
  0
ENDTAB
  0
ENDSEC
  0
SECTION
  2
BLOCKS
  0
BLOCK
  8
0
  2
$MODEL_SPACE
 70
     0
 10
0.0
 20
0.0
 30
0.0
  3
$MODEL_SPACE
  1

  0
ENDBLK
  5
21
  8
0
  0
BLOCK
 67
     1
  8
0
  2
$PAPER_SPACE
 70
     0
 10
0.0
 20
0.0
 30
0.0
  3
$PAPER_SPACE
  1

  0
ENDBLK
  5
1D
 67
     1
  8
0
  0
ENDSEC
  0
SECTION
  2
ENTITIES
  0
ATTDEF
  5
3930
  8
DEFPOINTS
 10
3223.1846499605308054
 20
234.0160073558942031
 30
0.0
 40
0.001
  1
K-23768T-RCP
  3

  2
MODELNUMBER
 70
     0
1001
ACDBATTR
1070
     0
1070
     1
  0
ATTDEF
  5
3931
  8
DEFPOINTS
 10
3223.1846499605308054
 20
234.0143406892275948
 30
0.0
 40
0.001
  1
BELAY
  3

  2
TRADENAME
 70
     0
1001
ACDBATTR
1070
     0
1070
     1
  0
ATTDEF
  5
3932
  8
DEFPOINTS
 10
3223.1846499605308054
 20
234.0126740225609012
 30
0.0
 40
0.001
  1
BATH
  3

  2
PRODUCT
 70
     0
1001
ACDBATTR
1070
     0
1070
     1
  0
LINE
  5
AB23
  8
0
 10
3193.1747669107098773
 20
202.0013536206406002
 30
0.0
 11
3218.7477248823070113
 21
202.0013536206406002
 31
0.0
  0
LINE
  5
AB24
  8
0
 10
3193.1747669107098773
 20
202.0013536206406002
 30
0.0
 11
3193.1747669107098773
 21
203.7263536206405945
 31
0.0
  0
LINE
  5
AB25
  8
0
 10
3193.183498371566202
 20
202.2578838130405927
 30
0.0
 11
3193.183498371566202
 21
229.7565522987189013
 31
0.0
  0
LINE
  5
AB26
  8
0
 10
3193.4312983715649352
 20
202.0100838130406089
 30
0.0
 11
3218.7472674322239072
 21
202.0100838130406089
 31
0.0
  0
LINE
  5
AB27
  8
0
 10
3237.10910424581607
 20
202.0100838130406089
 30
0.0
 11
3244.9569669107099799
 21
202.0100838130406089
 31
0.0
  0
LINE
  5
AB28
  8
0
 10
3245.4151768006508973
 20
202.0100838130406089
 30
0.0
 11
3252.9625900116088815
 21
202.0100838130406089
 31
0.0
  0
ARC
  5
AB29
  8
0
 10
3193.4312983715649352
 20
202.2578838130405927
 30
0.0
 40
0.2478
 50
179.9999999999984084
 51
270.0
  0
LINE
  5
AB2A
  8
0
 10
3193.1747669107098773
 20
203.7263536206405945
 30
0.0
 11
3193.183498371566202
 21
203.7263536206405945
 31
0.0
  0
LINE
  5
AB2B
  8
0
 10
3193.428298371566143
 20
230.0013522987188992
 30
0.0
 11
3244.9299669107099362
 21
230.0013522987188992
 31
0.0
  0
ARC
  5
AB2C
  8
0
 10
3193.428298371566143
 20
229.7565522987189013
 30
0.0
 40
0.2448
 50
90.0
 51
180.0
  0
LINE
  5
AB2D
  8
0
 10
3193.4151670963788092
 20
230.0350496896739116
 30
0.0
 11
3244.9795768006511025
 21
230.0350496896739116
 31
0.0
  0
LINE
  5
AB2E
  8
0
 10
3193.1973670963798213
 20
230.2528496896738091
 30
0.0
 11
3193.1973670963798213
 21
234.0185230291577057
 31
0.0
  0
ARC
  5
AB2F
  8
0
 10
3193.4151670963788092
 20
230.2528496896738091
 30
0.0
 40
0.2178
 50
180.0
 51
270.0
  0
LINE
  5
AB30
  8
0
 10
3193.1973670963798213
 20
234.0185230291577057
 30
0.0
 11
3253.1803900116101431
 21
234.0185230291577057
 31
0.0
  0
LINE
  5
AB31
  8
0
 10
3196.4080103238088668
 20
223.4637312915405971
 30
0.0
 11
3196.4080103238088668
 21
208.5386397738406004
 31
0.0
  0
LINE
  5
AB32
  8
0
 10
3236.3857266330101083
 20
227.4637312915405971
 30
0.0
 11
3234.8872384609449
 21
227.4637312915405971
 31
0.0
  0
LINE
  5
AB33
  8
0
 10
3218.476878026713166
 20
227.4637312915405971
 30
0.0
 11
3200.4080103238097763
 21
227.4637312915405971
 31
0.0
  0
LINE
  5
AB34
  8
0
 10
3240.3857266330101083
 20
205.5386397738406004
 30
0.0
 11
3240.3857266330101083
 21
223.4637312915405971
 31
0.0
  0
LINE
  5
AB35
  8
0
 10
3238.6037975139879563
 20
204.5386397738406004
 30
0.0
 11
3239.3857266330101083
 21
204.5386397738406004
 31
0.0
  0
LINE
  5
AB36
  8
0
 10
3238.0572541933579487
 20
203.1217459121029947
 30
0.0
 11
3238.1044233033539967
 21
204.0636477276227936
 31
0.0
  0
LINE
  5
AB37
  8
0
 10
3237.1306887471678237
 20
202.884249886444394
 30
0.0
 11
3237.807567088982978
 21
202.8842498889941055
 31
0.0
  0
LINE
  5
AB38
  8
0
 10
3236.8595191836147933
 20
202.2744816158622996
 30
0.0
 11
3236.881103685907874
 21
202.6486476892661983
 31
0.0
  0
ARC
  5
AB39
  8
0
 10
3237.10910424581607
 20
202.2600838130406089
 30
0.0
 40
0.25
 50
176.698439864556093
 51
270.0
  0
ARC
  5
AB3A
  8
0
 10
3237.1306887481091508
 20
202.634249886444394
 30
0.0
 40
0.25
 50
90.0000002158144241
 51
176.698439864557713
  0
ARC
  5
AB3B
  8
0
 10
3237.8075670880411963
 20
203.1342498889941055
 30
0.0
 40
0.25
 50
270.0000002158143957
 51
357.1331034393029995
  0
ARC
  5
AB3C
  8
0
 10
3238.6037975139879563
 20
204.0386397738406004
 30
0.0
 40
0.5
 50
90.0
 51
177.133103439298111
  0
ARC
  5
AB3D
  8
0
 10
3239.3857266330101083
 20
205.5386397738406004
 30
0.0
 40
1.0
 50
270.0
 51
0.0
  0
ARC
  5
AB3E
  8
0
 10
3236.3857266330101083
 20
223.4637312915405971
 30
0.0
 40
4.0
 50
0.0
 51
90.0
  0
ARC
  5
AB3F
  8
0
 10
3200.4080103238097763
 20
223.4637312915405971
 30
0.0
 40
4.0
 50
90.0
 51
180.0
  0
LINE
  5
AB40
  8
0
 10
3200.4080103238097763
 20
204.5386397738406004
 30
0.0
 11
3217.2333374408672171
 21
204.5386397738406004
 31
0.0
  0
LINE
  5
AB41
  8
0
 10
3218.1812173656871892
 20
204.706054608487193
 30
0.0
 11
3237.6787277182038451
 21
204.706054608487193
 31
0.0
  0
ARC
  5
AB42
  8
0
 10
3200.4080103238097763
 20
208.5386397738406004
 30
0.0
 40
4.0
 50
180.0
 51
270.0
  0
LINE
  5
AB43
  8
0
 10
3217.7327241307748409
 20
204.0633972765947988
 30
0.0
 11
3217.7836419557070258
 21
203.036327450416195
 31
0.0
  0
LINE
  5
AB44
  8
0
 10
3217.8716428627640198
 20
204.3798180097045076
 30
0.0
 11
3217.9307664269867928
 21
203.2525407855644914
 31
0.0
  0
LINE
  5
AB45
  8
0
 10
3219.0803168148249824
 20
202.9588071621905101
 30
0.0
 11
3218.2446376002590114
 21
202.9588071621905101
 31
0.0
  0
LINE
  5
AB46
  8
0
 10
3219.1683594401961273
 20
202.1846335499978125
 30
0.0
 11
3219.1302482137061816
 21
202.9114254451741033
 31
0.0
  0
LINE
  5
AB47
  8
0
 10
3218.9773191473241241
 20
202.6473315969294902
 30
0.0
 11
3218.9973823854238617
 21
202.2644353306754113
 31
0.0
  0
LINE
  5
AB48
  8
0
 10
3218.7276616328590535
 20
202.8842498868947075
 30
0.0
 11
3217.9434457037409629
 21
202.8842498512975965
 31
0.0
  0
ARC
  5
AB49
  8
0
 10
3218.7276616442068189
 20
202.6342498868947075
 30
0.0
 40
0.25
 50
2.9994769690687249
 51
90.0000026007683545
  0
ARC
  5
AB4A
  8
0
 10
3218.7472674322239072
 20
202.2600838130406089
 30
0.0
 40
0.25
 50
270.0
 51
2.9994769690703511
  0
ARC
  5
AB4B
  8
0
 10
3218.7477248823070113
 20
202.2513536206406002
 30
0.0
 40
0.25
 50
270.0
 51
2.9994769690703511
  0
ARC
  5
AB4C
  8
0
 10
3217.2333374408672171
 20
204.0386397738406004
 30
0.0
 40
0.5
 50
2.8381613817999511
 51
90.0
  0
ARC
  5
AB4D
  8
0
 10
3219.0803168148249824
 20
202.9088071621904987
 30
0.0
 40
0.05
 50
3.001704217993129
 51
90.0
  0
LINE
  5
AB4E
  8
0
 10
3237.9292414981541697
 20
203.2529398492756911
 30
0.0
 11
3237.9883028231311073
 21
204.3798294918599936
 31
0.0
  0
LINE
  5
AB4F
  8
0
 10
3237.6196725931481524
 20
202.9591649659649022
 30
0.0
 11
3236.7863025887468211
 21
202.9591482987777908
 31
0.0
  0
LINE
  5
AB50
  8
0
 10
3236.6825909871809017
 20
202.178511804037214
 30
0.0
 11
3236.7364374850549211
 21
202.9128050328286861
 31
0.0
  0
LINE
  5
AB51
  8
0
 10
3236.3734269543037954
 20
201.8911835551454033
 30
0.0
 11
3219.4779399231938442
 21
201.8908669045505064
 31
0.0
  0
ARC
  5
AB52
  8
0
 10
3236.3734211443688764
 20
202.2011835550908927
 30
0.0
 40
0.31
 50
270.0010738218182951
 51
355.8059469958212162
  0
ARC
  5
AB53
  8
0
 10
3219.4779341132589252
 20
202.2008669044959959
 30
0.0
 40
0.31
 50
183.0017042180045053
 51
270.0010738218182951
  0
ARC
  5
AB54
  8
0
 10
3237.6196663932269075
 20
203.269164965902803
 30
0.0
 40
0.31
 50
270.0011459009444934
 51
356.999820438099789
  0
ARC
  5
AB55
  8
0
 10
3218.1812173656871892
 20
204.3960546084871908
 30
0.0
 40
0.31
 50
90.0
 51
183.0023046671884117
  0
ARC
  5
AB56
  8
0
 10
3218.2403409299099621
 20
203.268777384347203
 30
0.0
 40
0.31
 50
183.0023046671884117
 51
270.7941579349410972
  0
ARC
  5
AB57
  8
0
 10
3236.786303588733972
 20
202.9091482987878123
 30
0.0
 40
0.05
 50
90.001145900944465
 51
175.8059469958261047
  0
ARC
  5
AB58
  8
0
 10
3217.9434456964791025
 20
203.0442498512975931
 30
0.0
 40
0.16
 50
182.8381613818031894
 51
270.0000026007684255
  0
LINE
  5
AB59
  8
0
 10
3219.2001030553060446
 20
202.063353620640612
 30
0.0
 11
3218.9125156587488163
 21
202.063353620640612
 31
0.0
  0
ARC
  5
AB5A
  8
0
 10
3218.294393303977813
 20
204.5851976689397986
 30
0.0
 40
0.2826932481565865
 50
90.0855137182138748
 51
164.1743706911250058
  0
ARC
  5
AB5B
  8
0
 10
3218.0306370680750661
 20
195.6067274677756984
 30
0.0
 40
9.2649062362207388
 50
81.5193923403308105
 51
88.3712757770113768
  0
ARC
  5
AB5C
  8
0
 10
3218.0693055014548918
 20
229.6149310829117951
 30
0.0
 40
24.8800507943291898
 50
270.420454033649321
 51
273.0589191285815218
  0
ARC
  5
AB5D
  8
0
 10
3218.252682388077119
 20
204.4583340348328022
 30
0.0
 40
0.2772173128972216
 50
90.1655665044243904
 51
119.8086724727485972
  0
ARC
  5
AB5E
  8
0
 10
3219.3184292016781001
 20
204.7912788677272999
 30
0.0
 40
0.0812924510981634
 50
327.313029164582872
 51
345.0662813045343
  0
ARC
  5
AB5F
  8
0
 10
3218.9830214954158691
 20
206.6982545873785
 30
0.0
 40
1.992234692122415
 50
270.2915380354269246
 51
281.6948979463539899
  0
ARC
  5
AB60
  8
0
 10
3237.6787277182038451
 20
204.3960546084871908
 30
0.0
 40
0.31
 50
356.9998204380983111
 51
90.0
  0
LINE
  5
AB61
  8
0
 10
3239.178536836809144
 20
220.27079907520951
 30
0.0
 11
3239.178536836809144
 21
206.7272208870550116
 31
0.0
  0
LINE
  5
AB62
  8
0
 10
3238.188536836809817
 20
205.7372208870550025
 30
0.0
 11
3218.5714546652930039
 21
205.7372208870550025
 31
0.0
  0
ARC
  5
AB63
  8
0
 10
3218.5714546652930039
 20
205.4372208870549912
 30
0.0
 40
0.3
 50
90.0
 51
163.0933284646100958
  0
LINE
  5
AB64
  8
0
 10
3217.8109321897732116
 20
205.7372208870550025
 30
0.0
 11
3214.13519930054008
 21
205.7372208870550025
 31
0.0
  0
ARC
  5
AB65
  8
0
 10
3217.8109321897732116
 20
205.4372208870549912
 30
0.0
 40
0.3
 50
344.1493126967633884
 51
90.0
  0
LINE
  5
AB66
  8
0
 10
3213.63519930054008
 20
206.2372208870550025
 30
0.0
 11
3213.63519930054008
 21
225.77079907520951
 31
0.0
  0
LINE
  5
AB67
  8
0
 10
3233.1785368368100535
 20
226.27079907520951
 30
0.0
 11
3214.13519930054008
 21
226.27079907520951
 31
0.0
  0
ARC
  5
AB68
  8
0
 10
3233.1785368368100535
 20
220.27079907520951
 30
0.0
 40
6.0
 50
0.0
 51
90.0
  0
ARC
  5
AB69
  8
0
 10
3233.1785368368100535
 20
220.27079907520951
 30
0.0
 40
6.0
 50
89.9709343454667163
 51
90.0
  0
ARC
  5
AB6A
  8
0
 10
3238.188536836809817
 20
206.7272208870550116
 30
0.0
 40
0.99
 50
270.0
 51
0.0
  0
ARC
  5
AB6B
  8
0
 10
3214.13519930054008
 20
206.2372208870550025
 30
0.0
 40
0.5
 50
180.0
 51
270.0
  0
LINE
  5
AB6C
  8
0
 10
3212.4948687948649422
 20
225.8145614757910948
 30
0.0
 11
3202.0357383298792229
 21
225.9600657256268903
 31
0.0
  0
LINE
  5
AB6D
  8
0
 10
3198.6595777041047768
 20
222.6631168027923877
 30
0.0
 11
3198.5292153909858826
 21
209.4000465878586965
 31
0.0
  0
LINE
  5
AB6E
  8
0
 10
3212.5497643325711579
 20
206.1926788360644878
 30
0.0
 11
3201.9075521508470956
 21
206.0376708746950101
 31
0.0
  0
LINE
  5
AB6F
  8
0
 10
3213.1665243101101623
 20
226.3295202824500905
 30
0.0
 11
3213.1665243101101623
 21
205.8860241560383031
 31
0.0
  0
LINE
  5
AB70
  8
0
 10
3213.587064190334786
 20
226.7718345935718105
 30
0.0
 11
3202.0851177813210597
 21
226.788145118182598
 31
0.0
  0
LINE
  5
AB71
  8
0
 10
3198.079445521119851
 20
209.2202066579405937
 30
0.0
 11
3198.079445521119851
 21
222.7881491400015932
 31
0.0
  0
LINE
  5
AB72
  8
0
 10
3213.5263053243170361
 20
205.2202066579405937
 30
0.0
 11
3202.079445521119851
 21
205.2202066579405937
 31
0.0
  0
ARC
  5
AB73
  8
0
 10
3213.885298728698217
 20
205.8443066129401018
 30
0.0
 40
0.7199840402529586
 50
176.6782893713472049
 51
240.0917206400800126
  0
ARC
  5
AB74
  8
0
 10
3213.6848336167868183
 20
226.257802360125595
 30
0.0
 40
0.523247549225145
 50
100.769079894235503
 51
172.1220650418333946
  0
ARC
  5
AB75
  8
0
 10
3212.3719024327688203
 20
205.0613963047354105
 30
0.0
 40
1.14517903451459
 50
46.0616144570879129
 51
81.065014449372967
  0
ARC
  5
AB76
  8
0
 10
3212.5377555047848546
 20
226.4541208975344091
 30
0.0
 40
0.6409957284013248
 50
266.1636804246247152
 51
348.7911405690700235
  0
ARC
  5
AB77
  8
0
 10
3214.13519930054008
 20
225.77079907520951
 30
0.0
 40
0.5
 50
90.0
 51
180.0
  0
ARC
  5
AB78
  8
0
 10
3201.9894168623700352
 20
222.6303879151400906
 30
0.0
 40
3.3300000000000001
 50
89.2029699135270846
 51
179.4368596627967918
  0
ARC
  5
AB79
  8
0
 10
3201.8590545492497768
 20
209.3673177002065131
 30
0.0
 40
3.3300000000000001
 50
179.4368596627984971
 51
270.8344763145162801
  0
ARC
  5
AB7A
  8
0
 10
3202.079445521119851
 20
209.2202066579405937
 30
0.0
 40
4.0
 50
180.0
 51
270.0
  0
ARC
  5
AB7B
  8
0
 10
3202.079445521119851
 20
222.7881491400015932
 30
0.0
 40
4.0
 50
89.9187508303249103
 51
180.0
  0
ARC
  5
AB7C
  8
0
 10
3215.0808831130611907
 20
229.0436216617084142
 30
0.0
 40
3.7455086484084572
 50
335.0511312227505982
 51
340.6057308151067105
  0
ARC
  5
AB7D
  8
0
 10
3221.6742201902297893
 20
224.4537849466834132
 30
0.0
 40
4.5345412039105586
 50
89.2188752949487025
 51
132.4464223637297948
  0
ARC
  5
AB7E
  8
0
 10
3233.8844447865340044
 20
227.2073584210060915
 30
0.0
 40
1.0350469565122491
 50
14.3409796901659092
 51
55.1530224839595675
  0
ARC
  5
AB7F
  8
0
 10
3231.4995763548581635
 20
223.7819787450195861
 30
0.0
 40
5.2088729424711353
 50
55.1530224839595675
 51
88.0726017031443149
  0
LINE
  5
AB80
  8
0
 10
3231.6747669107098773
 20
228.987904752940608
 30
0.0
 11
3221.7360385731631141
 21
228.987904752940608
 31
0.0
  0
ARC
  5
AB81
  8
0
 10
3226.682058243827214
 20
845.9044569356658485
 30
0.0
 40
618.4951544819308538
 50
269.239871186977382
 51
270.760128813022618
  0
ARC
  5
AB82
  8
0
 10
3227.9273690338959568
 20
215.5167214591600953
 30
0.0
 40
11.8140261265901998
 50
87.3931653345997006
 51
93.5040435169663056
  0
ARC
  5
AB83
  8
0
 10
3235.3148453412791241
 20
216.957366779028888
 30
0.0
 40
10.4944770547215196
 50
86.834003557838713
 51
93.7467917167853102
  0
CIRCLE
  5
AB84
  8
0
 10
3235.1747669107098773
 20
216.0013536206406002
 30
0.0
 40
1.125
  0
CIRCLE
  5
AB85
  8
0
 10
3235.1747669107098773
 20
216.0013536206406002
 30
0.0
 40
1.786646824900002
  0
LINE
  5
AB86
  8
0
 10
3202.1827239732938324
 20
207.2121965366216898
 30
0.0
 11
3211.0630707436089324
 21
207.5999208332787873
 31
0.0
  0
LINE
  5
AB87
  8
0
 10
3211.0630707436089324
 20
207.5999208332787873
 30
0.0
 11
3211.0630707436089324
 21
224.4027861857900916
 31
0.0
  0
LINE
  5
AB88
  8
0
 10
3200.0955038891129334
 20
222.7924160349826082
 30
0.0
 11
3200.0954852023128296
 21
209.2102957316255072
 31
0.0
  0
LINE
  5
AB89
  8
0
 10
3202.1827426735840163
 20
224.7905097260446041
 30
0.0
 11
3211.0630707436089324
 21
224.4027861857900916
 31
0.0
  0
ARC
  5
AB8A
  8
0
 10
3202.0955038891111144
 20
222.792413283306189
 30
0.0
 40
2.0
 50
87.4999997206398064
 51
179.9999211702780997
  0
ARC
  5
AB8B
  8
0
 10
3202.0954852023110107
 20
209.210292979949088
 30
0.0
 40
2.0
 50
179.9999211702780997
 51
272.4999998925165983
  0
LINE
  5
AB8C
  8
0
 10
3211.0630707436089324
 20
224.4027861857900916
 30
0.0
 11
3212.9462577591589252
 21
225.9601558866276889
 31
0.0
  0
LINE
  5
AB8D
  8
0
 10
3212.8817459846532074
 20
206.0868203992909002
 30
0.0
 11
3211.0630707436089324
 21
207.5999208332787873
 31
0.0
  0
LINE
  5
AB8E
  8
0
 10
3199.2530245546681726
 20
225.6185810011141939
 30
0.0
 11
3197.5795831990631086
 21
226.2921584162866964
 31
0.0
  0
LINE
  5
AB8F
  8
0
 10
3197.5795831990631086
 20
205.7102126490943874
 30
0.0
 11
3198.9254707630798293
 21
206.7600352765836078
 31
0.0
  0
LINE
  5
AB90
  8
0
 10
3237.9467901785837967
 20
223.9127436201823969
 30
0.0
 11
3239.2141537577558665
 21
226.2921584162868101
 31
0.0
  0
LINE
  5
AB91
  8
0
 10
3245.1747669107098773
 20
229.7565522987189013
 30
0.0
 11
3245.1747669107098773
 21
202.2278838130405916
 31
0.0
  0
LINE
  5
AB92
  8
0
 10
3245.1973768006509999
 20
229.8172496896739005
 30
0.0
 11
3245.1973768006509999
 21
202.2278838130405916
 31
0.0
  0
ARC
  5
AB93
  8
0
 10
3244.9299669107099362
 20
229.7565522987189013
 30
0.0
 40
0.2448
 50
0.0
 51
90.0
  0
ARC
  5
AB94
  8
0
 10
3244.9795768006511025
 20
229.8172496896739005
 30
0.0
 40
0.2178
 50
0.0
 51
90.0
  0
ARC
  5
AB95
  8
0
 10
3244.9569669107099799
 20
202.2278838130405916
 30
0.0
 40
0.2178
 50
270.0
 51
0.0
  0
ARC
  5
AB96
  8
0
 10
3245.4151768006508973
 20
202.2278838130405916
 30
0.0
 40
0.2178
 50
180.0
 51
270.0
  0
LINE
  5
AB97
  8
0
 10
3253.1803900116101431
 20
202.0013536206406002
 30
0.0
 11
3253.1803900116101431
 21
234.0185230291577057
 31
0.0
  0
ARC
  5
AB98
  8
0
 10
3252.9625900116088815
 20
202.2278838130405916
 30
0.0
 40
0.2178
 50
270.0
 51
0.0
  0
LINE
  5
AB99
  8
0
 10
3253.1803900116101431
 20
202.0013536206406002
 30
0.0
 11
3237.0804638423560391
 21
202.0013536206406002
 31
0.0
  0
ARC
  5
AB9A
  8
0
 10
3237.0787882427089244
 20
202.1950354598693025
 30
0.0
 40
0.1936890871501771
 50
200.5279431139306041
 51
270.4956705833885167
  0
LINE
  5
AB9B
  8
0
 10
3236.9367482634829685
 20
202.063353620640612
 30
0.0
 11
3236.6510952504168017
 21
202.063353620640612
 31
0.0
  0
CIRCLE
  5
AB9C
  8
0
 10
3243.0147669107100228
 20
207.4013536206406059
 30
0.0
 40
0.625
  0
CIRCLE
  5
AB9D
  8
0
 10
3243.0147669107100228
 20
212.0013536206406002
 30
0.0
 40
0.7800000000000002
  0
CIRCLE
  5
AB9E
  8
0
 10
3243.0147669107100228
 20
216.0013536206406002
 30
0.0
 40
0.7800000000000015
  0
CIRCLE
  5
AB9F
  8
0
 10
3243.0147669107100228
 20
220.0013536206406002
 30
0.0
 40
0.7800000000000017
  0
LINE
  5
ABA0
  8
0
 10
3196.1747669107098773
 20
230.0350496896739116
 30
0.0
 11
3196.1747669107098773
 21
230.0013522987188992
 31
0.0
  0
LINE
  5
ABA1
  8
0
 10
3202.1747669107089678
 20
230.0350496896739116
 30
0.0
 11
3202.1747669107089678
 21
230.0013522987188992
 31
0.0
  0
LINE
  5
ABA2
  8
0
 10
3216.1747669107098773
 20
230.0350496896739116
 30
0.0
 11
3216.1747669107098773
 21
230.0013522987188992
 31
0.0
  0
LINE
  5
ABA3
  8
0
 10
3222.1747669107098773
 20
230.0350496896739116
 30
0.0
 11
3222.1747669107098773
 21
230.0013522987188992
 31
0.0
  0
LINE
  5
ABA4
  8
0
 10
3236.1747669107098773
 20
230.0350496896739116
 30
0.0
 11
3236.1747669107098773
 21
230.0013522987188992
 31
0.0
  0
LINE
  5
ABA5
  8
0
 10
3242.1747669107089678
 20
230.0350496896739116
 30
0.0
 11
3242.1747669107089678
 21
230.0013522987188992
 31
0.0
  0
ARC
  5
ABA6
  8
0
 10
3258.6067237090469462
 20
209.2848274923454994
 30
0.0
 40
18.4094341241776505
 50
176.3839322042543927
 51
183.9974441263773883
  0
ARC
  5
ABA7
  8
0
 10
3225.2085457584230426
 20
209.173673392574301
 30
0.0
 40
15.0791616733117202
 50
355.5415184633594095
 51
4.8398578672711743
  0
LINE
  5
ABA8
  8
0
 10
3218.0239181348611055
 20
204.6674087110502001
 30
0.0
 11
3218.2844207468529021
 21
205.5244649680294913
 31
0.0
  0
LINE
  5
ABA9
  8
0
 10
3217.7327241307748409
 20
204.0633972765947988
 30
0.0
 11
3218.0995252122229431
 21
205.3552814741136956
 31
0.0
  0
LINE
  5
ABAA
  8
0
 10
3213.5263053243170361
 20
205.2202066579405937
 30
0.0
 11
3214.13519930054008
 21
205.7372208870550025
 31
0.0
  0
LINE
  5
ABAB
  8
0
 10
3213.5870641903361502
 20
226.7718345935718105
 30
0.0
 11
3214.13519930054008
 21
226.27079907520951
 31
0.0
  0
LINE
  5
ABAC
  8
0
 10
3238.6037975139879563
 20
204.5386397738406004
 30
0.0
 11
3238.188536836809817
 21
205.7372208870550025
 31
0.0
  0
LINE
  5
ABAD
  8
0
 10
3240.3857266330101083
 20
205.5386397738406004
 30
0.0
 11
3239.178536836809144
 21
206.7272208870550116
 31
0.0
  0
LINE
  5
ABAE
  8
0
 10
3237.7735592799531332
 20
204.6911935162854093
 30
0.0
 11
3237.5777667598308653
 21
205.4267195241708066
 31
0.0
  0
ARC
  5
ABAF
  8
0
 10
3234.731799347372089
 20
174.506852032789908
 30
0.0
 40
31.2337343167133383
 50
85.2770788940405282
 51
89.1588916418322555
  0
ARC
  5
ABB0
  8
0
 10
3237.2728739383737775
 20
205.2638642904495043
 30
0.0
 40
0.3719316620585362
 50
54.9556590424294811
 51
85.2770788940405282
  0
ARC
  5
ABB1
  8
0
 10
3237.3580710246760646
 20
205.38533814825891
 30
0.0
 40
0.2235590175258043
 50
10.6671196083064093
 51
54.9556590424294811
  0
ARC
  5
ABB2
  8
0
 10
3216.4816106237281019
 20
210.2498059489934121
 30
0.0
 40
5.5736755054695344
 50
261.0043422120872947
 51
279.0685663109574079
  0
ARC
  5
ABB4
  8
0
 10
3227.7954627993640315
 20
232.3634480164797935
 30
0.0
 40
5.0891210948843923
 50
263.3407679986535186
 51
277.5564408528983904
  0
ARC
  5
ABB5
  8
0
 10
3235.2378754763940378
 20
232.1434774019948861
 30
0.0
 40
4.7532159153065852
 50
262.6410574928984261
 51
277.9397377817056736
  0
LINE
  5
ABB6
  8
0
 10
3218.0031446677671738
 20
205.6675562150078918
 30
0.0
 11
3218.3792421872981322
 21
205.6675562150078918
 31
0.0
  0
ARC
  5
ABB7
  8
0
 10
3216.4869365382642172
 20
201.8789771090299894
 30
0.0
 40
2.9968491335442029
 50
73.0603177359026006
 51
107.0125907871724991
  0
ENDSEC
  0
EOF
