  0
SECTION
  2
HEADER
  9
$ACADVER
  1
AC1009
  9
$INSBASE
 10
3074.823111976115797
 20
193.677734084571199
 30
0.0
  9
$EXTMIN
 10
3044.5887244945388375
 20
193.6730746001065882
 30
-0.0000000000112498
  9
$EXTMAX
 10
3104.8978166557631084
 20
235.6308235415015986
 30
0.0000000000002956
  9
$LIMMIN
 10
0.0
 20
0.0
  9
$LIMMAX
 10
11.6929133858000007
 20
8.2677165353999982
  9
$ORTHOMODE
 70
     0
  9
$REGENMODE
 70
     1
  9
$FILLMODE
 70
     1
  9
$QTEXTMODE
 70
     0
  9
$MIRRTEXT
 70
     0
  9
$DRAGMODE
 70
     2
  9
$LTSCALE
 40
0.6431102362
  9
$OSMODE
 70
  4095
  9
$ATTMODE
 70
     1
  9
$TEXTSIZE
 40
0.2
  9
$TRACEWID
 40
0.05
  9
$TEXTSTYLE
  7
STANDARD
  9
$CLAYER
  8
0
  9
$CELTYPE
  6
BYLAYER
  9
$CECOLOR
 62
   256
  9
$DIMSCALE
 40
1.0
  9
$DIMASZ
 40
0.1875
  9
$DIMEXO
 40
0.0625
  9
$DIMDLI
 40
0.4443307087
  9
$DIMRND
 40
0.0
  9
$DIMDLE
 40
0.0
  9
$DIMEXE
 40
0.125
  9
$DIMTP
 40
0.01
  9
$DIMTM
 40
0.01
  9
$DIMTXT
 40
2.0
  9
$DIMCEN
 40
0.1052362205
  9
$DIMTSZ
 40
0.0
  9
$DIMTOL
 70
     1
  9
$DIMLIM
 70
     0
  9
$DIMTIH
 70
     1
  9
$DIMTOH
 70
     1
  9
$DIMSE1
 70
     0
  9
$DIMSE2
 70
     0
  9
$DIMTAD
 70
     0
  9
$DIMZIN
 70
     0
  9
$DIMBLK
  1

  9
$DIMASO
 70
     1
  9
$DIMSHO
 70
     1
  9
$DIMPOST
  1
\X
  9
$DIMAPOST
  1

  9
$DIMALT
 70
     1
  9
$DIMALTD
 70
     2
  9
$DIMALTF
 40
25.3999999999999986
  9
$DIMLFAC
 40
1.0
  9
$DIMTOFL
 70
     0
  9
$DIMTVP
 40
0.0
  9
$DIMTIX
 70
     0
  9
$DIMSOXD
 70
     0
  9
$DIMSAH
 70
     0
  9
$DIMBLK1
  1

  9
$DIMBLK2
  1

  9
$DIMSTYLE
  2
STANDARD
  9
$DIMCLRD
 70
     0
  9
$DIMCLRE
 70
     0
  9
$DIMCLRT
 70
     0
  9
$DIMTFAC
 40
1.0
  9
$DIMGAP
 40
0.09
  9
$LUNITS
 70
     2
  9
$LUPREC
 70
     4
  9
$SKETCHINC
 40
0.1
  9
$FILLETRAD
 40
0.0
  9
$AUNITS
 70
     0
  9
$AUPREC
 70
     0
  9
$MENU
  1
.
  9
$ELEVATION
 40
0.0
  9
$PELEVATION
 40
0.0
  9
$THICKNESS
 40
0.0
  9
$LIMCHECK
 70
     0
  9
$BLIPMODE
 70
     0
  9
$CHAMFERA
 40
0.0
  9
$CHAMFERB
 40
0.0
  9
$SKPOLY
 70
     0
  9
$TDCREATE
 40
2458060.468368056230247
  9
$TDUPDATE
 40
2459634.5009490740485489
  9
$TDINDWG
 40
0.3689538194
  9
$TDUSRTIMER
 40
0.3689538194
  9
$USRTIMER
 70
     1
  9
$ANGBASE
 50
0.0
  9
$ANGDIR
 70
     0
  9
$PDMODE
 70
     0
  9
$PDSIZE
 40
0.3125
  9
$PLINEWID
 40
0.0
  9
$COORDS
 70
     1
  9
$SPLFRAME
 70
     0
  9
$SPLINETYPE
 70
     6
  9
$SPLINESEGS
 70
     8
  9
$ATTDIA
 70
     1
  9
$ATTREQ
 70
     1
  9
$HANDLING
 70
     1
  9
$HANDSEED
  5
A99F
  9
$SURFTAB1
 70
     6
  9
$SURFTAB2
 70
     6
  9
$SURFTYPE
 70
     6
  9
$SURFU
 70
     6
  9
$SURFV
 70
     6
  9
$UCSNAME
  2

  9
$UCSORG
 10
0.0
 20
0.0
 30
0.0
  9
$UCSXDIR
 10
1.0
 20
0.0
 30
0.0
  9
$UCSYDIR
 10
0.0
 20
1.0
 30
0.0
  9
$PUCSNAME
  2

  9
$PUCSORG
 10
0.0
 20
0.0
 30
0.0
  9
$PUCSXDIR
 10
1.0
 20
0.0
 30
0.0
  9
$PUCSYDIR
 10
0.0
 20
1.0
 30
0.0
  9
$USERI1
 70
     0
  9
$USERI2
 70
     0
  9
$USERI3
 70
     0
  9
$USERI4
 70
     0
  9
$USERI5
 70
     0
  9
$USERR1
 40
0.0
  9
$USERR2
 40
0.0
  9
$USERR3
 40
0.0
  9
$USERR4
 40
0.0
  9
$USERR5
 40
0.0
  9
$WORLDVIEW
 70
     1
  9
$SHADEDGE
 70
     3
  9
$SHADEDIF
 70
    70
  9
$TILEMODE
 70
     1
  9
$MAXACTVP
 70
    64
  9
$PLIMCHECK
 70
     0
  9
$PEXTMIN
 10
1.0000000000000000E+20
 20
1.0000000000000000E+20
 30
1.0000000000000000E+20
  9
$PEXTMAX
 10
-1.0000000000000000E+20
 20
-1.0000000000000000E+20
 30
-1.0000000000000000E+20
  9
$PLIMMIN
 10
0.0
 20
0.0
  9
$PLIMMAX
 10
12.0
 20
9.0
  9
$UNITMODE
 70
     0
  9
$VISRETAIN
 70
     1
  9
$PLINEGEN
 70
     0
  9
$PSLTSCALE
 70
     1
  0
ENDSEC
  0
SECTION
  2
TABLES
  0
TABLE
  2
VPORT
 70
     1
  0
VPORT
  2
*ACTIVE
 70
     0
 10
0.0
 20
0.0
 11
1.0
 21
1.0
 12
732.7684170595257456
 22
78.3184514906121763
 13
0.0
 23
0.0
 14
1.0
 24
1.0
 15
0.0
 25
0.0
 16
0.0
 26
0.0
 36
48.1717359839548322
 17
2341.974853515625
 27
136.3334975801919029
 37
0.0
 40
42.2205323376877004
 41
2.005224660397074
 42
50.0
 43
0.0
 44
0.0
 50
0.0
 51
0.0
 71
     0
 72
   100
 73
     1
 74
     1
 75
     0
 76
     0
 77
     0
 78
     0
  0
ENDTAB
  0
TABLE
  2
LTYPE
 70
     2
  0
LTYPE
  2
CONTINUOUS
 70
     0
  3
Solid line
 72
    65
 73
     0
 40
0.0
  0
LTYPE
  2
PHANTOM2
 70
     0
  3
___ _ _ ___ _ _ ___ _ _ ___ _ _
 72
    65
 73
     6
 40
1.25
 49
0.625
 49
-0.125
 49
0.125
 49
-0.125
 49
0.125
 49
-0.125
  0
ENDTAB
  0
TABLE
  2
LAYER
 70
     2
  0
LAYER
  2
0
 70
     0
 62
   255
  6
CONTINUOUS
  0
LAYER
  2
DEFPOINTS
 70
     0
 62
     7
  6
CONTINUOUS
  0
ENDTAB
  0
TABLE
  2
STYLE
 70
     1
  0
STYLE
  2
STANDARD
 70
     0
 40
0.0
 41
0.8
 50
0.0
 71
     0
 42
0.2
  3
txt
  4

  0
ENDTAB
  0
TABLE
  2
VIEW
 70
     0
  0
ENDTAB
  0
TABLE
  2
UCS
 70
     0
  0
ENDTAB
  0
TABLE
  2
APPID
 70
     9
  0
APPID
  2
ACAD
 70
     0
  0
APPID
  2
ACAD_MLEADERVER
 70
     0
  0
APPID
  2
ACAD_EXEMPT_FROM_CAD_STANDARDS
 70
     0
  0
APPID
  2
ACAD_NAV_VCDISPLAY
 70
     0
  0
APPID
  2
ACAECLAYERSTANDARD
 70
     0
  0
APPID
  2
ACCMTRANSPARENCY
 70
     0
  0
APPID
  2
ACAD_DSTYLE_DIMJAG
 70
     0
  0
APPID
  2
ACAD_DSTYLE_DIMTALN
 70
     0
  0
APPID
  2
ACDBATTR
 70
     0
  0
ENDTAB
  0
TABLE
  2
DIMSTYLE
 70
     1
  0
DIMSTYLE
  2
STANDARD
 70
     0
  3

  4

  5

  6

  7

 40
1.0
 41
0.1875
 42
0.0625
 43
0.38
 44
0.125
 45
0.0
 46
0.0
 47
0.01
 48
0.01
140
0.15625
141
0.09
142
0.0
143
25.3999999999999986
144
1.0
145
0.0
146
1.0
147
0.09
 71
     1
 72
     0
 73
     1
 74
     1
 75
     0
 76
     0
 77
     0
 78
     4
170
     0
171
     2
172
     0
173
     0
174
     0
175
     0
176
     0
177
     0
178
     0
  0
ENDTAB
  0
ENDSEC
  0
SECTION
  2
BLOCKS
  0
BLOCK
  8
0
  2
$MODEL_SPACE
 70
     0
 10
0.0
 20
0.0
 30
0.0
  3
$MODEL_SPACE
  1

  0
ENDBLK
  5
21
  8
0
  0
BLOCK
 67
     1
  8
0
  2
$PAPER_SPACE
 70
     0
 10
0.0
 20
0.0
 30
0.0
  3
$PAPER_SPACE
  1

  0
ENDBLK
  5
1D
 67
     1
  8
0
  0
ENDSEC
  0
SECTION
  2
ENTITIES
  0
ATTDEF
  5
3930
  8
DEFPOINTS
 10
3074.8170859697570449
 20
193.6826258181125127
 30
0.0
 40
0.001
  1
K-23768T-RCP
  3

  2
MODELNUMBER
 70
     0
1001
ACDBATTR
1070
     0
1070
     1
  0
ATTDEF
  5
3931
  8
DEFPOINTS
 10
3074.8170859697570449
 20
193.6809591514457907
 30
0.0
 40
0.001
  1
BELAY
  3

  2
TRADENAME
 70
     0
1001
ACDBATTR
1070
     0
1070
     1
  0
ATTDEF
  5
3932
  8
DEFPOINTS
 10
3074.8170859697570449
 20
193.6792924847792108
 30
0.0
 40
0.001
  1
BATH
  3

  2
PRODUCT
 70
     0
1001
ACDBATTR
1070
     0
1070
     1
  0
LINE
  5
A821
  8
0
 10
3044.8090003328311468
 20
234.4917340845713056
 30
0.0
 11
3044.8090003328311468
 21
193.677734084571199
 31
0.0
  0
LINE
  5
A822
  8
0
 10
3044.8156352790310848
 20
234.4917340845713056
 30
0.0
 11
3044.8443942919461733
 21
235.3152844612766899
 31
0.0
  0
LINE
  5
A823
  8
0
 10
3045.0892450445649047
 20
235.5517340845711942
 30
0.0
 11
3070.3721930095630341
 21
235.5517340845711942
 31
0.0
  0
LINE
  5
A824
  8
0
 10
3104.8090003328311468
 20
193.677734084571199
 30
0.0
 11
3044.8090003328311468
 21
193.677734084571199
 31
0.0
  0
ARC
  5
A825
  8
0
 10
3045.0892450445649047
 20
235.3067340845711897
 30
0.0
 40
0.245
 50
90.0
 51
177.9999999968790974
  0
LINE
  5
A826
  8
0
 10
3104.8090003328311468
 20
234.4917340845713056
 30
0.0
 11
3104.8090003328311468
 21
193.677734084571199
 31
0.0
  0
LINE
  5
A827
  8
0
 10
3104.8146234337309579
 20
234.5610615561710119
 30
0.0
 11
3104.8140225177698994
 21
234.5043917999429937
 31
0.0
  0
LINE
  5
A828
  8
0
 10
3068.4168346702322197
 20
234.4917340845713056
 30
0.0
 11
3044.8090003328311468
 21
234.4917340845713056
 31
0.0
  0
LINE
  5
A829
  8
0
 10
3104.8146234337309579
 20
234.5610615561710119
 30
0.0
 11
3104.7870940857119422
 21
235.3508181065813858
 31
0.0
  0
LINE
  5
A82A
  8
0
 10
3062.2190003328310013
 20
232.7117340845711908
 30
0.0
 11
3044.8090003328311468
 21
232.7117340845711908
 31
0.0
  0
LINE
  5
A82B
  8
0
 10
3070.3771635198449985
 20
233.3017340845711942
 30
0.0
 11
3044.8090003328311468
 21
233.3017340845711942
 31
0.0
  0
LINE
  5
A82C
  8
0
 10
3071.1516644380981234
 20
233.3017340845711942
 30
0.0
 11
3087.977313794669044
 21
233.3017340845711942
 31
0.0
  0
LINE
  5
A82D
  8
0
 10
3088.7408371458182046
 20
233.3017340845711942
 30
0.0
 11
3104.8090003328311468
 21
233.3017340845711942
 31
0.0
  0
LINE
  5
A82E
  8
0
 10
3062.2190003328310013
 20
193.677734084571199
 30
0.0
 11
3062.2190003328310013
 21
232.7117340845711908
 31
0.0
  0
LINE
  5
A82F
  8
0
 10
3044.8090003328311468
 20
232.835763142471194
 30
0.0
 11
3062.2284499613938351
 21
232.835763142471194
 31
0.0
  0
LINE
  5
A830
  8
0
 10
3062.3322865118311711
 20
232.7276058349980872
 30
0.0
 11
3062.3322865118311711
 21
193.677734084571199
 31
0.0
  0
ARC
  5
A831
  8
0
 10
3062.1790657252581696
 20
232.6844288933858991
 30
0.0
 40
0.1591881205519994
 50
15.7376021369332992
 51
71.9271710412115368
  0
LINE
  5
A832
  8
0
 10
3062.4627029134758232
 20
232.9143878406711963
 30
0.0
 11
3070.4119920455727879
 21
232.9143878406711963
 31
0.0
  0
ARC
  5
A833
  8
0
 10
3062.512938702673182
 20
232.376439495549306
 30
0.0
 40
0.5402888639753129
 50
95.3350389951039148
 51
121.7726023057040976
  0
LINE
  5
A834
  8
0
 10
3073.7114655353962007
 20
199.5887291413712035
 30
0.0
 11
3085.417734811866012
 21
199.5887291413712035
 31
0.0
  0
LINE
  5
A835
  8
0
 10
3087.9030033451440431
 20
202.6003021016979062
 30
0.0
 11
3088.2272996165870609
 21
233.0490715970124995
 31
0.0
  0
LINE
  5
A836
  8
0
 10
3070.9516193264112189
 20
202.3195932056904951
 30
0.0
 11
3070.6113418209311021
 21
234.5517340845713079
 31
0.0
  0
LINE
  5
A837
  8
0
 10
3071.220278569416223
 20
202.6008178632824865
 30
0.0
 11
3070.8864271119100522
 21
234.5066409652590949
 31
0.0
  0
ARC
  5
A838
  8
0
 10
3073.7114655353962007
 20
202.3487291413711944
 30
0.0
 40
2.7599999999999989
 50
180.6048540412409977
 51
270.0
  0
LINE
  5
A839
  8
0
 10
3073.9801274883388942
 20
199.8696959643469029
 30
0.0
 11
3085.1490728589251376
 21
199.8696959643469029
 31
0.0
  0
ARC
  5
A83A
  8
0
 10
3073.9801274883388942
 20
202.6296959643468938
 30
0.0
 40
2.7599999999999989
 50
180.5995012690391093
 51
270.0
  0
ARC
  5
A83B
  8
0
 10
3085.1431598711687911
 20
202.6296959643468938
 30
0.0
 40
2.7599999999999989
 50
270.0
 51
359.3897912640055097
  0
ARC
  5
A83C
  8
0
 10
3088.7408371458182046
 20
233.0517340845711942
 30
0.0
 40
0.25
 50
90.0
 51
162.180698997731696
  0
ARC
  5
A83D
  8
0
 10
3087.977313794669044
 20
233.0517340845711942
 30
0.0
 40
0.25
 50
359.3897912640039181
 51
90.0
  0
ARC
  5
A83E
  8
0
 10
3071.1516644380981234
 20
233.0517340845711942
 30
0.0
 40
0.25
 50
90.0
 51
180.5995012690407862
  0
ARC
  5
A83F
  8
0
 10
3070.3771635198449985
 20
233.0517340845711942
 30
0.0
 40
0.25
 50
0.6048540412409898
 51
90.0
  0
LINE
  5
A840
  8
0
 10
3068.5765401655321511
 20
233.4217340845713125
 30
0.0
 11
3068.5765401655321511
 21
234.4317340845711897
 31
0.0
  0
ARC
  5
A841
  8
0
 10
3068.456540165530896
 20
233.4217340845713125
 30
0.0
 40
0.12
 50
270.0
 51
0.0
  0
LINE
  5
A842
  8
0
 10
3070.6315026687320824
 20
234.5517340845713079
 30
0.0
 11
3070.622173831101918
 21
235.3048306734141022
 31
0.0
  0
LINE
  5
A843
  8
0
 10
3044.8177305252038423
 20
234.5517340845713079
 30
0.0
 11
3070.6315026687320824
 21
234.5517340845713079
 31
0.0
  0
ARC
  5
A844
  8
0
 10
3068.456540165530896
 20
234.4317340845711897
 30
0.0
 40
0.12
 50
0.0
 51
90.0
  0
LINE
  5
A845
  8
0
 10
3068.4168346702322197
 20
233.3617213904711889
 30
0.0
 11
3044.8090003328311468
 21
233.3617213904711889
 31
0.0
  0
LINE
  5
A846
  8
0
 10
3068.536834670231201
 20
233.4817213904713071
 30
0.0
 11
3068.536834670231201
 21
234.3717340845711874
 31
0.0
  0
ARC
  5
A847
  8
0
 10
3068.4168346702322197
 20
233.4817213904713071
 30
0.0
 40
0.12
 50
270.0
 51
0.0
  0
ARC
  5
A848
  8
0
 10
3068.4168346702322197
 20
234.3717340845711874
 30
0.0
 40
0.12
 50
359.9999999999984084
 51
90.0
  0
ARC
  5
A849
  8
0
 10
3070.3721930095630341
 20
235.3017340845711942
 30
0.0
 40
0.25
 50
0.709704034461332
 51
90.0
  0
LINE
  5
A84A
  8
0
 10
3071.1129619569392162
 20
234.4648212831334888
 30
0.0
 11
3088.0162383903239061
 21
234.4648212831334888
 31
0.0
  0
LINE
  5
A84B
  8
0
 10
3070.7843632471958699
 20
235.3248014487317903
 30
0.0
 11
3070.7637819653768929
 21
234.5461855136929046
 31
0.0
  0
LINE
  5
A84C
  8
0
 10
3070.7004024159500659
 20
234.494362785316298
 30
0.0
 11
3070.6917047423730764
 21
234.165318787520107
 31
0.0
  0
LINE
  5
A84D
  8
0
 10
3070.8002647277121469
 20
234.5252709817758046
 30
0.0
 11
3070.729665639661107
 21
234.5235612741466014
 31
0.0
  0
LINE
  5
A84E
  8
0
 10
3070.8029722736850999
 20
234.7773503691290102
 30
0.0
 11
3070.807392518630877
 21
235.3191391154618088
 31
0.0
  0
LINE
  5
A84F
  8
0
 10
3069.9018227273918455
 20
235.6266100294662067
 30
0.0
 11
3089.2118698680469606
 21
235.6266100294662067
 31
0.0
  0
ARC
  5
A850
  8
0
 10
3071.1173822018849933
 20
235.3166100294662044
 30
0.0
 40
0.31
 50
90.0
 51
179.5325562545976084
  0
ARC
  5
A851
  8
0
 10
3071.0942550035410932
 20
235.3166100294662044
 30
0.0
 40
0.31
 50
90.0
 51
178.4858439161164938
  0
ARC
  5
A852
  8
0
 10
3071.1129619569392162
 20
234.7748212831334058
 30
0.0
 40
0.31
 50
179.5325562545976084
 51
270.0
  0
LINE
  5
A853
  8
0
 10
3071.048522155595947
 20
234.4715928016169073
 30
0.0
 11
3070.8002647277121469
 21
234.5252709817758046
 31
0.0
  0
ARC
  5
A854
  8
0
 10
3070.8043802804700135
 20
234.547251042138214
 30
0.0
 40
0.0223620398900243
 50
180.977851334978709
 51
259.3947206164555723
  0
ARC
  5
A855
  8
0
 10
3071.7475158322340576
 20
234.5633488405883895
 30
0.0
 40
0.9656349633413392
 50
167.9594851528152049
 51
180.977851334978709
  0
ARC
  5
A856
  8
0
 10
3070.7303919407581816
 20
234.4935700673233043
 30
0.0
 40
0.03
 50
91.3872684590490678
 51
178.4858439171320015
  0
ARC
  5
A857
  8
0
 10
3070.1923184369311457
 20
234.177975124071196
 30
0.0
 40
0.4995466593999866
 50
328.4549645335268906
 51
358.5482191581231746
  0
ARC
  5
A858
  8
0
 10
3070.784150814503846
 20
234.5451691619055055
 30
0.0
 40
0.02039418999733
 50
177.1434610059251042
 51
265.3872091518438197
  0
ARC
  5
A859
  8
0
 10
3069.9095766033078689
 20
235.2892955111682056
 30
0.0
 40
0.3374036260124149
 50
91.3168307759748217
 51
128.9387854405366056
  0
LINE
  5
A85A
  8
0
 10
3070.8475132460907844
 20
232.9340400357640988
 30
0.0
 11
3071.1117204031447727
 21
202.3270061762000012
 31
0.0
  0
LINE
  5
A85B
  8
0
 10
3070.7275289335461821
 20
233.0530042054431874
 30
0.0
 11
3070.6271639431511176
 21
233.0530135868712023
 31
0.0
  0
ARC
  5
A85C
  8
0
 10
3070.7275177167721267
 20
232.9330042059673929
 30
0.0
 40
0.12
 50
0.4945784390131127
 51
89.9946443851520712
  0
ARC
  5
A85D
  8
0
 10
3070.4127006237249589
 20
233.1685974334646971
 30
0.0
 40
0.254210580329087
 50
269.8402954350158893
 51
327.6182134761921247
  0
LINE
  5
A85E
  8
0
 10
3073.7116235383978164
 20
199.7494491551287012
 30
0.0
 11
3085.417576808864851
 21
199.7494491551287012
 31
0.0
  0
ARC
  5
A85F
  8
0
 10
3073.7116235383978164
 20
202.3494491551288093
 30
0.0
 40
2.6000000000000001
 50
180.4945784390114909
 51
270.0
  0
LINE
  5
A860
  8
0
 10
3088.1775810208519033
 20
202.3195932056904951
 30
0.0
 11
3088.5178585263311106
 21
234.5517340845713079
 31
0.0
  0
LINE
  5
A861
  8
0
 10
3087.9089217778468992
 20
202.6008178632824865
 30
0.0
 11
3088.2427732353539795
 21
234.5066409652590949
 31
0.0
  0
ARC
  5
A862
  8
0
 10
3085.417734811866012
 20
202.3487291413711944
 30
0.0
 40
2.7599999999999989
 50
270.0
 51
359.3951459587573822
  0
ARC
  5
A863
  8
0
 10
3085.1490728589251376
 20
202.6296959643468938
 30
0.0
 40
2.7599999999999989
 50
270.0
 51
359.4004987309608055
  0
ARC
  5
A864
  8
0
 10
3087.9775359091649989
 20
233.0517340845711942
 30
0.0
 40
0.25
 50
359.4004987309592138
 51
90.0
  0
LINE
  5
A865
  8
0
 10
3088.4976976785310399
 20
234.5517340845713079
 30
0.0
 11
3088.5070265161612042
 21
235.3048306734141022
 31
0.0
  0
ARC
  5
A866
  8
0
 10
3088.7570073377000881
 20
235.3017340845711942
 30
0.0
 40
0.25
 50
90.0
 51
179.2902959655386894
  0
LINE
  5
A867
  8
0
 10
3088.3448371000667976
 20
235.3248014487317903
 30
0.0
 11
3088.3654183818848651
 21
234.5461855136929046
 31
0.0
  0
LINE
  5
A868
  8
0
 10
3088.4287979313121468
 20
234.494362785316298
 30
0.0
 11
3088.4374956048900458
 21
234.165318787520107
 31
0.0
  0
LINE
  5
A869
  8
0
 10
3088.3289356195509754
 20
234.5252709817758046
 30
0.0
 11
3088.3995347076020153
 21
234.5235612741466014
 31
0.0
  0
LINE
  5
A86A
  8
0
 10
3088.3262280735780223
 20
234.7773503691290102
 30
0.0
 11
3088.3218078286317905
 21
235.3191391154618088
 31
0.0
  0
ARC
  5
A86B
  8
0
 10
3088.0118181453772195
 20
235.3166100294662044
 30
0.0
 40
0.31
 50
0.4674437454023697
 51
90.0
  0
ARC
  5
A86C
  8
0
 10
3088.0349453437220291
 20
235.3166100294662044
 30
0.0
 40
0.31
 50
1.514156083881864
 51
90.0
  0
ARC
  5
A86D
  8
0
 10
3088.0162383903239061
 20
234.7748212831334058
 30
0.0
 40
0.31
 50
270.0
 51
0.4674437454023697
  0
LINE
  5
A86E
  8
0
 10
3088.0806781916671753
 20
234.4715928016169073
 30
0.0
 11
3088.3289356195509754
 21
234.5252709817758046
 31
0.0
  0
ARC
  5
A86F
  8
0
 10
3088.3248200667931087
 20
234.547251042138214
 30
0.0
 40
0.0223620398900243
 50
280.6052793835444277
 51
359.022148665021291
  0
ARC
  5
A870
  8
0
 10
3087.3816845150290646
 20
234.5633488405883895
 30
0.0
 40
0.9656349633413392
 50
359.022148665021291
 51
12.0405148471848094
  0
ARC
  5
A871
  8
0
 10
3088.3988084065049406
 20
234.4935700673233043
 30
0.0
 40
0.03
 50
1.514156082867949
 51
88.6127315409509464
  0
ARC
  5
A872
  8
0
 10
3088.936881910331067
 20
234.177975124071196
 30
0.0
 40
0.4995466593999866
 50
181.4517808418767117
 51
211.5450354664731094
  0
ARC
  5
A873
  8
0
 10
3088.3450495327601857
 20
234.5451691619055055
 30
0.0
 40
0.02039418999733
 50
274.6127908481561803
 51
2.8565389940748558
  0
ARC
  5
A874
  8
0
 10
3089.2196237439547986
 20
235.2892955111682056
 30
0.0
 40
0.3374036260124149
 50
51.0612145594633589
 51
91.3168307751147665
  0
LINE
  5
A875
  8
0
 10
3088.2816871011718831
 20
232.9340400357640988
 30
0.0
 11
3088.0174799441169853
 21
202.3270061762000012
 31
0.0
  0
LINE
  5
A876
  8
0
 10
3088.4016714137178496
 20
233.0530042054431874
 30
0.0
 11
3088.5020364041120047
 21
233.0530135868712023
 31
0.0
  0
ARC
  5
A877
  8
0
 10
3088.4016826304909955
 20
232.9330042059673929
 30
0.0
 40
0.12
 50
90.0053556148479288
 51
179.5054215609868891
  0
ARC
  5
A878
  8
0
 10
3088.7164997235381634
 20
233.1685974334646971
 30
0.0
 40
0.254210580329087
 50
212.3817865238079037
 51
270.159704564983997
  0
ARC
  5
A879
  8
0
 10
3085.417576808864851
 20
202.3494491551288093
 30
0.0
 40
2.6000000000000001
 50
270.0
 51
359.5054215609886228
  0
LINE
  5
A87A
  8
0
 10
3088.7570073377000881
 20
235.5517340845711942
 30
0.0
 11
3096.5335840650691352
 21
235.5517340845711942
 31
0.0
  0
LINE
  5
A87B
  8
0
 10
3096.6663682346870701
 20
232.9143878406711963
 30
0.0
 11
3088.7170791025901053
 21
232.9143878406711963
 31
0.0
  0
LINE
  5
A87C
  8
0
 10
3090.5525309826311968
 20
233.4217340845713125
 30
0.0
 11
3090.5525309826311968
 21
234.4317340845711897
 31
0.0
  0
ARC
  5
A87D
  8
0
 10
3090.6725309826310877
 20
233.4217340845713125
 30
0.0
 40
0.12
 50
180.0
 51
270.0
  0
LINE
  5
A87E
  8
0
 10
3104.8145245268901817
 20
234.5517340845713079
 30
0.0
 11
3096.8142706756939333
 21
234.5517340845713079
 31
0.0
  0
LINE
  5
A87F
  8
0
 10
3096.8002701404661821
 20
234.5517340845713079
 30
0.0
 11
3088.4975684794308108
 21
234.5517340845713079
 31
0.0
  0
ARC
  5
A880
  8
0
 10
3090.6725309826310877
 20
234.4317340845711897
 30
0.0
 40
0.12
 50
90.0
 51
180.0
  0
LINE
  5
A881
  8
0
 10
3090.7122364779311283
 20
233.3617213904711889
 30
0.0
 11
3104.8090003328311468
 21
233.3617213904711889
 31
0.0
  0
LINE
  5
A882
  8
0
 10
3090.5922364779307827
 20
233.4817213904713071
 30
0.0
 11
3090.5922364779307827
 21
234.3717340845711874
 31
0.0
  0
ARC
  5
A883
  8
0
 10
3090.7122364779311283
 20
233.4817213904713071
 30
0.0
 40
0.12
 50
180.0
 51
270.0
  0
ARC
  5
A884
  8
0
 10
3090.7122364779311283
 20
234.3717340845711874
 30
0.0
 40
0.12
 50
90.0
 51
180.0000000000015916
  0
LINE
  5
A885
  8
0
 10
3090.7122364779311283
 20
234.4917340845713056
 30
0.0
 11
3104.8090003328311468
 21
234.4917340845713056
 31
0.0
  0
LINE
  5
A886
  8
0
 10
3104.8140225177698994
 20
234.5043917999429937
 30
0.0
 11
3104.6273464021901418
 21
234.5043917999429937
 31
0.0
  0
LINE
  5
A887
  8
0
 10
3104.6273464021901418
 20
234.5043917999429937
 30
0.0
 11
3104.6248111916820562
 21
234.5517340845713079
 31
0.0
  0
LINE
  5
A888
  8
0
 10
3104.4990003328312014
 20
234.4917340845713056
 30
0.0
 11
3104.4990003328312014
 21
234.5517340845713079
 31
0.0
  0
LINE
  5
A889
  8
0
 10
3096.8023653866312088
 20
234.4917340845713056
 30
0.0
 11
3096.7734378635541361
 21
235.3201099637645939
 31
0.0
  0
LINE
  5
A88A
  8
0
 10
3096.8142706756939333
 20
234.5517340845713079
 30
0.0
 11
3096.8422525251198749
 21
235.3508524620096978
 31
0.0
  0
ARC
  5
A88B
  8
0
 10
3096.5335840650691352
 20
235.3117340845712988
 30
0.0
 40
0.24
 50
1.9999999963506589
 51
90.0
  0
LINE
  5
A88C
  8
0
 10
3097.0601190015468092
 20
235.5612236711938863
 30
0.0
 11
3104.5692264090121171
 21
235.5612236711938863
 31
0.0
  0
ARC
  5
A88D
  8
0
 10
3097.0601190015468092
 20
235.343223671193897
 30
0.0
 40
0.218
 50
90.0
 51
177.9945560633335901
  0
LINE
  5
A88E
  8
0
 10
3096.9221264300440453
 20
235.5119899302920032
 30
0.0
 11
3096.6661494784248134
 21
235.511800101630314
 31
0.0
  0
ARC
  5
A88F
  8
0
 10
3096.9278896197502036
 20
234.9119226896432906
 30
0.0
 40
0.1436931246736333
 50
132.6226659130607004
 51
169.1817993981740074
  0
LINE
  5
A890
  8
0
 10
3096.8251735661629027
 20
235.0124071482131001
 30
0.0
 11
3096.7841830826291698
 21
235.0124071482131001
 31
0.0
  0
ARC
  5
A891
  8
0
 10
3104.5692264090121171
 20
235.343223671193897
 30
0.0
 40
0.218
 50
1.9964089733541059
 51
90.0
  0
LINE
  5
A892
  8
0
 10
3096.9102000144312115
 20
232.7117340845711908
 30
0.0
 11
3104.8090003328311468
 21
232.7117340845711908
 31
0.0
  0
LINE
  5
A893
  8
0
 10
3096.9102000144312115
 20
193.677734084571199
 30
0.0
 11
3096.9102000144312115
 21
232.7117340845711908
 31
0.0
  0
LINE
  5
A894
  8
0
 10
3104.8090003328311468
 20
232.835763142471194
 30
0.0
 11
3096.9007503858688324
 21
232.835763142471194
 31
0.0
  0
LINE
  5
A895
  8
0
 10
3096.7969138354310417
 20
232.7276058349980872
 30
0.0
 11
3096.7969138354310417
 21
193.677734084571199
 31
0.0
  0
ARC
  5
A896
  8
0
 10
3096.9501346220040432
 20
232.6844288933858991
 30
0.0
 40
0.1591881205519994
 50
108.0728289587884063
 51
164.2623978630666954
  0
ARC
  5
A897
  8
0
 10
3096.6617486430059216
 20
232.511954908781405
 30
0.0
 40
0.4024594455305403
 50
53.5690929106105571
 51
89.3423215137932374
  0
ENDSEC
  0
EOF
