  0
SECTION
  2
HEADER
  9
$ACADVER
  1
AC1018
  9
$ACADMAINTVER
 70
    76
  9
$DWGCODEPAGE
  3
ANSI_936
  9
$INSBASE
 10
0.0
 20
0.0
 30
0.0
  9
$EXTMIN
 10
-13.4041141553
 20
-8.5919014135
 30
0.0
  9
$EXTMAX
 10
16.5263032464
 20
19.60998596849998
 30
0.0
  9
$LIMMIN
 10
0.0
 20
0.0
  9
$LIMMAX
 10
34.0
 20
22.0
  9
$ORTHOMODE
 70
     0
  9
$REGENMODE
 70
     1
  9
$FILLMODE
 70
     1
  9
$QTEXTMODE
 70
     0
  9
$MIRRTEXT
 70
     1
  9
$LTSCALE
 40
1.87
  9
$ATTMODE
 70
     1
  9
$TEXTSIZE
 40
0.2
  9
$TRACEWID
 40
0.05
  9
$TEXTSTYLE
  7
STANDARD
  9
$CLAYER
  8
0
  9
$CELTYPE
  6
ByLayer
  9
$CECOLOR
 62
   256
  9
$CELTSCALE
 40
1.0
  9
$DISPSILH
 70
     0
  9
$DIMSCALE
 40
1.0
  9
$DIMASZ
 40
0.1875
  9
$DIMEXO
 40
0.2125
  9
$DIMDLI
 40
1.292
  9
$DIMRND
 40
0.0
  9
$DIMDLE
 40
0.0
  9
$DIMEXE
 40
0.612
  9
$DIMTP
 40
0.01
  9
$DIMTM
 40
0.01
  9
$DIMTXT
 40
0.15625
  9
$DIMCEN
 40
0.306
  9
$DIMTSZ
 40
0.0
  9
$DIMTOL
 70
     1
  9
$DIMLIM
 70
     0
  9
$DIMTIH
 70
     1
  9
$DIMTOH
 70
     1
  9
$DIMSE1
 70
     0
  9
$DIMSE2
 70
     0
  9
$DIMTAD
 70
     0
  9
$DIMZIN
 70
     0
  9
$DIMBLK
  1
_FILLED
  9
$DIMASO
 70
     1
  9
$DIMSHO
 70
     1
  9
$DIMPOST
  1

  9
$DIMAPOST
  1

  9
$DIMALT
 70
     0
  9
$DIMALTD
 70
     2
  9
$DIMALTF
 40
25.4
  9
$DIMLFAC
 40
1.0
  9
$DIMTOFL
 70
     0
  9
$DIMTVP
 40
0.0
  9
$DIMTIX
 70
     0
  9
$DIMSOXD
 70
     0
  9
$DIMSAH
 70
     0
  9
$DIMBLK1
  1

  9
$DIMBLK2
  1

  9
$DIMSTYLE
  2
STANDARD
  9
$DIMCLRD
 70
     0
  9
$DIMCLRE
 70
     0
  9
$DIMCLRT
 70
     0
  9
$DIMTFAC
 40
1.0
  9
$DIMGAP
 40
0.09
  9
$DIMJUST
 70
     0
  9
$DIMSD1
 70
     0
  9
$DIMSD2
 70
     0
  9
$DIMTOLJ
 70
     1
  9
$DIMTZIN
 70
     0
  9
$DIMALTZ
 70
     0
  9
$DIMALTTZ
 70
     0
  9
$DIMUPT
 70
     0
  9
$DIMDEC
 70
     4
  9
$DIMTDEC
 70
     4
  9
$DIMALTU
 70
     2
  9
$DIMALTTD
 70
     2
  9
$DIMTXSTY
  7
STANDARD
  9
$DIMAUNIT
 70
     0
  9
$DIMADEC
 70
     0
  9
$DIMALTRND
 40
0.0
  9
$DIMAZIN
 70
     0
  9
$DIMDSEP
 70
     0
  9
$DIMATFIT
 70
     3
  9
$DIMFRAC
 70
     0
  9
$DIMLDRBLK
  1

  9
$DIMLUNIT
 70
     2
  9
$DIMLWD
 70
     0
  9
$DIMLWE
 70
     0
  9
$DIMTMOVE
 70
     0
  9
$LUNITS
 70
     2
  9
$LUPREC
 70
     4
  9
$SKETCHINC
 40
0.1
  9
$FILLETRAD
 40
0.0
  9
$AUNITS
 70
     0
  9
$AUPREC
 70
     0
  9
$MENU
  1
acad
  9
$ELEVATION
 40
0.0
  9
$PELEVATION
 40
0.0
  9
$THICKNESS
 40
0.0
  9
$LIMCHECK
 70
     0
  9
$CHAMFERA
 40
0.0
  9
$CHAMFERB
 40
0.0
  9
$CHAMFERC
 40
0.0
  9
$CHAMFERD
 40
0.0
  9
$SKPOLY
 70
     0
  9
$TDCREATE
 40
2454659.593092396
  9
$TDUCREATE
 40
2454659.259759063
  9
$TDUPDATE
 40
2454659.606847697
  9
$TDUUPDATE
 40
2454659.273514363
  9
$TDINDWG
 40
0.0089911574
  9
$TDUSRTIMER
 40
0.0089911574
  9
$USRTIMER
 70
     1
  9
$ANGBASE
 50
0.0
  9
$ANGDIR
 70
     0
  9
$PDMODE
 70
     3
  9
$PDSIZE
 40
0.3125
  9
$PLINEWID
 40
0.0
  9
$SPLFRAME
 70
     0
  9
$SPLINETYPE
 70
     6
  9
$SPLINESEGS
 70
     8
  9
$HANDSEED
  5
D2C
  9
$SURFTAB1
 70
     6
  9
$SURFTAB2
 70
     6
  9
$SURFTYPE
 70
     6
  9
$SURFU
 70
     6
  9
$SURFV
 70
     6
  9
$UCSBASE
  2

  9
$UCSNAME
  2

  9
$UCSORG
 10
0.0
 20
0.0
 30
0.0
  9
$UCSXDIR
 10
1.0
 20
0.0
 30
0.0
  9
$UCSYDIR
 10
0.0
 20
1.0
 30
0.0
  9
$UCSORTHOREF
  2

  9
$UCSORTHOVIEW
 70
     0
  9
$UCSORGTOP
 10
0.0
 20
0.0
 30
0.0
  9
$UCSORGBOTTOM
 10
0.0
 20
0.0
 30
0.0
  9
$UCSORGLEFT
 10
0.0
 20
0.0
 30
0.0
  9
$UCSORGRIGHT
 10
0.0
 20
0.0
 30
0.0
  9
$UCSORGFRONT
 10
0.0
 20
0.0
 30
0.0
  9
$UCSORGBACK
 10
0.0
 20
0.0
 30
0.0
  9
$PUCSBASE
  2

  9
$PUCSNAME
  2

  9
$PUCSORG
 10
0.0
 20
0.0
 30
0.0
  9
$PUCSXDIR
 10
1.0
 20
0.0
 30
0.0
  9
$PUCSYDIR
 10
0.0
 20
1.0
 30
0.0
  9
$PUCSORTHOREF
  2

  9
$PUCSORTHOVIEW
 70
     0
  9
$PUCSORGTOP
 10
0.0
 20
0.0
 30
0.0
  9
$PUCSORGBOTTOM
 10
0.0
 20
0.0
 30
0.0
  9
$PUCSORGLEFT
 10
0.0
 20
0.0
 30
0.0
  9
$PUCSORGRIGHT
 10
0.0
 20
0.0
 30
0.0
  9
$PUCSORGFRONT
 10
0.0
 20
0.0
 30
0.0
  9
$PUCSORGBACK
 10
0.0
 20
0.0
 30
0.0
  9
$USERI1
 70
     0
  9
$USERI2
 70
     0
  9
$USERI3
 70
     0
  9
$USERI4
 70
     0
  9
$USERI5
 70
     0
  9
$USERR1
 40
0.0
  9
$USERR2
 40
0.0
  9
$USERR3
 40
0.0
  9
$USERR4
 40
0.0
  9
$USERR5
 40
0.0
  9
$WORLDVIEW
 70
     1
  9
$SHADEDGE
 70
     3
  9
$SHADEDIF
 70
    70
  9
$TILEMODE
 70
     1
  9
$MAXACTVP
 70
    16
  9
$PINSBASE
 10
0.0
 20
0.0
 30
0.0
  9
$PLIMCHECK
 70
     0
  9
$PEXTMIN
 10
1.000000000000000E+20
 20
1.000000000000000E+20
 30
1.000000000000000E+20
  9
$PEXTMAX
 10
-1.000000000000000E+20
 20
-1.000000000000000E+20
 30
-1.000000000000000E+20
  9
$PLIMMIN
 10
0.0
 20
0.0
  9
$PLIMMAX
 10
12.0
 20
9.0
  9
$UNITMODE
 70
     0
  9
$VISRETAIN
 70
     0
  9
$PLINEGEN
 70
     1
  9
$PSLTSCALE
 70
     0
  9
$TREEDEPTH
 70
  3020
  9
$CMLSTYLE
  2
Standard
  9
$CMLJUST
 70
     0
  9
$CMLSCALE
 40
1.0
  9
$PROXYGRAPHICS
 70
     0
  9
$MEASUREMENT
 70
     0
  9
$CELWEIGHT
370
     0
  9
$ENDCAPS
280
     0
  9
$JOINSTYLE
280
     0
  9
$LWDISPLAY
290
     0
  9
$INSUNITS
 70
     1
  9
$HYPERLINKBASE
  1

  9
$STYLESHEET
  1

  9
$XEDIT
290
     1
  9
$CEPSNTYPE
380
     0
  9
$PSTYLEMODE
290
     1
  9
$FINGERPRINTGUID
  2

  9
$VERSIONGUID
  2
{BD0D232F-0C4B-4A8F-9F04-186DAF386947}
  9
$EXTNAMES
290
     1
  9
$PSVPSCALE
 40
0.0
  9
$OLESTARTUP
290
     0
  9
$SORTENTS
280
   127
  9
$INDEXCTL
280
     0
  9
$HIDETEXT
280
     0
  9
$XCLIPFRAME
290
     0
  9
$HALOGAP
280
     0
  9
$OBSCOLOR
 70
   257
  9
$OBSLTYPE
280
     0
  9
$INTERSECTIONDISPLAY
280
     0
  9
$INTERSECTIONCOLOR
 70
   257
  9
$DIMASSOC
280
     1
  9
$PROJECTNAME
  1

  0
ENDSEC
  0
SECTION
  2
CLASSES
  0
CLASS
  1
ACDBDICTIONARYWDFLT
  2
AcDbDictionaryWithDefault
  3
ObjectDBX Classes
 90
        0
 91
        1
280
     0
281
     0
  0
CLASS
  1
IMAGE
  2
AcDbRasterImage
  3
ISM
 90
      127
 91
        0
280
     0
281
     1
  0
CLASS
  1
DICTIONARYVAR
  2
AcDbDictionaryVar
  3
ObjectDBX Classes
 90
        0
 91
        1
280
     0
281
     0
  0
CLASS
  1
RASTERVARIABLES
  2
AcDbRasterVariables
  3
ISM
 90
        0
 91
        0
280
     0
281
     0
  0
CLASS
  1
IMAGEDEF
  2
AcDbRasterImageDef
  3
ISM
 90
        0
 91
        0
280
     0
281
     0
  0
CLASS
  1
IMAGEDEF_REACTOR
  2
AcDbRasterImageDefReactor
  3
ISM
 90
        1
 91
        0
280
     0
281
     0
  0
CLASS
  1
IDBUFFER
  2
AcDbIdBuffer
  3
ObjectDBX Classes
 90
        0
 91
        0
280
     0
281
     0
  0
CLASS
  1
SPATIAL_FILTER
  2
AcDbSpatialFilter
  3
ObjectDBX Classes
 90
        0
 91
        0
280
     0
281
     0
  0
CLASS
  1
SORTENTSTABLE
  2
AcDbSortentsTable
  3
ObjectDBX Classes
 90
        0
 91
        0
280
     0
281
     0
  0
CLASS
  1
LAYER_INDEX
  2
AcDbLayerIndex
  3
ObjectDBX Classes
 90
        0
 91
        0
280
     0
281
     0
  0
CLASS
  1
SPATIAL_INDEX
  2
AcDbSpatialIndex
  3
ObjectDBX Classes
 90
        0
 91
        0
280
     0
281
     0
  0
CLASS
  1
OBJECT_PTR
  2
CAseDLPNTableRecord
  3
ASE-LPNTableRecord
 90
        1
 91
        0
280
     0
281
     0
  0
CLASS
  1
PLOTSETTINGS
  2
AcDbPlotSettings
  3
ObjectDBX Classes
 90
        0
 91
        0
280
     0
281
     0
  0
CLASS
  1
WIPEOUT
  2
AcDbWipeout
  3
"WipeOut|Product Desc: Object Enabler for WipeOut entity^I^I^I^I^I^I|Company: Autodesk, Inc.^I^I^I^I^I^I|WEB Address: www.autodesk.com"
 90
      127
 91
        0
280
     0
281
     1
  0
CLASS
  1
WIPEOUTVARIABLES
  2
AcDbWipeoutVariables
  3
"WipeOut|Product Desc:     WipeOut Dbx Application|Company:          Autodesk, Inc.|WEB Address:      www.autodesk.com"
 90
        0
 91
        0
280
     0
281
     0
  0
CLASS
  1
RTEXT
  2
RText
  3
RText|AutoCAD Express Tool|expresstools@autodesk.com
 90
     1023
 91
        0
280
     0
281
     1
  0
CLASS
  1
ARCALIGNEDTEXT
  2
AcDbArcAlignedText
  3
ATEXT|AutoCAD Express Tool|expresstools@autodesk.com
 90
        0
 91
        0
280
     0
281
     1
  0
CLASS
  1
TABLESTYLE
  2
AcDbTableStyle
  3
ObjectDBX Classes
 90
     2047
 91
        1
280
     0
281
     0
  0
CLASS
  1
ACME_DOCUMENT
  2
AcMeDbDoc
  3
AcMeServices
 90
        0
 91
        2
280
     0
281
     0
  0
CLASS
  1
AMGSETTINGSOBJ
  2
AmgSettingsObj
  3
"AcadM|Product Description: AutoCAD Mechanical 2000|Company: Autodesk"
 90
        0
 91
        2
280
     0
281
     0
  0
CLASS
  1
ACMESCOPE
  2
AcMeScope
  3
AcMeServices
 90
        0
 91
        1
280
     0
281
     0
  0
CLASS
  1
ACMECOMMANDHISTORY
  2
AcMeCommandHistory
  3
AcMeServices
 90
        0
 91
        1
280
     0
281
     0
  0
CLASS
  1
ACIMSYSVARMAN
  2
AcImSysVarManager
  3
AcMeServices
 90
        0
 91
        5
280
     0
281
     0
  0
CLASS
  1
ACIMINTSYSVAR
  2
AcImIntSysVar
  3
AcMeServices
 90
        0
 91
       26
280
     0
281
     0
  0
CLASS
  1
ACMEDRAWINGMAN
  2
AcMeDrawingMan
  3
AcMeServices
 90
        0
 91
        1
280
     0
281
     0
  0
CLASS
  1
ACMEVIEW
  2
AcMeView
  3
AcMeServices
 90
        0
 91
        1
280
     0
281
     0
  0
CLASS
  1
ACDBENTITYCACHE
  2
AcMeEntityCache
  3
AcMeServices
 90
        0
 91
        1
280
     0
281
     0
  0
CLASS
  1
GSMANAGER
  2
AcMeGSManager
  3
AcMeServices
 90
        0
 91
        1
280
     0
281
     0
  0
CLASS
  1
AMDTINTERNALREACTOR
  2
AmdtInternalReactor
  3
AcMeServices
 90
        0
 91
        2
280
     0
281
     0
  0
CLASS
  1
ACMESTATEMGR
  2
AcMeStateMgr
  3
AcMeServices
 90
        0
 91
        1
280
     0
281
     0
  0
CLASS
  1
ACGREFMASTER
  2
AcGrefMaster
  3
AcAttribServices
 90
        0
 91
        1
280
     0
281
     0
  0
CLASS
  1
AM_DRAWING_MGR
  2
AcDmDwgMgr
  3
AcMechDwgViewMgmt
 90
        0
 91
        1
280
     0
281
     0
  0
CLASS
  1
AM_DWG_DOCUMENT
  2
AcDmDwgDocument
  3
AcMechDwgViewMgmt
 90
        0
 91
        1
280
     0
281
     0
  0
CLASS
  1
AM_DWG_SHEET
  2
AcDmSheet
  3
AcMechDwgViewMgmt
 90
        0
 91
        2
280
     0
281
     0
  0
CLASS
  1
AM_VIEWDIMPARMAP
  2
AcDmViewDimParMap
  3
AcMechDwgViewMgmt
 90
        0
 91
        2
280
     0
281
     0
  0
CLASS
  1
ACIMREALSYSVAR
  2
AcImRealSysVar
  3
AcMeServices
 90
        0
 91
        1
280
     0
281
     0
  0
CLASS
  1
AM_DWGMGR_NAME
  2
AcDmDwgMgrName
  3
AcMechDwgViewMgmt
 90
        0
 91
        1
280
     0
281
     0
  0
CLASS
  1
ACME_DATABASE
  2
AcMeDbDatabase
  3
AcMeServices
 90
        0
 91
        1
280
     0
281
     0
  0
CLASS
  1
ACRFINSADJUSTERMGR
  2
AcRfInsAdjusterMgr
  3
AcMeServices
 90
        0
 91
        1
280
     0
281
     0
  0
CLASS
  1
ACGREFACADMASTER
  2
AcGrefacadMaster
  3
AcGrefServices
 90
        0
 91
        1
280
     0
281
     0
  0
CLASS
  1
AMDTMENUSTATEMGR
  2
AmdtMenuStateMgr
  3
McadcomServices
 90
        0
 91
        1
280
     0
281
     0
  0
CLASS
  1
AMDTMCOMMENUSTATE
  2
AmdtMcomMenuState
  3
McadcomServices
 90
        0
 91
        1
280
     0
281
     0
  0
CLASS
  1
AMIMASTER
  2
AmiMaster
  3
AmiServices
 90
        0
 91
        1
280
     0
281
     0
  0
CLASS
  1
MAPIAMMOUDLE
  2
MApiAmModule
  3
MApiAmServices
 90
        0
 91
        1
280
     0
281
     0
  0
CLASS
  1
ACIMSTRSYSVAR
  2
AcImStrSysVar
  3
AcMeServices
 90
        0
 91
        5
280
     0
281
     0
  0
CLASS
  1
AMDTADMENUSTATE
  2
AmdtAdMenuState
  3
DesignerServices
 90
        0
 91
        1
280
     0
281
     0
  0
CLASS
  1
ADAPPL
  2
AcAdAppl
  3
DesignerServices
 90
        0
 91
        1
280
     0
281
     0
  0
CLASS
  1
DEPMGR
  2
AcAdDepMgr
  3
DesignerServices
 90
        0
 91
        1
280
     0
281
     0
  0
CLASS
  1
PARAMMGR
  2
AcAdParamMgr
  3
DesignerServices
 90
        0
 91
        1
280
     0
281
     0
  0
CLASS
  1
PARAMSCOPE
  2
AcAdParamScope
  3
DesignerServices
 90
        0
 91
        1
280
     0
281
     0
  0
CLASS
  1
NAMEDAPPL
  2
AcAdNamedAppl
  3
DesignerServices
 90
        0
 91
        1
280
     0
281
     0
  0
CLASS
  1
AMDTDMMENUSTATE
  2
AmdtDmMenuState
  3
AcMechDwgViewMgmt
 90
        0
 91
        1
280
     0
281
     0
  0
CLASS
  1
AMDTAMMENUSTATE
  2
AmdtAmMenuState
  3
DesignerAssemblies
 90
        0
 91
        1
280
     0
281
     0
  0
CLASS
  1
ACAMPROJECT
  2
AcAmProject
  3
DesignerAssemblies
 90
        0
 91
        1
280
     0
281
     0
  0
CLASS
  1
ACAMGRCOMPDEF
  2
AcAmGrCompDef
  3
DesignerAssemblies
 90
        0
 91
        1
280
     0
281
     0
  0
CLASS
  1
ACCMCONTEXT
  2
AcCmContext
  3
DesignerAssemblies
 90
        0
 91
        1
280
     0
281
     0
  0
CLASS
  1
ACAMCOMPDEF
  2
AcAmCompDef
  3
DesignerAssemblies
 90
        0
 91
        1
280
     0
281
     0
  0
CLASS
  1
ACAMCOMPDEFMGR
  2
AcAmCompDefMgr
  3
DesignerAssemblies
 90
        0
 91
        1
280
     0
281
     0
  0
CLASS
  1
AMCONTEXTMGR
  2
AcAmContextMgr
  3
DesignerAssemblies
 90
        0
 91
        1
280
     0
281
     0
  0
CLASS
  1
ACAMCONTEXTMODELER
  2
AcAmContextModeler
  3
DesignerAssemblies
 90
        0
 91
        1
280
     0
281
     0
  0
CLASS
  1
ACMDATADICTIONARY
  2
AcmDataDictionary
  3
"AcmSymBB|Product Description: AutoCAD Mechanical 2004 DX|Company: Autodesk"
 90
        0
 91
        1
280
     0
281
     0
  0
CLASS
  1
CATALOGSTATE
  2
AcAmCatalogState
  3
DesignerAssemblies
 90
        0
 91
        1
280
     0
281
     0
  0
CLASS
  1
ACAMGRCOMPDEFSET
  2
AcAmGrCompDefSet
  3
DesignerAssemblies
 90
        0
 91
        1
280
     0
281
     0
  0
CLASS
  1
AMDTBROWSERDBTAB
  2
AmdtBrowserDbTab
  3
McadcomServices
 90
        0
 91
        1
280
     0
281
     0
  0
CLASS
  1
CBROWSERAPPOBJECT
  2
CBrowserAppObject
  3
McadcomServices
 90
        0
 91
        3
280
     0
281
     0
  0
CLASS
  1
DM_PLACEHOLDER
  2
AcDmSelsetPlaceholder
  3
AcMechDwgViewMgmt
 90
        0
 91
        1
280
     0
281
     0
  0
CLASS
  1
ACMSTANDARDANSI
  2
AcmStandardANSI
  3
"Amdt_StdImp|Product Description: AutoCAD Mechanical 2004 DX|Company: Autodesk"
 90
        0
 91
        1
280
     0
281
     0
  0
CLASS
  1
AMGOBJPROPCFG
  2
AmgObjPropCfg
  3
"AmgLay|Product Description: AutoCAD Mechanical 2000|Company: Autodesk"
 90
        1
 91
        1
280
     0
281
     0
  0
CLASS
  1
ACMSURFSTANDARDANSI
  2
AcmSurfTextStdANSI
  3
"Amdt_StdImp|Product Description: AutoCAD Mechanical 2004 DX|Company: Autodesk"
 90
        0
 91
        1
280
     0
281
     0
  0
CLASS
  1
ACMFCFSTANDARDANSI
  2
AcmFCFStdANSI
  3
"Amdt_StdImp|Product Description: AutoCAD Mechanical 2004 DX|Company: Autodesk"
 90
        0
 91
        1
280
     0
281
     0
  0
CLASS
  1
ACMWELDSTANDARDANSI
  2
AcmWeldingStdANSI
  3
"Amdt_StdImp|Product Description: AutoCAD Mechanical 2004 DX|Company: Autodesk"
 90
        0
 91
        1
280
     0
281
     0
  0
CLASS
  1
ACMIDSTANDARDANSI
  2
AcmIdStdANSI
  3
"Amdt_StdImp|Product Description: AutoCAD Mechanical 2004 DX|Company: Autodesk"
 90
        0
 91
        1
280
     0
281
     0
  0
CLASS
  1
ACMDATUMSTANDARDANSI
  2
AcmDatumStdANSI
  3
"Amdt_StdImp|Product Description: AutoCAD Mechanical 2004 DX|Company: Autodesk"
 90
        0
 91
        1
280
     0
281
     0
  0
CLASS
  1
ACMBOMSTANDARDANSI
  2
AcmBOMStdANSI
  3
"Amdt_StdImp|Product Description: AutoCAD Mechanical 2004 DX|Company: Autodesk"
 90
        0
 91
        1
280
     0
281
     0
  0
CLASS
  1
ACMDETAILSTANDARDANSI
  2
AmdtDetailSymStdANSI
  3
"Amdt_StdImp|Product Description: AutoCAD Mechanical 2004 DX|Company: Autodesk"
 90
        0
 91
        1
280
     0
281
     0
  0
CLASS
  1
ACMSECTIONSTANDARDANSI
  2
AmdtSectionSymStdANSI
  3
"Amdt_StdImp|Product Description: AutoCAD Mechanical 2004 DX|Company: Autodesk"
 90
        0
 91
        1
280
     0
281
     0
  0
CLASS
  1
ACMCENTERLINESTANDARDANSI
  2
AmdtCenterLineStdANSI
  3
"Amdt_StdImp|Product Description: AutoCAD Mechanical 2004 DX|Company: Autodesk"
 90
        0
 91
        1
280
     0
281
     0
  0
CLASS
  1
ACMTHREADLINESTANDARDANSI
  2
AmdtThreadLineStdANSI
  3
"Amdt_StdImp|Product Description: AutoCAD Mechanical 2004 DX|Company: Autodesk"
 90
        0
 91
        1
280
     0
281
     0
  0
CLASS
  1
ACMNOTESTANDARDANSI
  2
AmdtNoteStdANSI
  3
"Amdt_StdImp|Product Description: AutoCAD Mechanical 2004 DX|Company: Autodesk"
 90
        0
 91
        1
280
     0
281
     0
  0
CLASS
  1
AMDTNOTETEMPLATEDB
  2
AmdtNoteTemplateDB
  3
AMDT_STDIMP_MODULE_NAME
 90
        0
 91
        6
280
     0
281
     0
  0
CLASS
  1
ACAMGLAYSTD
  2
AcAmgLayStd
  3
"AcAmgLayStd|Product Description: AutoCAD Mechanical 2000|Company: Autodesk"
 90
        0
 91
        1
280
     0
281
     0
  0
CLASS
  1
ACAMGDIMSTD
  2
AcAmgDimStd
  3
"AcAmgDimStd|Product Description: AutoCAD Mechanical 2000|Company: Autodesk"
 90
        0
 91
        1
280
     0
281
     0
  0
CLASS
  1
ACAMGHOLECHARTSTDANSI
  2
AcAmgHoleChartStdANSI
  3
ACMSYMBB_MODULE_NAME
 90
        0
 91
        1
280
     0
281
     0
  0
CLASS
  1
ACAMGTITLESTD
  2
AcAmgTitleStd
  3
"TITLEAPP"
 90
        0
 91
        1
280
     0
281
     0
  0
CLASS
  1
ACAMGFILTERDAT
  2
AcAmgFilterDat
  3
"AcadM|Product Description: AutoCAD Mechanical 2000|Company: Autodesk"
 90
        0
 91
        6
280
     0
281
     0
  0
ENDSEC
  0
SECTION
  2
TABLES
  0
TABLE
  2
VPORT
  5
8
330
0
100
AcDbSymbolTable
 70
     4
  0
VPORT
  5
D2B
330
8
100
AcDbSymbolTableRecord
100
AcDbViewportTableRecord
  2
*Active
 70
     0
 10
0.0
 20
0.0
 11
1.0
 21
1.0
 12
11.44453058584042
 22
12.63765439040055
 13
0.0
 23
0.0
 14
1.0
 24
1.0
 15
0.0
 25
0.0
 16
0.0
 26
0.0
 36
1.0
 17
0.0
 27
0.0
 37
0.0
 40
28.52912194407577
 41
1.504492939666238
 42
50.0
 43
0.0
 44
0.0
 50
0.0
 51
0.0
 71
     0
 72
   100
 73
     1
 74
     1
 75
     0
 76
     0
 77
     0
 78
     0
281
     0
 65
     0
110
0.0
120
0.0
130
0.0
111
1.0
121
0.0
131
0.0
112
0.0
122
1.0
132
0.0
 79
     0
146
0.0
  0
ENDTAB
  0
TABLE
  2
LTYPE
  5
5
330
0
100
AcDbSymbolTable
 70
    20
  0
LTYPE
  5
14
330
5
100
AcDbSymbolTableRecord
100
AcDbLinetypeTableRecord
  2
ByBlock
 70
     0
  3

 72
    65
 73
     0
 40
0.0
  0
LTYPE
  5
15
330
5
100
AcDbSymbolTableRecord
100
AcDbLinetypeTableRecord
  2
ByLayer
 70
     0
  3

 72
    65
 73
     0
 40
0.0
  0
LTYPE
  5
16
330
5
100
AcDbSymbolTableRecord
100
AcDbLinetypeTableRecord
  2
CONTINUOUS
 70
     0
  3
Solid line
 72
    65
 73
     0
 40
0.0
  0
LTYPE
  5
1F5
330
5
100
AcDbSymbolTableRecord
100
AcDbLinetypeTableRecord
  2
CENTER
 70
     0
  3
____ _ ____ _ ____ _ ____ _ ____ _ ____ _ ____
 72
    65
 73
     4
 40
0.6
 49
0.375
 74
     0
 49
-0.075
 74
     0
 49
0.075
 74
     0
 49
-0.075
 74
     0
  0
LTYPE
  5
1F6
330
5
100
AcDbSymbolTableRecord
100
AcDbLinetypeTableRecord
  2
HIDDEN
 70
     0
  3
- - - - - - - - - - - - - - - - - - - -
 72
    65
 73
     2
 40
0.2
 49
0.1
 74
     0
 49
-0.1
 74
     0
  0
LTYPE
  5
1F7
330
5
100
AcDbSymbolTableRecord
100
AcDbLinetypeTableRecord
  2
PHANTOM
 70
     0
  3
_____ _ _ _____ _ _ _____ _ _ _____
 72
    65
 73
     6
 40
0.8
 49
0.45
 74
     0
 49
-0.05
 74
     0
 49
0.1
 74
     0
 49
-0.05
 74
     0
 49
0.1
 74
     0
 49
-0.05
 74
     0
  0
LTYPE
  5
1F8
330
5
100
AcDbSymbolTableRecord
100
AcDbLinetypeTableRecord
  2
DOT
 70
     0
  3
. . . . . . . . . . . . . . . . . . . .
 72
    65
 73
     2
 40
0.2
 49
0.1
 74
     0
 49
-0.1
 74
     0
  0
LTYPE
  5
1F9
330
5
100
AcDbSymbolTableRecord
100
AcDbLinetypeTableRecord
  2
DASHED
 70
     0
  3
- - - - - - - - - - - - - - - - - - - -
 72
    65
 73
     2
 40
0.2
 49
0.1
 74
     0
 49
-0.1
 74
     0
  0
LTYPE
  5
C74
330
5
100
AcDbSymbolTableRecord
100
AcDbLinetypeTableRecord
  2
PHANTOM2
 70
     0
  3
Phantom (.5x) ___ _ _ ___ _ _ ___ _ _ ___ _ _
 72
    65
 73
     6
 40
1.25
 49
0.625
 74
     0
 49
-0.125
 74
     0
 49
0.125
 74
     0
 49
-0.125
 74
     0
 49
0.125
 74
     0
 49
-0.125
 74
     0
  0
LTYPE
  5
CA8
330
5
100
AcDbSymbolTableRecord
100
AcDbLinetypeTableRecord
  2
AM_ISO02W050
 70
     0
  3
__ __ __ __ __ __ __ __ __ __ __ __ __ __ __
 72
    65
 73
     2
 40
7.5
 49
6.0
 74
     0
 49
-1.5
 74
     0
  0
LTYPE
  5
CA9
330
5
100
AcDbSymbolTableRecord
100
AcDbLinetypeTableRecord
  2
AM_ISO08W050
 70
     0
  3
____ . ____ . ____ . ____ . ____ . ____ . ____
 72
    65
 73
     4
 40
18.0
 49
12.0
 74
     0
 49
-1.5
 74
     0
 49
3.0
 74
     0
 49
-1.5
 74
     0
  0
LTYPE
  5
CAA
330
5
100
AcDbSymbolTableRecord
100
AcDbLinetypeTableRecord
  2
AM_ISO09W050
 70
     0
  3
_____ . . _____ . . _____ . . ____ .. ____
 72
    65
 73
     6
 40
22.5
 49
12.0
 74
     0
 49
-1.5
 74
     0
 49
3.0
 74
     0
 49
-1.5
 74
     0
 49
3.0
 74
     0
 49
-1.5
 74
     0
  0
LTYPE
  5
CAB
330
5
100
AcDbSymbolTableRecord
100
AcDbLinetypeTableRecord
  2
Amconstr
 70
     0
  3
_______________________
 72
    65
 73
     2
 40
9999.0
 49
9999.0
 74
     0
 49
0.0
 74
     0
  0
LTYPE
  5
CAC
330
5
100
AcDbSymbolTableRecord
100
AcDbLinetypeTableRecord
  2
AM_ISO08W050x2
 70
     0
  3
__ . __ . __ . __ . __ . __
 72
    65
 73
     4
 40
9.0
 49
6.0
 74
     0
 49
-0.75
 74
     0
 49
1.5
 74
     0
 49
-0.75
 74
     0
  0
LTYPE
  5
CAD
330
5
100
AcDbSymbolTableRecord
100
AcDbLinetypeTableRecord
  2
AM_ISO02W050x2
 70
     0
  3
 _ _ _ _ _ _ _ _ _ _ _ _
 72
    65
 73
     2
 40
3.75
 49
3.0
 74
     0
 49
-0.75
 74
     0
  0
LTYPE
  5
CB0
330
5
100
AcDbSymbolTableRecord
100
AcDbLinetypeTableRecord
  2
Amzigzag
 70
     0
  3
/\/-/\/-/\/-/\/-/\/-/\/
 72
    65
 73
     2
 40
11.0001
 49
0.0001
 74
     4
 75
   136
340
CAF
 46
0.04
 50
0.0
 44
0.0
 45
0.0
 49
-11.0
 74
     0
  0
LTYPE
  5
CB1
330
5
100
AcDbSymbolTableRecord
100
AcDbLinetypeTableRecord
  2
CENTER2
 70
     0
  3
Center (.5x) ___ _ ___ _ ___ _ ___ _ ___ _ ___
 72
    65
 73
     4
 40
1.125
 49
0.75
 74
     0
 49
-0.125
 74
     0
 49
0.125
 74
     0
 49
-0.125
 74
     0
  0
LTYPE
  5
CB2
330
5
100
AcDbSymbolTableRecord
100
AcDbLinetypeTableRecord
  2
HIDDEN2
 70
     0
  3
Hidden (.5x) _ _ _ _ _ _ _ _ _ _ _ _ _ _ _ _ _
 72
    65
 73
     2
 40
0.1875
 49
0.125
 74
     0
 49
-0.0625
 74
     0
  0
LTYPE
  5
CB3
330
5
100
AcDbSymbolTableRecord
100
AcDbLinetypeTableRecord
  2
Amzigzag2
 70
     0
  3
/\/-/\/-/\/-/\/-/\/-/\/
 72
    65
 73
     2
 40
0.4401
 49
0.0001
 74
     4
 75
   136
340
CAF
 46
0.0016
 50
0.0
 44
0.0
 45
0.0
 49
-0.4400000000000001
 74
     0
  0
LTYPE
  5
CC1
330
5
100
AcDbSymbolTableRecord
100
AcDbLinetypeTableRecord
  2
ACANSTGB
 70
     0
  3
__ . . __ . .
 72
    65
 73
     6
 40
0.35433070866
 49
0.15748031496
 74
     0
 49
-0.03937007874
 74
     0
 49
0.03937007874
 74
     0
 49
-0.03937007874
 74
     0
 49
0.03937007874
 74
     0
 49
-0.03937007874
 74
     0
  0
LTYPE
  5
CC2
330
5
100
AcDbSymbolTableRecord
100
AcDbLinetypeTableRecord
  2
ACANSTGL
 70
     0
  3
_ _ _ _ _
 72
    65
 73
     2
 40
0.11811023622
 49
0.07874015748
 74
     0
 49
-0.03937007874
 74
     0
  0
ENDTAB
  0
TABLE
  2
LAYER
  5
2
330
0
100
AcDbSymbolTable
 70
    19
  0
LAYER
  5
10
330
2
100
AcDbSymbolTableRecord
100
AcDbLayerTableRecord
  2
0
 70
     0
 62
     7
  6
CONTINUOUS
370
    -3
390
F
  0
LAYER
  5
1FA
330
2
100
AcDbSymbolTableRecord
100
AcDbLayerTableRecord
  2
DEFAULT_1
 70
     0
 62
     7
  6
CENTER
370
    -3
390
F
  0
LAYER
  5
1FB
330
2
100
AcDbSymbolTableRecord
100
AcDbLayerTableRecord
  2
DEFAULT_2
 70
     0
 62
     8
  6
HIDDEN
370
    -3
390
F
  0
LAYER
  5
1FC
330
2
100
AcDbSymbolTableRecord
100
AcDbLayerTableRecord
  2
DEFAULT_3
 70
     0
 62
     7
  6
PHANTOM
370
    -3
390
F
  0
LAYER
  5
1FD
330
2
100
AcDbSymbolTableRecord
100
AcDbLayerTableRecord
  2
_2D_DELETED_OBJS
 70
     0
 62
     7
  6
CONTINUOUS
370
    -3
390
F
  0
LAYER
  5
1FE
330
2
100
AcDbSymbolTableRecord
100
AcDbLayerTableRecord
  2
_BLACK_HOLE
 70
     0
 62
     7
  6
CONTINUOUS
370
    -3
390
F
  0
LAYER
  5
1FF
330
2
100
AcDbSymbolTableRecord
100
AcDbLayerTableRecord
  2
DATUMS
 70
     0
 62
     7
  6
CONTINUOUS
370
    -3
390
F
  0
LAYER
  5
200
330
2
100
AcDbSymbolTableRecord
100
AcDbLayerTableRecord
  2
DATUM_AXIS
 70
     0
 62
     7
  6
CONTINUOUS
370
    -3
390
F
  0
LAYER
  5
201
330
2
100
AcDbSymbolTableRecord
100
AcDbLayerTableRecord
  2
DATUM_CSYS
 70
     0
 62
     7
  6
CONTINUOUS
370
    -3
390
F
  0
LAYER
  5
202
330
2
100
AcDbSymbolTableRecord
100
AcDbLayerTableRecord
  2
DATUM_PLANE
 70
     0
 62
     7
  6
CONTINUOUS
370
    -3
390
F
  0
LAYER
  5
203
330
2
100
AcDbSymbolTableRecord
100
AcDbLayerTableRecord
  2
DATUM_POINT
 70
     0
 62
     7
  6
CONTINUOUS
370
    -3
390
F
  0
LAYER
  5
204
330
2
100
AcDbSymbolTableRecord
100
AcDbLayerTableRecord
  2
LOGO
 70
     0
 62
     7
  6
CONTINUOUS
370
    -3
390
F
  0
LAYER
  5
205
330
2
100
AcDbSymbolTableRecord
100
AcDbLayerTableRecord
  2
_CURVE
 70
     0
 62
     7
  6
CONTINUOUS
370
    -3
390
F
  0
LAYER
  5
206
330
2
100
AcDbSymbolTableRecord
100
AcDbLayerTableRecord
  2
_SURFACE
 70
     0
 62
     7
  6
CONTINUOUS
370
    -3
390
F
  0
LAYER
  5
207
330
2
100
AcDbSymbolTableRecord
100
AcDbLayerTableRecord
  2
__REF_CURVE
 70
     0
 62
     7
  6
CONTINUOUS
370
    -3
390
F
  0
LAYER
  5
208
330
2
100
AcDbSymbolTableRecord
100
AcDbLayerTableRecord
  2
__REF_SURFACE
 70
     0
 62
     7
  6
CONTINUOUS
370
    -3
390
F
  0
LAYER
  5
209
330
2
100
AcDbSymbolTableRecord
100
AcDbLayerTableRecord
  2
___GDT
 70
     0
 62
     7
  6
CONTINUOUS
370
    -3
390
F
  0
LAYER
  5
20A
330
2
100
AcDbSymbolTableRecord
100
AcDbLayerTableRecord
  2
___NOTE
 70
     0
 62
     7
  6
CONTINUOUS
370
    -3
390
F
  0
LAYER
  5
20B
330
2
100
AcDbSymbolTableRecord
100
AcDbLayerTableRecord
  2
___SYMBOL
 70
     0
 62
     7
  6
CONTINUOUS
370
    -3
390
F
  0
ENDTAB
  0
TABLE
  2
STYLE
  5
3
330
0
100
AcDbSymbolTable
 70
     7
  0
STYLE
  5
11
330
3
100
AcDbSymbolTableRecord
100
AcDbTextStyleTableRecord
  2
STANDARD
 70
     0
 40
0.0
 41
0.8
 50
0.0
 71
     0
 42
0.2
  3
txt
  4

  0
STYLE
  5
20C
330
3
100
AcDbSymbolTableRecord
100
AcDbTextStyleTableRecord
  2
TEXTSTYLE_1
 70
     0
 40
0.0
 41
0.925
 50
0.0
 71
     0
 42
0.2
  3
txt
  4

  0
STYLE
  5
20D
330
3
100
AcDbSymbolTableRecord
100
AcDbTextStyleTableRecord
  2
TEXTSTYLE_2
 70
     0
 40
0.0
 41
1.229999999999999
 50
0.0
 71
     0
 42
0.2
  3
txt
  4

  0
STYLE
  5
20E
330
3
100
AcDbSymbolTableRecord
100
AcDbTextStyleTableRecord
  2
TEXTSTYLE_3
 70
     0
 40
0.0
 41
0.8
 50
0.0
 71
     0
 42
0.2
  3
txt
  4

  0
STYLE
  5
CAF
330
3
100
AcDbSymbolTableRecord
100
AcDbTextStyleTableRecord
  2

 70
     1
 40
0.0
 41
1.0
 50
0.0
 71
     0
 42
0.2
  3
genltshp.shx
  4

  0
STYLE
  5
CB4
330
3
100
AcDbSymbolTableRecord
100
AcDbTextStyleTableRecord
  2
ACANSTS
 70
     0
 40
1.0
 41
1.0
 50
0.0
 71
     0
 42
0.2
  3
romans.shx
  4

  0
STYLE
  5
CC0
330
3
100
AcDbSymbolTableRecord
100
AcDbTextStyleTableRecord
  2
ACANSGDT
 70
     0
 40
0.0
 41
1.0
 50
0.0
 71
     0
 42
0.2
  3
AMGDT
  4

  0
ENDTAB
  0
TABLE
  2
VIEW
  5
6
330
0
100
AcDbSymbolTable
 70
     0
  0
ENDTAB
  0
TABLE
  2
UCS
  5
7
330
0
100
AcDbSymbolTable
 70
     0
  0
ENDTAB
  0
TABLE
  2
APPID
  5
9
330
0
100
AcDbSymbolTable
 70
    12
  0
APPID
  5
20F
330
9
100
AcDbSymbolTableRecord
100
AcDbRegAppTableRecord
  2
ACAD
 70
     0
  0
APPID
  5
C45
330
9
100
AcDbSymbolTableRecord
100
AcDbRegAppTableRecord
  2
MCAD_NO_VIS
 70
     0
  0
APPID
  5
C46
330
9
100
AcDbSymbolTableRecord
100
AcDbRegAppTableRecord
  2
ACAD_TEMP_GRAPHIC
 70
     0
  0
APPID
  5
C76
330
9
100
AcDbSymbolTableRecord
100
AcDbRegAppTableRecord
  2
AD_DRAW
 70
     0
  0
APPID
  5
C79
330
9
100
AcDbSymbolTableRecord
100
AcDbRegAppTableRecord
  2
ACATTRIBSERVICES
 70
     0
  0
APPID
  5
C99
330
9
100
AcDbSymbolTableRecord
100
AcDbRegAppTableRecord
  2
DESIGNERASSEMBLIES
 70
     0
  0
APPID
  5
C9F
330
9
100
AcDbSymbolTableRecord
100
AcDbRegAppTableRecord
  2
ACADM_DIM_EDIT
 70
     0
  0
APPID
  5
CA0
330
9
100
AcDbSymbolTableRecord
100
AcDbRegAppTableRecord
  2
AMDT_DM_ADJ
 70
     0
  0
APPID
  5
CCE
330
9
100
AcDbSymbolTableRecord
100
AcDbRegAppTableRecord
  2
ACAD_DSTYLE_DIMARC_LENGTH_SYMBOL
 70
     0
  0
APPID
  5
CCF
330
9
100
AcDbSymbolTableRecord
100
AcDbRegAppTableRecord
  2
ACAD_DSTYLE_DIMJOGGED_JOGANGLE_SYMBOL
 70
     0
  0
APPID
  5
CF5
330
9
100
AcDbSymbolTableRecord
100
AcDbRegAppTableRecord
  2
ACAD_EXEMPT_FROM_CAD_STANDARDS
 70
     0
  0
APPID
  5
D01
330
9
100
AcDbSymbolTableRecord
100
AcDbRegAppTableRecord
  2
DCO15
 70
     0
  0
ENDTAB
  0
TABLE
  2
DIMSTYLE
  5
A
330
0
100
AcDbSymbolTable
 70
    13
100
AcDbDimStyleTable
 71
     1
340
232
  0
DIMSTYLE
105
232
330
A
100
AcDbSymbolTableRecord
100
AcDbDimStyleTableRecord
  2
STANDARD
 70
     0
 41
0.1875
 47
0.01
 48
0.01
 71
     1
 78
     4
140
0.15625
271
     3
272
     3
284
     4
340
11
341
210
342
210
343
210
344
210
  0
DIMSTYLE
105
233
330
A
100
AcDbSymbolTableRecord
100
AcDbDimStyleTableRecord
  2
DIMSTYLE_1
 70
     0
 41
0.1875
 47
0.25
 48
0.25
 71
     1
 78
     4
140
0.15625
144
1.333333333299999
271
     2
272
     2
284
     4
340
11
341
210
342
210
343
210
344
210
  0
DIMSTYLE
105
234
330
A
100
AcDbSymbolTableRecord
100
AcDbDimStyleTableRecord
  2
DIMSTYLE_2
 70
     0
 41
0.1875
 47
0.12
 48
0.12
 71
     1
 78
     4
140
0.15625
144
1.333333333299999
271
     2
272
     2
284
     4
340
11
341
210
342
210
343
210
344
210
  0
DIMSTYLE
105
235
330
A
100
AcDbSymbolTableRecord
100
AcDbDimStyleTableRecord
  2
DIMSTYLE_3
 70
     0
 41
0.1875
 47
0.02
 48
0.02
 78
     4
140
0.15625
144
1.333333333299999
271
     2
272
     2
284
     4
340
11
341
210
342
210
343
210
344
210
  0
DIMSTYLE
105
236
330
A
100
AcDbSymbolTableRecord
100
AcDbDimStyleTableRecord
  2
DIMSTYLE_4
 70
     0
 41
0.1875
 48
0.13
 72
     1
 78
     4
140
0.15625
144
1.333333333299999
271
     2
272
     2
284
     4
340
11
341
210
342
210
343
210
344
210
  0
DIMSTYLE
105
237
330
A
100
AcDbSymbolTableRecord
100
AcDbDimStyleTableRecord
  2
DIMSTYLE_5
 70
     0
 41
0.1875
 78
     4
140
0.15625
144
1.333333333299999
271
     0
272
     0
284
     4
340
11
341
210
342
210
343
210
344
210
  0
DIMSTYLE
105
CCD
330
A
100
AcDbSymbolTableRecord
100
AcDbDimStyleTableRecord
  2
AM_ANSI
 70
     0
  4
mm
 41
0.1
 42
0.05
 43
0.5
 44
0.1
 47
0.1
 48
0.1
 78
     7
 79
     2
140
0.12
141
0.0
146
0.71
147
0.06
176
   256
177
   256
178
     2
274
     4
284
     7
340
11
371
    -1
372
    -1
1001
ACAD_DSTYLE_DIMARC_LENGTH_SYMBOL
1070
   379
1070
     1
1001
ACAD_DSTYLE_DIMJOGGED_JOGANGLE_SYMBOL
1070
   384
1040
0.7853981633974483
  0
DIMSTYLE
105
CD6
330
A
100
AcDbSymbolTableRecord
100
AcDbDimStyleTableRecord
  2
AM_ANSI$3
 70
     0
  4
mm
 41
0.1
 42
0.05
 43
0.5
 44
0.1
 47
0.1
 48
0.1
 78
     7
 79
     2
140
0.12
141
0.0
146
0.71
147
0.06
176
   256
177
   256
178
     2
274
     4
284
     7
288
     1
289
     0
340
11
371
    -1
372
    -1
1001
ACAD_DSTYLE_DIMARC_LENGTH_SYMBOL
1070
   379
1070
     1
1001
ACAD_DSTYLE_DIMJOGGED_JOGANGLE_SYMBOL
1070
   384
1040
0.7853981633974483
  0
DIMSTYLE
105
CD9
330
A
100
AcDbSymbolTableRecord
100
AcDbDimStyleTableRecord
  2
AM_ANSI$4
 70
     0
  4
mm
 41
0.1
 42
0.05
 43
0.5
 44
0.1
 47
0.1
 48
0.1
 78
     7
 79
     2
140
0.12
141
0.0
146
0.71
147
0.06
176
   256
177
   256
178
     2
274
     4
284
     7
288
     1
289
     0
340
11
371
    -1
372
    -1
1001
ACAD_DSTYLE_DIMARC_LENGTH_SYMBOL
1070
   379
1070
     1
1001
ACAD_DSTYLE_DIMJOGGED_JOGANGLE_SYMBOL
1070
   384
1040
0.7853981633974483
  0
DIMSTYLE
105
CDE
330
A
100
AcDbSymbolTableRecord
100
AcDbDimStyleTableRecord
  2
AM_ANSI$7
 70
     0
  4
mm
 41
0.1
 42
0.05
 43
0.5
 44
0.1
 47
0.1
 48
0.1
 78
     7
 79
     2
140
0.24
141
0.0
146
0.71
147
0.06
176
   256
177
   256
178
     2
274
     4
284
     7
340
11
371
    -1
372
    -1
1001
ACAD_DSTYLE_DIMARC_LENGTH_SYMBOL
1070
   379
1070
     1
1001
ACAD_DSTYLE_DIMJOGGED_JOGANGLE_SYMBOL
1070
   384
1040
0.7853981633974483
  0
DIMSTYLE
105
CE1
330
A
100
AcDbSymbolTableRecord
100
AcDbDimStyleTableRecord
  2
AM_ANSI$SF
 70
     0
  4
mm
 41
0.1
 42
0.05
 43
0.5
 44
0.1
 47
0.1
 48
0.1
 75
     1
 76
     1
 78
     7
 79
     2
140
0.12
141
0.0
146
0.71
147
0.06
176
   256
177
   256
178
     2
274
     4
284
     7
340
11
371
    -1
372
    -1
1001
ACAD_DSTYLE_DIMARC_LENGTH_SYMBOL
1070
   379
1070
     1
1001
ACAD_DSTYLE_DIMJOGGED_JOGANGLE_SYMBOL
1070
   384
1040
0.7853981633974483
  0
DIMSTYLE
105
CE8
330
A
100
AcDbSymbolTableRecord
100
AcDbDimStyleTableRecord
  2
AM_ANSI$SH
 70
     0
  4
mm
 41
0.1
 42
0.05
 43
0.5
 44
0.1
 47
0.1
 48
0.1
 75
     1
 76
     1
 78
     7
 79
     2
140
0.12
141
0.0
146
0.71
147
0.06
173
     1
176
   256
177
   256
178
     2
274
     4
284
     7
340
11
343
CE2
371
    -1
372
    -1
1001
ACAD_DSTYLE_DIMARC_LENGTH_SYMBOL
1070
   379
1070
     1
1001
ACAD_DSTYLE_DIMJOGGED_JOGANGLE_SYMBOL
1070
   384
1040
0.7853981633974483
  0
ENDTAB
  0
TABLE
  2
BLOCK_RECORD
  5
1
330
0
100
AcDbSymbolTable
 70
    37
  0
BLOCK_RECORD
  5
1F
330
1
100
AcDbSymbolTableRecord
100
AcDbBlockTableRecord
  2
*MODEL_SPACE
340
22
  0
BLOCK_RECORD
  5
1B
330
1
100
AcDbSymbolTableRecord
100
AcDbBlockTableRecord
  2
*PAPER_SPACE
340
1E
  0
BLOCK_RECORD
  5
211
330
1
100
AcDbSymbolTableRecord
100
AcDbBlockTableRecord
  2
KOHLER_BL0
340
0
  0
BLOCK_RECORD
  5
212
330
1
100
AcDbSymbolTableRecord
100
AcDbBlockTableRecord
  2
C_ARROW_BL1
340
0
  0
BLOCK_RECORD
  5
213
330
1
100
AcDbSymbolTableRecord
100
AcDbBlockTableRecord
  2
C_ARROW_BL2
340
0
  0
BLOCK_RECORD
  5
214
330
1
100
AcDbSymbolTableRecord
100
AcDbBlockTableRecord
  2
C_ARROW_BL3
340
0
  0
BLOCK_RECORD
  5
215
330
1
100
AcDbSymbolTableRecord
100
AcDbBlockTableRecord
  2
C_ARROW_BL4
340
0
  0
BLOCK_RECORD
  5
228
330
1
100
AcDbSymbolTableRecord
100
AcDbBlockTableRecord
  2
APPLICABLE_STANDARDS_BL5
340
0
  0
BLOCK_RECORD
  5
229
330
1
100
AcDbSymbolTableRecord
100
AcDbBlockTableRecord
  2
CHARACTERISTIC_BL6
340
0
  0
BLOCK_RECORD
  5
22A
330
1
100
AcDbSymbolTableRecord
100
AcDbBlockTableRecord
  2
CHARACTERISTIC_BL7
340
0
  0
BLOCK_RECORD
  5
22B
330
1
100
AcDbSymbolTableRecord
100
AcDbBlockTableRecord
  2
CHARACTERISTIC_BL8
340
0
  0
BLOCK_RECORD
  5
22C
330
1
100
AcDbSymbolTableRecord
100
AcDbBlockTableRecord
  2
REVISION_BL9
340
0
  0
BLOCK_RECORD
  5
22D
330
1
100
AcDbSymbolTableRecord
100
AcDbBlockTableRecord
  2
CHARACTERISTIC_BL10
340
0
  0
BLOCK_RECORD
  5
22E
330
1
100
AcDbSymbolTableRecord
100
AcDbBlockTableRecord
  2
CHARACTERISTIC_BL11
340
0
  0
BLOCK_RECORD
  5
22F
330
1
100
AcDbSymbolTableRecord
100
AcDbBlockTableRecord
  2
CHARACTERISTIC_BL12
340
0
  0
BLOCK_RECORD
  5
230
330
1
100
AcDbSymbolTableRecord
100
AcDbBlockTableRecord
  2
DELTA_BL13
340
0
  0
BLOCK_RECORD
  5
231
330
1
100
AcDbSymbolTableRecord
100
AcDbBlockTableRecord
  2
REVISION_BL14
340
0
  0
BLOCK_RECORD
  5
210
330
1
100
AcDbSymbolTableRecord
100
AcDbBlockTableRecord
  2
_FILLED
340
0
102
{BLKREFS
331
2BC
331
2BD
331
2CD
331
2CE
331
2D9
331
2DA
331
2E5
331
2E6
331
2F1
331
2F2
331
2FF
331
300
331
30B
331
30C
331
319
331
31A
331
325
331
326
331
333
331
334
331
33F
331
340
331
34E
331
34F
331
35A
331
35B
331
368
331
369
331
374
331
375
331
389
331
38A
331
396
331
397
102
}
  0
BLOCK_RECORD
  5
CE2
330
1
100
AcDbSymbolTableRecord
100
AcDbBlockTableRecord
  2
GENAXEH
340
0
  0
ENDTAB
  0
ENDSEC
  0
SECTION
  2
BLOCKS
  0
BLOCK
  5
20
330
1F
100
AcDbEntity
  8
0
100
AcDbBlockBegin
  2
*MODEL_SPACE
 70
     0
 10
0.0
 20
0.0
 30
0.0
  3
*MODEL_SPACE
  1

  0
ENDBLK
  5
21
330
1F
100
AcDbEntity
  8
0
100
AcDbBlockEnd
  0
BLOCK
  5
1C
330
1B
100
AcDbEntity
 67
     1
  8
0
100
AcDbBlockBegin
  2
*PAPER_SPACE
 70
     0
 10
0.0
 20
0.0
 30
0.0
  3
*PAPER_SPACE
  1

  0
ENDBLK
  5
1D
330
1B
100
AcDbEntity
 67
     1
  8
0
100
AcDbBlockEnd
  0
BLOCK
  5
238
330
211
100
AcDbEntity
  8
0
  6
Continuous
 62
     2
100
AcDbBlockBegin
  2
KOHLER_BL0
 70
     0
 10
30.1873715
 20
2.174145999999999
 30
0.0
  3
KOHLER_BL0
  1

  0
ARC
  5
239
330
211
100
AcDbEntity
  8
0
  6
Continuous
 62
     2
100
AcDbCircle
 10
30.753184
 20
2.22961475
 30
0.0
 40
0.03065625
100
AcDbArc
 50
270.0
 51
90.0
  0
LINE
  5
23A
330
211
100
AcDbEntity
  8
0
  6
Continuous
 62
     2
100
AcDbLine
 10
29.503184
 20
2.033520999999999
 30
0.0
 11
29.503184
 21
2.314770999999999
 31
0.0
  0
LINE
  5
23B
330
211
100
AcDbEntity
  8
0
  6
Continuous
 62
     2
100
AcDbLine
 10
29.503184
 20
2.314770999999999
 30
0.0
 11
29.570184
 21
2.314770999999999
 31
0.0
  0
LINE
  5
23C
330
211
100
AcDbEntity
  8
0
  6
Continuous
 62
     2
100
AcDbLine
 10
29.503184
 20
2.033520999999999
 30
0.0
 11
29.570184
 21
2.033520999999999
 31
0.0
  0
LINE
  5
23D
330
211
100
AcDbEntity
  8
0
  6
Continuous
 62
     2
100
AcDbLine
 10
29.753184
 20
2.314770999999999
 30
0.0
 11
29.628184
 21
2.189770999999999
 31
0.0
  0
LINE
  5
23E
330
211
100
AcDbEntity
  8
0
  6
Continuous
 62
     2
100
AcDbLine
 10
29.628184
 20
2.189770999999999
 30
0.0
 11
29.753184
 21
2.033520999999999
 31
0.0
  0
CIRCLE
  5
23F
330
211
100
AcDbEntity
  8
0
  6
Continuous
 62
     2
100
AcDbCircle
 10
29.862559
 20
2.174145999999999
 30
0.0
 40
0.073625
  0
LINE
  5
240
330
211
100
AcDbEntity
  8
0
  6
Continuous
 62
     2
100
AcDbLine
 10
29.6673821352
 20
2.033520999999999
 30
0.0
 11
29.753184
 21
2.033520999999999
 31
0.0
  0
CIRCLE
  5
241
330
211
100
AcDbEntity
  8
0
  6
Continuous
 62
     2
100
AcDbCircle
 10
29.862559
 20
2.174145999999999
 30
0.0
 40
0.140625
  0
LINE
  5
242
330
211
100
AcDbEntity
  8
0
  6
Continuous
 62
     2
100
AcDbLine
 10
29.570184
 20
2.033520999999999
 30
0.0
 11
29.570184
 21
2.155018668999999
 31
0.0
  0
LINE
  5
243
330
211
100
AcDbEntity
  8
0
  6
Continuous
 62
     2
100
AcDbLine
 10
29.6584316913
 20
2.314770999999999
 30
0.0
 11
29.570184
 21
2.2265233087
 31
0.0
  0
LINE
  5
244
330
211
100
AcDbEntity
  8
0
  6
Continuous
 62
     2
100
AcDbLine
 10
29.570184
 20
2.155018668999999
 30
0.0
 11
29.6673821352
 21
2.033520999999999
 31
0.0
  0
LINE
  5
245
330
211
100
AcDbEntity
  8
0
  6
Continuous
 62
     2
100
AcDbLine
 10
29.6584316913
 20
2.314770999999999
 30
0.0
 11
29.753184
 21
2.314770999999999
 31
0.0
  0
LINE
  5
246
330
211
100
AcDbEntity
  8
0
  6
Continuous
 62
     2
100
AcDbLine
 10
29.570184
 20
2.314770999999999
 30
0.0
 11
29.570184
 21
2.2265233087
 31
0.0
  0
LINE
  5
247
330
211
100
AcDbEntity
  8
0
  6
Continuous
 62
     2
100
AcDbLine
 10
30.034434
 20
2.314770999999999
 30
0.0
 11
30.034434
 21
2.033520999999999
 31
0.0
  0
LINE
  5
248
330
211
100
AcDbEntity
  8
0
  6
Continuous
 62
     2
100
AcDbLine
 10
30.101434
 20
2.033520999999999
 30
0.0
 11
30.101434
 21
2.156270999999999
 31
0.0
  0
LINE
  5
249
330
211
100
AcDbEntity
  8
0
  6
Continuous
 62
     2
100
AcDbLine
 10
30.101434
 20
2.223270999999999
 30
0.0
 11
30.101434
 21
2.314770999999999
 31
0.0
  0
LINE
  5
24A
330
211
100
AcDbEntity
  8
0
  6
Continuous
 62
     2
100
AcDbLine
 10
30.179559
 20
2.033520999999999
 30
0.0
 11
30.179559
 21
2.156270999999999
 31
0.0
  0
LINE
  5
24B
330
211
100
AcDbEntity
  8
0
  6
Continuous
 62
     2
100
AcDbLine
 10
30.179559
 20
2.223270999999999
 30
0.0
 11
30.179559
 21
2.314770999999999
 31
0.0
  0
LINE
  5
24C
330
211
100
AcDbEntity
  8
0
  6
Continuous
 62
     2
100
AcDbLine
 10
30.246559
 20
2.314770999999999
 30
0.0
 11
30.246559
 21
2.033520999999999
 31
0.0
  0
LINE
  5
24D
330
211
100
AcDbEntity
  8
0
  6
Continuous
 62
     2
100
AcDbLine
 10
30.101434
 20
2.223270999999999
 30
0.0
 11
30.179559
 21
2.223270999999999
 31
0.0
  0
LINE
  5
24E
330
211
100
AcDbEntity
  8
0
  6
Continuous
 62
     2
100
AcDbLine
 10
30.101434
 20
2.156270999999999
 30
0.0
 11
30.179559
 21
2.156270999999999
 31
0.0
  0
LINE
  5
24F
330
211
100
AcDbEntity
  8
0
  6
Continuous
 62
     2
100
AcDbLine
 10
30.179559
 20
2.033520999999999
 30
0.0
 11
30.246559
 21
2.033520999999999
 31
0.0
  0
LINE
  5
250
330
211
100
AcDbEntity
  8
0
  6
Continuous
 62
     2
100
AcDbLine
 10
30.034434
 20
2.033520999999999
 30
0.0
 11
30.101434
 21
2.033520999999999
 31
0.0
  0
LINE
  5
251
330
211
100
AcDbEntity
  8
0
  6
Continuous
 62
     2
100
AcDbLine
 10
30.179559
 20
2.314770999999999
 30
0.0
 11
30.246559
 21
2.314770999999999
 31
0.0
  0
LINE
  5
252
330
211
100
AcDbEntity
  8
0
  6
Continuous
 62
     2
100
AcDbLine
 10
30.034434
 20
2.314770999999999
 30
0.0
 11
30.101434
 21
2.314770999999999
 31
0.0
  0
LINE
  5
253
330
211
100
AcDbEntity
  8
0
  6
Continuous
 62
     2
100
AcDbLine
 10
30.277809
 20
2.314770999999999
 30
0.0
 11
30.277809
 21
2.033520999999999
 31
0.0
  0
LINE
  5
254
330
211
100
AcDbEntity
  8
0
  6
Continuous
 62
     2
100
AcDbLine
 10
30.434059
 20
2.100521
 30
0.0
 11
30.434059
 21
2.033520999999999
 31
0.0
  0
LINE
  5
255
330
211
100
AcDbEntity
  8
0
  6
Continuous
 62
     2
100
AcDbLine
 10
30.277809
 20
2.033520999999999
 30
0.0
 11
30.434059
 21
2.033520999999999
 31
0.0
  0
LINE
  5
256
330
211
100
AcDbEntity
  8
0
  6
Continuous
 62
     2
100
AcDbLine
 10
30.344809
 20
2.100521
 30
0.0
 11
30.344809
 21
2.314770999999999
 31
0.0
  0
LINE
  5
257
330
211
100
AcDbEntity
  8
0
  6
Continuous
 62
     2
100
AcDbLine
 10
30.344809
 20
2.100521
 30
0.0
 11
30.434059
 21
2.100521
 31
0.0
  0
LINE
  5
258
330
211
100
AcDbEntity
  8
0
  6
Continuous
 62
     2
100
AcDbLine
 10
30.277809
 20
2.314770999999999
 30
0.0
 11
30.344809
 21
2.314770999999999
 31
0.0
  0
LINE
  5
259
330
211
100
AcDbEntity
  8
0
  6
Continuous
 62
     2
100
AcDbLine
 10
30.465309
 20
2.033520999999999
 30
0.0
 11
30.621559
 21
2.033520999999999
 31
0.0
  0
LINE
  5
25A
330
211
100
AcDbEntity
  8
0
  6
Continuous
 62
     2
100
AcDbLine
 10
30.621559
 20
2.100521
 30
0.0
 11
30.621559
 21
2.033520999999999
 31
0.0
  0
LINE
  5
25B
330
211
100
AcDbEntity
  8
0
  6
Continuous
 62
     2
100
AcDbLine
 10
30.532309
 20
2.100521
 30
0.0
 11
30.621559
 21
2.100521
 31
0.0
  0
LINE
  5
25C
330
211
100
AcDbEntity
  8
0
  6
Continuous
 62
     2
100
AcDbLine
 10
30.532309
 20
2.148458499999999
 30
0.0
 11
30.532309
 21
2.100521
 31
0.0
  0
LINE
  5
25D
330
211
100
AcDbEntity
  8
0
  6
Continuous
 62
     2
100
AcDbLine
 10
30.532309
 20
2.247771
 30
0.0
 11
30.621559
 21
2.247771
 31
0.0
  0
LINE
  5
25E
330
211
100
AcDbEntity
  8
0
  6
Continuous
 62
     2
100
AcDbLine
 10
30.465309
 20
2.314770999999999
 30
0.0
 11
30.465309
 21
2.033520999999999
 31
0.0
  0
LINE
  5
25F
330
211
100
AcDbEntity
  8
0
  6
Continuous
 62
     2
100
AcDbLine
 10
30.621559
 20
2.247771
 30
0.0
 11
30.621559
 21
2.314770999999999
 31
0.0
  0
LINE
  5
260
330
211
100
AcDbEntity
  8
0
  6
Continuous
 62
     2
100
AcDbLine
 10
30.465309
 20
2.314770999999999
 30
0.0
 11
30.621559
 21
2.314770999999999
 31
0.0
  0
LINE
  5
261
330
211
100
AcDbEntity
  8
0
  6
Continuous
 62
     2
100
AcDbLine
 10
30.532309
 20
2.199833499999999
 30
0.0
 11
30.621559
 21
2.199833499999999
 31
0.0
  0
LINE
  5
262
330
211
100
AcDbEntity
  8
0
  6
Continuous
 62
     2
100
AcDbLine
 10
30.621559
 20
2.199833499999999
 30
0.0
 11
30.621559
 21
2.148458499999999
 31
0.0
  0
LINE
  5
263
330
211
100
AcDbEntity
  8
0
  6
Continuous
 62
     2
100
AcDbLine
 10
30.532309
 20
2.148458499999999
 30
0.0
 11
30.621559
 21
2.148458499999999
 31
0.0
  0
LINE
  5
264
330
211
100
AcDbEntity
  8
0
  6
Continuous
 62
     2
100
AcDbLine
 10
30.532309
 20
2.199833499999999
 30
0.0
 11
30.532309
 21
2.247771
 31
0.0
  0
LINE
  5
265
330
211
100
AcDbEntity
  8
0
  6
Continuous
 62
     2
100
AcDbLine
 10
30.652809
 20
2.033520999999999
 30
0.0
 11
30.652809
 21
2.314770999999999
 31
0.0
  0
LINE
  5
266
330
211
100
AcDbEntity
  8
0
  6
Continuous
 62
     2
100
AcDbLine
 10
30.719809
 20
2.142895999999999
 30
0.0
 11
30.719809
 21
2.033520999999999
 31
0.0
  0
ARC
  5
267
330
211
100
AcDbEntity
  8
0
  6
Continuous
 62
     2
100
AcDbCircle
 10
30.7543715
 20
2.228833499999999
 30
0.0
 40
0.0859375
100
AcDbArc
 50
304.1679402531
 51
90.0
  0
LINE
  5
268
330
211
100
AcDbEntity
  8
0
  6
Continuous
 62
     2
100
AcDbLine
 10
30.7543715
 20
2.314770999999999
 30
0.0
 11
30.652809
 21
2.314770999999999
 31
0.0
  0
LINE
  5
269
330
211
100
AcDbEntity
  8
0
  6
Continuous
 62
     2
100
AcDbLine
 10
30.753184
 20
2.260270999999999
 30
0.0
 11
30.719809
 21
2.260270999999999
 31
0.0
  0
LINE
  5
26A
330
211
100
AcDbEntity
  8
0
  6
Continuous
 62
     2
100
AcDbLine
 10
30.8026357616
 20
2.1577292458
 30
0.0
 11
30.871559
 21
2.033520999999999
 31
0.0
  0
LINE
  5
26B
330
211
100
AcDbEntity
  8
0
  6
Continuous
 62
     2
100
AcDbLine
 10
30.7949350526
 20
2.033520999999999
 30
0.0
 11
30.7342427922
 21
2.142895999999999
 31
0.0
  0
LINE
  5
26C
330
211
100
AcDbEntity
  8
0
  6
Continuous
 62
     2
100
AcDbLine
 10
30.652809
 20
2.033520999999999
 30
0.0
 11
30.719809
 21
2.033520999999999
 31
0.0
  0
LINE
  5
26D
330
211
100
AcDbEntity
  8
0
  6
Continuous
 62
     2
100
AcDbLine
 10
30.7949350526
 20
2.033520999999999
 30
0.0
 11
30.871559
 21
2.033520999999999
 31
0.0
  0
LINE
  5
26E
330
211
100
AcDbEntity
  8
0
  6
Continuous
 62
     2
100
AcDbLine
 10
30.753184
 20
2.198958499999999
 30
0.0
 11
30.719809
 21
2.198958499999999
 31
0.0
  0
LINE
  5
26F
330
211
100
AcDbEntity
  8
0
  6
Continuous
 62
     2
100
AcDbLine
 10
30.719809
 20
2.260270999999999
 30
0.0
 11
30.719809
 21
2.198958499999999
 31
0.0
  0
LINE
  5
270
330
211
100
AcDbEntity
  8
0
  6
Continuous
 62
     2
100
AcDbLine
 10
30.719809
 20
2.142895999999999
 30
0.0
 11
30.7342427922
 21
2.142895999999999
 31
0.0
  0
LWPOLYLINE
  5
271
330
211
100
AcDbEntity
  8
0
  6
Continuous
 62
     2
100
AcDbPolyline
 90
       14
 70
     0
 43
0.0
 10
30.871559
 20
2.033520999999999
 10
30.7949350526
 20
2.033520999999999
 10
30.7342427922
 20
2.142895999999999
 10
30.719809
 20
2.142895999999999
 10
30.719809
 20
2.033520999999999
 10
30.652809
 20
2.033520999999999
 10
30.652809
 20
2.260270999999999
 10
30.719809
 20
2.260270999999999
 10
30.719809
 20
2.198958499999999
 10
30.753184
 20
2.198958499999999
 10
30.833650134
 20
2.198958499999999
 10
30.8247683179
 20
2.1795431162
 10
30.8026357616
 20
2.1577292458
 10
30.871559
 20
2.033520999999999
  0
HATCH
  5
272
330
211
100
AcDbEntity
  8
0
  6
Continuous
 62
     2
100
AcDbHatch
 10
0.0
 20
0.0
 30
0.0
210
0.0
220
0.0
230
1.0
  2
SOLID
 70
     1
 71
     1
 91
        1
 92
        1
 93
       13
 72
     1
 10
30.871559
 20
2.033520999999999
 11
30.7949350526
 21
2.033520999999999
 72
     1
 10
30.7949350526
 20
2.033520999999999
 11
30.7342427922
 21
2.142895999999999
 72
     1
 10
30.7342427922
 20
2.142895999999999
 11
30.719809
 21
2.142895999999999
 72
     1
 10
30.719809
 20
2.142895999999999
 11
30.719809
 21
2.033520999999999
 72
     1
 10
30.719809
 20
2.033520999999999
 11
30.652809
 21
2.033520999999999
 72
     1
 10
30.652809
 20
2.033520999999999
 11
30.652809
 21
2.260270999999999
 72
     1
 10
30.652809
 20
2.260270999999999
 11
30.719809
 21
2.260270999999999
 72
     1
 10
30.719809
 20
2.260270999999999
 11
30.719809
 21
2.198958499999999
 72
     1
 10
30.719809
 20
2.198958499999999
 11
30.753184
 21
2.198958499999999
 72
     1
 10
30.753184
 20
2.198958499999999
 11
30.833650134
 21
2.198958499999999
 72
     1
 10
30.833650134
 20
2.198958499999999
 11
30.8247683179
 21
2.1795431162
 72
     1
 10
30.8247683179
 20
2.1795431162
 11
30.8026357616
 21
2.1577292458
 72
     1
 10
30.8026357616
 20
2.1577292458
 11
30.871559
 21
2.033520999999999
 97
        1
330
271
 75
     0
 76
     1
 98
        1
 10
0.0
 20
0.0
450
        0
451
        0
460
0.0
461
0.0
452
        0
462
0.0
453
        0
470

  0
LWPOLYLINE
  5
273
330
211
100
AcDbEntity
  8
0
  6
Continuous
 62
     2
100
AcDbPolyline
 90
       18
 70
     0
 43
0.0
 10
30.652809
 20
2.260270999999999
 10
30.652809
 20
2.314770999999999
 10
30.7543715
 20
2.314770999999999
 10
30.7849349823
 20
2.309152410999999
 10
30.811501987
 20
2.293031329899999
 10
30.8305986155
 20
2.268515747599999
 10
30.8397277946
 20
2.238811318999999
 10
30.8376957941
 20
2.207802191799999
 10
30.833650134
 20
2.198958499999999
 10
30.753184
 20
2.198958499999999
 10
30.768512125
 20
2.203065658699999
 10
30.7797330913
 20
2.214286625
 10
30.78384025
 20
2.22961475
 10
30.7797330913
 20
2.244942875
 10
30.768512125
 20
2.256163841299999
 10
30.753184
 20
2.260270999999999
 10
30.719809
 20
2.260270999999999
 10
30.652809
 20
2.260270999999999
  0
HATCH
  5
274
330
211
100
AcDbEntity
  8
0
  6
Continuous
 62
     2
100
AcDbHatch
 10
0.0
 20
0.0
 30
0.0
210
0.0
220
0.0
230
1.0
  2
SOLID
 70
     1
 71
     1
 91
        1
 92
        1
 93
       17
 72
     1
 10
30.652809
 20
2.260270999999999
 11
30.652809
 21
2.314770999999999
 72
     1
 10
30.652809
 20
2.314770999999999
 11
30.7543715
 21
2.314770999999999
 72
     1
 10
30.7543715
 20
2.314770999999999
 11
30.7849349823
 21
2.309152410999999
 72
     1
 10
30.7849349823
 20
2.309152410999999
 11
30.811501987
 21
2.293031329899999
 72
     1
 10
30.811501987
 20
2.293031329899999
 11
30.8305986155
 21
2.268515747599999
 72
     1
 10
30.8305986155
 20
2.268515747599999
 11
30.8397277946
 21
2.238811318999999
 72
     1
 10
30.8397277946
 20
2.238811318999999
 11
30.8376957941
 21
2.207802191799999
 72
     1
 10
30.8376957941
 20
2.207802191799999
 11
30.833650134
 21
2.198958499999999
 72
     1
 10
30.833650134
 20
2.198958499999999
 11
30.753184
 21
2.198958499999999
 72
     1
 10
30.753184
 20
2.198958499999999
 11
30.768512125
 21
2.203065658699999
 72
     1
 10
30.768512125
 20
2.203065658699999
 11
30.7797330913
 21
2.214286625
 72
     1
 10
30.7797330913
 20
2.214286625
 11
30.78384025
 21
2.22961475
 72
     1
 10
30.78384025
 20
2.22961475
 11
30.7797330913
 21
2.244942875
 72
     1
 10
30.7797330913
 20
2.244942875
 11
30.768512125
 21
2.256163841299999
 72
     1
 10
30.768512125
 20
2.256163841299999
 11
30.753184
 21
2.260270999999999
 72
     1
 10
30.753184
 20
2.260270999999999
 11
30.719809
 21
2.260270999999999
 72
     1
 10
30.719809
 20
2.260270999999999
 11
30.652809
 21
2.260270999999999
 97
        1
330
273
 75
     0
 76
     1
 98
        1
 10
0.0
 20
0.0
450
        0
451
        0
460
0.0
461
0.0
452
        0
462
0.0
453
        0
470

  0
LWPOLYLINE
  5
275
330
211
100
AcDbEntity
  8
0
  6
Continuous
 62
     2
100
AcDbPolyline
 90
       12
 70
     0
 43
0.0
 10
29.570184
 20
2.033520999999999
 10
29.503184
 20
2.033520999999999
 10
29.503184
 20
2.314770999999999
 10
29.570184
 20
2.314770999999999
 10
29.570184
 20
2.2265233087
 10
29.6584316913
 20
2.314770999999999
 10
29.753184
 20
2.314770999999999
 10
29.628184
 20
2.189770999999999
 10
29.753184
 20
2.033520999999999
 10
29.6673821352
 20
2.033520999999999
 10
29.570184
 20
2.155018668999999
 10
29.570184
 20
2.033520999999999
  0
HATCH
  5
276
330
211
100
AcDbEntity
  8
0
  6
Continuous
 62
     2
100
AcDbHatch
 10
0.0
 20
0.0
 30
0.0
210
0.0
220
0.0
230
1.0
  2
SOLID
 70
     1
 71
     1
 91
        1
 92
        1
 93
       11
 72
     1
 10
29.570184
 20
2.033520999999999
 11
29.503184
 21
2.033520999999999
 72
     1
 10
29.503184
 20
2.033520999999999
 11
29.503184
 21
2.314770999999999
 72
     1
 10
29.503184
 20
2.314770999999999
 11
29.570184
 21
2.314770999999999
 72
     1
 10
29.570184
 20
2.314770999999999
 11
29.570184
 21
2.2265233087
 72
     1
 10
29.570184
 20
2.2265233087
 11
29.6584316913
 21
2.314770999999999
 72
     1
 10
29.6584316913
 20
2.314770999999999
 11
29.753184
 21
2.314770999999999
 72
     1
 10
29.753184
 20
2.314770999999999
 11
29.628184
 21
2.189770999999999
 72
     1
 10
29.628184
 20
2.189770999999999
 11
29.753184
 21
2.033520999999999
 72
     1
 10
29.753184
 20
2.033520999999999
 11
29.6673821352
 21
2.033520999999999
 72
     1
 10
29.6673821352
 20
2.033520999999999
 11
29.570184
 21
2.155018668999999
 72
     1
 10
29.570184
 20
2.155018668999999
 11
29.570184
 21
2.033520999999999
 97
        1
330
275
 75
     0
 76
     1
 98
        1
 10
0.0
 20
0.0
450
        0
451
        0
460
0.0
461
0.0
452
        0
462
0.0
453
        0
470

  0
LWPOLYLINE
  5
277
330
211
100
AcDbEntity
  8
0
  6
Continuous
 62
     2
100
AcDbPolyline
 90
       23
 70
     0
 43
0.0
 10
29.862559
 20
2.033520999999999
 10
29.8191034852
 20
2.0404036774
 10
29.7799016989
 20
2.0603779852
 10
29.7487909852
 20
2.0914886989
 10
29.7288166774
 20
2.1306904852
 10
29.721934
 20
2.174145999999999
 10
29.7288166774
 20
2.2176015148
 10
29.7440287706
 20
2.2474569287
 10
29.869352258
 20
2.2474569287
 10
29.8424105624
 20
2.244960412999999
 10
29.8181900249
 20
2.2329000184
 10
29.7999617634
 20
2.212904567999999
 10
29.7901876055
 20
2.187674558199999
 10
29.7901876055
 20
2.160617441799999
 10
29.7999617634
 20
2.135387431999999
 10
29.8181900249
 20
2.1153919816
 10
29.8424105624
 20
2.103331587
 10
29.869352258
 20
2.1008350713
 10
29.9810892294
 20
2.1008350713
 10
29.9763270148
 20
2.0914886989
 10
29.9452163011
 20
2.0603779852
 10
29.9060145148
 20
2.0404036774
 10
29.862559
 20
2.033520999999999
  0
HATCH
  5
278
330
211
100
AcDbEntity
  8
0
  6
Continuous
 62
     2
100
AcDbHatch
 10
0.0
 20
0.0
 30
0.0
210
0.0
220
0.0
230
1.0
  2
SOLID
 70
     1
 71
     1
 91
        1
 92
        1
 93
       22
 72
     1
 10
29.862559
 20
2.033520999999999
 11
29.8191034852
 21
2.0404036774
 72
     1
 10
29.8191034852
 20
2.0404036774
 11
29.7799016989
 21
2.0603779852
 72
     1
 10
29.7799016989
 20
2.0603779852
 11
29.7487909852
 21
2.0914886989
 72
     1
 10
29.7487909852
 20
2.0914886989
 11
29.7288166774
 21
2.1306904852
 72
     1
 10
29.7288166774
 20
2.1306904852
 11
29.721934
 21
2.174145999999999
 72
     1
 10
29.721934
 20
2.174145999999999
 11
29.7288166774
 21
2.2176015148
 72
     1
 10
29.7288166774
 20
2.2176015148
 11
29.7440287706
 21
2.2474569287
 72
     1
 10
29.7440287706
 20
2.2474569287
 11
29.869352258
 21
2.2474569287
 72
     1
 10
29.869352258
 20
2.2474569287
 11
29.8424105624
 21
2.244960412999999
 72
     1
 10
29.8424105624
 20
2.244960412999999
 11
29.8181900249
 21
2.2329000184
 72
     1
 10
29.8181900249
 20
2.2329000184
 11
29.7999617634
 21
2.212904567999999
 72
     1
 10
29.7999617634
 20
2.212904567999999
 11
29.7901876055
 21
2.187674558199999
 72
     1
 10
29.7901876055
 20
2.187674558199999
 11
29.7901876055
 21
2.160617441799999
 72
     1
 10
29.7901876055
 20
2.160617441799999
 11
29.7999617634
 21
2.135387431999999
 72
     1
 10
29.7999617634
 20
2.135387431999999
 11
29.8181900249
 21
2.1153919816
 72
     1
 10
29.8181900249
 20
2.1153919816
 11
29.8424105624
 21
2.103331587
 72
     1
 10
29.8424105624
 20
2.103331587
 11
29.869352258
 21
2.1008350713
 72
     1
 10
29.869352258
 20
2.1008350713
 11
29.9810892294
 21
2.1008350713
 72
     1
 10
29.9810892294
 20
2.1008350713
 11
29.9763270148
 21
2.0914886989
 72
     1
 10
29.9763270148
 20
2.0914886989
 11
29.9452163011
 21
2.0603779852
 72
     1
 10
29.9452163011
 20
2.0603779852
 11
29.9060145148
 21
2.0404036774
 72
     1
 10
29.9060145148
 20
2.0404036774
 11
29.862559
 21
2.033520999999999
 97
        1
330
277
 75
     0
 76
     1
 98
        1
 10
0.0
 20
0.0
450
        0
451
        0
460
0.0
461
0.0
452
        0
462
0.0
453
        0
470

  0
LWPOLYLINE
  5
279
330
211
100
AcDbEntity
  8
0
  6
Continuous
 62
     2
100
AcDbPolyline
 90
       22
 70
     0
 43
0.0
 10
29.7440287706
 20
2.2474569287
 10
29.7487909852
 20
2.2568033011
 10
29.7799016989
 20
2.2879140148
 10
29.8191034852
 20
2.3078883226
 10
29.862559
 20
2.314770999999999
 10
29.9060145148
 20
2.3078883226
 10
29.9452163011
 20
2.2879140148
 10
29.9763270148
 20
2.2568033011
 10
29.9963013226
 20
2.2176015148
 10
30.003184
 20
2.174145999999999
 10
29.9963013226
 20
2.1306904852
 10
29.9810892294
 20
2.1008350713
 10
29.869352258
 20
2.1008350713
 10
29.8953764864
 20
2.108239602699999
 10
29.9169685315
 20
2.1245451582
 10
29.9312122679
 20
2.147549582299999
 10
29.936184
 20
2.174145999999999
 10
29.9312122679
 20
2.200742417699999
 10
29.9169685315
 20
2.2237468418
 10
29.8953764864
 20
2.240052397299999
 10
29.869352258
 20
2.2474569287
 10
29.7440287706
 20
2.2474569287
  0
HATCH
  5
27A
330
211
100
AcDbEntity
  8
0
  6
Continuous
 62
     2
100
AcDbHatch
 10
0.0
 20
0.0
 30
0.0
210
0.0
220
0.0
230
1.0
  2
SOLID
 70
     1
 71
     1
 91
        1
 92
        1
 93
       21
 72
     1
 10
29.7440287706
 20
2.2474569287
 11
29.7487909852
 21
2.2568033011
 72
     1
 10
29.7487909852
 20
2.2568033011
 11
29.7799016989
 21
2.2879140148
 72
     1
 10
29.7799016989
 20
2.2879140148
 11
29.8191034852
 21
2.3078883226
 72
     1
 10
29.8191034852
 20
2.3078883226
 11
29.862559
 21
2.314770999999999
 72
     1
 10
29.862559
 20
2.314770999999999
 11
29.9060145148
 21
2.3078883226
 72
     1
 10
29.9060145148
 20
2.3078883226
 11
29.9452163011
 21
2.2879140148
 72
     1
 10
29.9452163011
 20
2.2879140148
 11
29.9763270148
 21
2.2568033011
 72
     1
 10
29.9763270148
 20
2.2568033011
 11
29.9963013226
 21
2.2176015148
 72
     1
 10
29.9963013226
 20
2.2176015148
 11
30.003184
 21
2.174145999999999
 72
     1
 10
30.003184
 20
2.174145999999999
 11
29.9963013226
 21
2.1306904852
 72
     1
 10
29.9963013226
 20
2.1306904852
 11
29.9810892294
 21
2.1008350713
 72
     1
 10
29.9810892294
 20
2.1008350713
 11
29.869352258
 21
2.1008350713
 72
     1
 10
29.869352258
 20
2.1008350713
 11
29.8953764864
 21
2.108239602699999
 72
     1
 10
29.8953764864
 20
2.108239602699999
 11
29.9169685315
 21
2.1245451582
 72
     1
 10
29.9169685315
 20
2.1245451582
 11
29.9312122679
 21
2.147549582299999
 72
     1
 10
29.9312122679
 20
2.147549582299999
 11
29.936184
 21
2.174145999999999
 72
     1
 10
29.936184
 20
2.174145999999999
 11
29.9312122679
 21
2.200742417699999
 72
     1
 10
29.9312122679
 20
2.200742417699999
 11
29.9169685315
 21
2.2237468418
 72
     1
 10
29.9169685315
 20
2.2237468418
 11
29.8953764864
 21
2.240052397299999
 72
     1
 10
29.8953764864
 20
2.240052397299999
 11
29.869352258
 21
2.2474569287
 72
     1
 10
29.869352258
 20
2.2474569287
 11
29.7440287706
 21
2.2474569287
 97
        1
330
279
 75
     0
 76
     1
 98
        1
 10
0.0
 20
0.0
450
        0
451
        0
460
0.0
461
0.0
452
        0
462
0.0
453
        0
470

  0
LWPOLYLINE
  5
27B
330
211
100
AcDbEntity
  8
0
  6
Continuous
 62
     2
100
AcDbPolyline
 90
       13
 70
     0
 43
0.0
 10
30.101434
 20
2.033520999999999
 10
30.034434
 20
2.033520999999999
 10
30.034434
 20
2.314770999999999
 10
30.101434
 20
2.314770999999999
 10
30.101434
 20
2.223270999999999
 10
30.179559
 20
2.223270999999999
 10
30.179559
 20
2.314770999999999
 10
30.246559
 20
2.314770999999999
 10
30.246559
 20
2.033520999999999
 10
30.179559
 20
2.033520999999999
 10
30.179559
 20
2.156270999999999
 10
30.101434
 20
2.156270999999999
 10
30.101434
 20
2.033520999999999
  0
HATCH
  5
27C
330
211
100
AcDbEntity
  8
0
  6
Continuous
 62
     2
100
AcDbHatch
 10
0.0
 20
0.0
 30
0.0
210
0.0
220
0.0
230
1.0
  2
SOLID
 70
     1
 71
     1
 91
        1
 92
        1
 93
       12
 72
     1
 10
30.101434
 20
2.033520999999999
 11
30.034434
 21
2.033520999999999
 72
     1
 10
30.034434
 20
2.033520999999999
 11
30.034434
 21
2.314770999999999
 72
     1
 10
30.034434
 20
2.314770999999999
 11
30.101434
 21
2.314770999999999
 72
     1
 10
30.101434
 20
2.314770999999999
 11
30.101434
 21
2.223270999999999
 72
     1
 10
30.101434
 20
2.223270999999999
 11
30.179559
 21
2.223270999999999
 72
     1
 10
30.179559
 20
2.223270999999999
 11
30.179559
 21
2.314770999999999
 72
     1
 10
30.179559
 20
2.314770999999999
 11
30.246559
 21
2.314770999999999
 72
     1
 10
30.246559
 20
2.314770999999999
 11
30.246559
 21
2.033520999999999
 72
     1
 10
30.246559
 20
2.033520999999999
 11
30.179559
 21
2.033520999999999
 72
     1
 10
30.179559
 20
2.033520999999999
 11
30.179559
 21
2.156270999999999
 72
     1
 10
30.179559
 20
2.156270999999999
 11
30.101434
 21
2.156270999999999
 72
     1
 10
30.101434
 20
2.156270999999999
 11
30.101434
 21
2.033520999999999
 97
        1
330
27B
 75
     0
 76
     1
 98
        1
 10
0.0
 20
0.0
450
        0
451
        0
460
0.0
461
0.0
452
        0
462
0.0
453
        0
470

  0
LWPOLYLINE
  5
27D
330
211
100
AcDbEntity
  8
0
  6
Continuous
 62
     2
100
AcDbPolyline
 90
        7
 70
     0
 43
0.0
 10
30.434059
 20
2.033520999999999
 10
30.277809
 20
2.033520999999999
 10
30.277809
 20
2.314770999999999
 10
30.344809
 20
2.314770999999999
 10
30.344809
 20
2.100521
 10
30.434059
 20
2.100521
 10
30.434059
 20
2.033520999999999
  0
HATCH
  5
27E
330
211
100
AcDbEntity
  8
0
  6
Continuous
 62
     2
100
AcDbHatch
 10
0.0
 20
0.0
 30
0.0
210
0.0
220
0.0
230
1.0
  2
SOLID
 70
     1
 71
     1
 91
        1
 92
        1
 93
        6
 72
     1
 10
30.434059
 20
2.033520999999999
 11
30.277809
 21
2.033520999999999
 72
     1
 10
30.277809
 20
2.033520999999999
 11
30.277809
 21
2.314770999999999
 72
     1
 10
30.277809
 20
2.314770999999999
 11
30.344809
 21
2.314770999999999
 72
     1
 10
30.344809
 20
2.314770999999999
 11
30.344809
 21
2.100521
 72
     1
 10
30.344809
 20
2.100521
 11
30.434059
 21
2.100521
 72
     1
 10
30.434059
 20
2.100521
 11
30.434059
 21
2.033520999999999
 97
        1
330
27D
 75
     0
 76
     1
 98
        1
 10
0.0
 20
0.0
450
        0
451
        0
460
0.0
461
0.0
452
        0
462
0.0
453
        0
470

  0
LWPOLYLINE
  5
27F
330
211
100
AcDbEntity
  8
0
  6
Continuous
 62
     2
100
AcDbPolyline
 90
       13
 70
     0
 43
0.0
 10
30.621559
 20
2.033520999999999
 10
30.465309
 20
2.033520999999999
 10
30.465309
 20
2.314770999999999
 10
30.621559
 20
2.314770999999999
 10
30.621559
 20
2.247771
 10
30.532309
 20
2.247771
 10
30.532309
 20
2.199833499999999
 10
30.621559
 20
2.199833499999999
 10
30.621559
 20
2.148458499999999
 10
30.532309
 20
2.148458499999999
 10
30.532309
 20
2.100521
 10
30.621559
 20
2.100521
 10
30.621559
 20
2.033520999999999
  0
HATCH
  5
280
330
211
100
AcDbEntity
  8
0
  6
Continuous
 62
     2
100
AcDbHatch
 10
0.0
 20
0.0
 30
0.0
210
0.0
220
0.0
230
1.0
  2
SOLID
 70
     1
 71
     1
 91
        1
 92
        1
 93
       12
 72
     1
 10
30.621559
 20
2.033520999999999
 11
30.465309
 21
2.033520999999999
 72
     1
 10
30.465309
 20
2.033520999999999
 11
30.465309
 21
2.314770999999999
 72
     1
 10
30.465309
 20
2.314770999999999
 11
30.621559
 21
2.314770999999999
 72
     1
 10
30.621559
 20
2.314770999999999
 11
30.621559
 21
2.247771
 72
     1
 10
30.621559
 20
2.247771
 11
30.532309
 21
2.247771
 72
     1
 10
30.532309
 20
2.247771
 11
30.532309
 21
2.199833499999999
 72
     1
 10
30.532309
 20
2.199833499999999
 11
30.621559
 21
2.199833499999999
 72
     1
 10
30.621559
 20
2.199833499999999
 11
30.621559
 21
2.148458499999999
 72
     1
 10
30.621559
 20
2.148458499999999
 11
30.532309
 21
2.148458499999999
 72
     1
 10
30.532309
 20
2.148458499999999
 11
30.532309
 21
2.100521
 72
     1
 10
30.532309
 20
2.100521
 11
30.621559
 21
2.100521
 72
     1
 10
30.621559
 20
2.100521
 11
30.621559
 21
2.033520999999999
 97
        1
330
27F
 75
     0
 76
     1
 98
        1
 10
0.0
 20
0.0
450
        0
451
        0
460
0.0
461
0.0
452
        0
462
0.0
453
        0
470

  0
ENDBLK
  5
281
330
211
100
AcDbEntity
  8
0
  6
ByBlock
 62
     0
100
AcDbBlockEnd
  0
BLOCK
  5
282
330
212
100
AcDbEntity
  8
0
  6
Continuous
 62
     2
100
AcDbBlockBegin
  2
C_ARROW_BL1
 70
     0
 10
17.0
 20
0.3125
 30
0.0
  3
C_ARROW_BL1
  1

  0
LINE
  5
283
330
212
100
AcDbEntity
  8
0
  6
Continuous
100
AcDbLine
 10
17.0
 20
0.5
 30
0.0
 11
16.90625
 21
0.3125
 31
0.0
  0
LINE
  5
284
330
212
100
AcDbEntity
  8
0
  6
Continuous
100
AcDbLine
 10
17.0
 20
0.5
 30
0.0
 11
17.09375
 21
0.3125
 31
0.0
  0
LINE
  5
285
330
212
100
AcDbEntity
  8
0
  6
Continuous
100
AcDbLine
 10
17.0234375
 20
0.3125
 30
0.0
 11
17.09375
 21
0.3125
 31
0.0
  0
LINE
  5
286
330
212
100
AcDbEntity
  8
0
  6
Continuous
100
AcDbLine
 10
17.0234375
 20
0.125
 30
0.0
 11
17.0234375
 21
0.3125
 31
0.0
  0
LINE
  5
287
330
212
100
AcDbEntity
  8
0
  6
Continuous
100
AcDbLine
 10
17.0234375
 20
0.125
 30
0.0
 11
16.9765625
 21
0.125
 31
0.0
  0
LINE
  5
288
330
212
100
AcDbEntity
  8
0
  6
Continuous
100
AcDbLine
 10
16.9765625
 20
0.3125
 30
0.0
 11
16.9765625
 21
0.125
 31
0.0
  0
LINE
  5
289
330
212
100
AcDbEntity
  8
0
  6
Continuous
100
AcDbLine
 10
16.90625
 20
0.3125
 30
0.0
 11
16.9765625
 21
0.3125
 31
0.0
  0
LWPOLYLINE
  5
28A
330
212
100
AcDbEntity
  8
0
  6
Continuous
 62
     7
100
AcDbPolyline
 90
        8
 70
     0
 43
0.0
 10
17.0
 20
0.5
 10
17.09375
 20
0.3125
 10
17.0234375
 20
0.3125
 10
17.0234375
 20
0.125
 10
16.9765625
 20
0.125
 10
16.9765625
 20
0.3125
 10
16.90625
 20
0.3125
 10
17.0
 20
0.5
  0
HATCH
  5
28B
330
212
100
AcDbEntity
  8
0
  6
Continuous
 62
     7
100
AcDbHatch
 10
0.0
 20
0.0
 30
0.0
210
0.0
220
0.0
230
1.0
  2
SOLID
 70
     1
 71
     1
 91
        1
 92
        1
 93
        7
 72
     1
 10
17.0
 20
0.5
 11
17.09375
 21
0.3125
 72
     1
 10
17.09375
 20
0.3125
 11
17.0234375
 21
0.3125
 72
     1
 10
17.0234375
 20
0.3125
 11
17.0234375
 21
0.125
 72
     1
 10
17.0234375
 20
0.125
 11
16.9765625
 21
0.125
 72
     1
 10
16.9765625
 20
0.125
 11
16.9765625
 21
0.3125
 72
     1
 10
16.9765625
 20
0.3125
 11
16.90625
 21
0.3125
 72
     1
 10
16.90625
 20
0.3125
 11
17.0
 21
0.5
 97
        1
330
28A
 75
     0
 76
     1
 98
        1
 10
0.0
 20
0.0
450
        0
451
        0
460
0.0
461
0.0
452
        0
462
0.0
453
        0
470

  0
ENDBLK
  5
28C
330
212
100
AcDbEntity
  8
0
  6
ByBlock
 62
     0
100
AcDbBlockEnd
  0
BLOCK
  5
28D
330
213
100
AcDbEntity
  8
0
  6
Continuous
 62
     2
100
AcDbBlockBegin
  2
C_ARROW_BL2
 70
     0
 10
17.0
 20
21.6875
 30
0.0
  3
C_ARROW_BL2
  1

  0
LINE
  5
28E
330
213
100
AcDbEntity
  8
0
  6
Continuous
100
AcDbLine
 10
17.0
 20
21.5
 30
0.0
 11
17.09375
 21
21.6875
 31
0.0
  0
LINE
  5
28F
330
213
100
AcDbEntity
  8
0
  6
Continuous
100
AcDbLine
 10
17.0
 20
21.5
 30
0.0
 11
16.90625
 21
21.6875
 31
0.0
  0
LINE
  5
290
330
213
100
AcDbEntity
  8
0
  6
Continuous
100
AcDbLine
 10
16.9765625
 20
21.6875
 30
0.0
 11
16.90625
 21
21.6875
 31
0.0
  0
LINE
  5
291
330
213
100
AcDbEntity
  8
0
  6
Continuous
100
AcDbLine
 10
16.9765625
 20
21.875
 30
0.0
 11
16.9765625
 21
21.6875
 31
0.0
  0
LINE
  5
292
330
213
100
AcDbEntity
  8
0
  6
Continuous
100
AcDbLine
 10
16.9765625
 20
21.875
 30
0.0
 11
17.0234375
 21
21.875
 31
0.0
  0
LINE
  5
293
330
213
100
AcDbEntity
  8
0
  6
Continuous
100
AcDbLine
 10
17.0234375
 20
21.6875
 30
0.0
 11
17.0234375
 21
21.875
 31
0.0
  0
LINE
  5
294
330
213
100
AcDbEntity
  8
0
  6
Continuous
100
AcDbLine
 10
17.09375
 20
21.6875
 30
0.0
 11
17.0234375
 21
21.6875
 31
0.0
  0
LWPOLYLINE
  5
295
330
213
100
AcDbEntity
  8
0
  6
Continuous
 62
     7
100
AcDbPolyline
 90
        8
 70
     0
 43
0.0
 10
17.0
 20
21.5
 10
16.90625
 20
21.6875
 10
16.9765625
 20
21.6875
 10
16.9765625
 20
21.875
 10
17.0234375
 20
21.875
 10
17.0234375
 20
21.6875
 10
17.09375
 20
21.6875
 10
17.0
 20
21.5
  0
HATCH
  5
296
330
213
100
AcDbEntity
  8
0
  6
Continuous
 62
     7
100
AcDbHatch
 10
0.0
 20
0.0
 30
0.0
210
0.0
220
0.0
230
1.0
  2
SOLID
 70
     1
 71
     1
 91
        1
 92
        1
 93
        7
 72
     1
 10
17.0
 20
21.5
 11
16.90625
 21
21.6875
 72
     1
 10
16.90625
 20
21.6875
 11
16.9765625
 21
21.6875
 72
     1
 10
16.9765625
 20
21.6875
 11
16.9765625
 21
21.875
 72
     1
 10
16.9765625
 20
21.875
 11
17.0234375
 21
21.875
 72
     1
 10
17.0234375
 20
21.875
 11
17.0234375
 21
21.6875
 72
     1
 10
17.0234375
 20
21.6875
 11
17.09375
 21
21.6875
 72
     1
 10
17.09375
 20
21.6875
 11
17.0
 21
21.5
 97
        1
330
295
 75
     0
 76
     1
 98
        1
 10
0.0
 20
0.0
450
        0
451
        0
460
0.0
461
0.0
452
        0
462
0.0
453
        0
470

  0
ENDBLK
  5
297
330
213
100
AcDbEntity
  8
0
  6
ByBlock
 62
     0
100
AcDbBlockEnd
  0
BLOCK
  5
298
330
214
100
AcDbEntity
  8
0
  6
Continuous
 62
     2
100
AcDbBlockBegin
  2
C_ARROW_BL3
 70
     0
 10
0.3125
 20
11.0
 30
0.0
  3
C_ARROW_BL3
  1

  0
LINE
  5
299
330
214
100
AcDbEntity
  8
0
  6
Continuous
100
AcDbLine
 10
0.5
 20
11.0
 30
0.0
 11
0.3125
 21
11.09375
 31
0.0
  0
LINE
  5
29A
330
214
100
AcDbEntity
  8
0
  6
Continuous
100
AcDbLine
 10
0.5
 20
11.0
 30
0.0
 11
0.3125
 21
10.90625
 31
0.0
  0
LINE
  5
29B
330
214
100
AcDbEntity
  8
0
  6
Continuous
100
AcDbLine
 10
0.3125
 20
10.9765625
 30
0.0
 11
0.3125
 21
10.90625
 31
0.0
  0
LINE
  5
29C
330
214
100
AcDbEntity
  8
0
  6
Continuous
100
AcDbLine
 10
0.125
 20
10.9765625
 30
0.0
 11
0.3125
 21
10.9765625
 31
0.0
  0
LINE
  5
29D
330
214
100
AcDbEntity
  8
0
  6
Continuous
100
AcDbLine
 10
0.125
 20
10.9765625
 30
0.0
 11
0.125
 21
11.0234375
 31
0.0
  0
LINE
  5
29E
330
214
100
AcDbEntity
  8
0
  6
Continuous
100
AcDbLine
 10
0.3125
 20
11.0234375
 30
0.0
 11
0.125
 21
11.0234375
 31
0.0
  0
LINE
  5
29F
330
214
100
AcDbEntity
  8
0
  6
Continuous
100
AcDbLine
 10
0.3125
 20
11.09375
 30
0.0
 11
0.3125
 21
11.0234375
 31
0.0
  0
LWPOLYLINE
  5
2A0
330
214
100
AcDbEntity
  8
0
  6
Continuous
 62
     7
100
AcDbPolyline
 90
        8
 70
     0
 43
0.0
 10
0.5
 20
11.0
 10
0.3125
 20
10.90625
 10
0.3125
 20
10.9765625
 10
0.125
 20
10.9765625
 10
0.125
 20
11.0234375
 10
0.3125
 20
11.0234375
 10
0.3125
 20
11.09375
 10
0.5
 20
11.0
  0
HATCH
  5
2A1
330
214
100
AcDbEntity
  8
0
  6
Continuous
 62
     7
100
AcDbHatch
 10
0.0
 20
0.0
 30
0.0
210
0.0
220
0.0
230
1.0
  2
SOLID
 70
     1
 71
     1
 91
        1
 92
        1
 93
        7
 72
     1
 10
0.5
 20
11.0
 11
0.3125
 21
10.90625
 72
     1
 10
0.3125
 20
10.90625
 11
0.3125
 21
10.9765625
 72
     1
 10
0.3125
 20
10.9765625
 11
0.125
 21
10.9765625
 72
     1
 10
0.125
 20
10.9765625
 11
0.125
 21
11.0234375
 72
     1
 10
0.125
 20
11.0234375
 11
0.3125
 21
11.0234375
 72
     1
 10
0.3125
 20
11.0234375
 11
0.3125
 21
11.09375
 72
     1
 10
0.3125
 20
11.09375
 11
0.5
 21
11.0
 97
        1
330
2A0
 75
     0
 76
     1
 98
        1
 10
0.0
 20
0.0
450
        0
451
        0
460
0.0
461
0.0
452
        0
462
0.0
453
        0
470

  0
ENDBLK
  5
2A2
330
214
100
AcDbEntity
  8
0
  6
ByBlock
 62
     0
100
AcDbBlockEnd
  0
BLOCK
  5
2A3
330
215
100
AcDbEntity
  8
0
  6
Continuous
 62
     2
100
AcDbBlockBegin
  2
C_ARROW_BL4
 70
     0
 10
33.6875
 20
11.0
 30
0.0
  3
C_ARROW_BL4
  1

  0
LINE
  5
2A4
330
215
100
AcDbEntity
  8
0
  6
Continuous
100
AcDbLine
 10
33.5
 20
11.0
 30
0.0
 11
33.6875
 21
10.90625
 31
0.0
  0
LINE
  5
2A5
330
215
100
AcDbEntity
  8
0
  6
Continuous
100
AcDbLine
 10
33.5
 20
11.0
 30
0.0
 11
33.6875
 21
11.09375
 31
0.0
  0
LINE
  5
2A6
330
215
100
AcDbEntity
  8
0
  6
Continuous
100
AcDbLine
 10
33.6875
 20
11.0234375
 30
0.0
 11
33.6875
 21
11.09375
 31
0.0
  0
LINE
  5
2A7
330
215
100
AcDbEntity
  8
0
  6
Continuous
100
AcDbLine
 10
33.875
 20
11.0234375
 30
0.0
 11
33.6875
 21
11.0234375
 31
0.0
  0
LINE
  5
2A8
330
215
100
AcDbEntity
  8
0
  6
Continuous
100
AcDbLine
 10
33.875
 20
11.0234375
 30
0.0
 11
33.875
 21
10.9765625
 31
0.0
  0
LINE
  5
2A9
330
215
100
AcDbEntity
  8
0
  6
Continuous
100
AcDbLine
 10
33.6875
 20
10.9765625
 30
0.0
 11
33.875
 21
10.9765625
 31
0.0
  0
LINE
  5
2AA
330
215
100
AcDbEntity
  8
0
  6
Continuous
100
AcDbLine
 10
33.6875
 20
10.90625
 30
0.0
 11
33.6875
 21
10.9765625
 31
0.0
  0
LWPOLYLINE
  5
2AB
330
215
100
AcDbEntity
  8
0
  6
Continuous
 62
     7
100
AcDbPolyline
 90
        8
 70
     0
 43
0.0
 10
33.5
 20
11.0
 10
33.6875
 20
11.09375
 10
33.6875
 20
11.0234375
 10
33.875
 20
11.0234375
 10
33.875
 20
10.9765625
 10
33.6875
 20
10.9765625
 10
33.6875
 20
10.90625
 10
33.5
 20
11.0
  0
HATCH
  5
2AC
330
215
100
AcDbEntity
  8
0
  6
Continuous
 62
     7
100
AcDbHatch
 10
0.0
 20
0.0
 30
0.0
210
0.0
220
0.0
230
1.0
  2
SOLID
 70
     1
 71
     1
 91
        1
 92
        1
 93
        7
 72
     1
 10
33.5
 20
11.0
 11
33.6875
 21
11.09375
 72
     1
 10
33.6875
 20
11.09375
 11
33.6875
 21
11.0234375
 72
     1
 10
33.6875
 20
11.0234375
 11
33.875
 21
11.0234375
 72
     1
 10
33.875
 20
11.0234375
 11
33.875
 21
10.9765625
 72
     1
 10
33.875
 20
10.9765625
 11
33.6875
 21
10.9765625
 72
     1
 10
33.6875
 20
10.9765625
 11
33.6875
 21
10.90625
 72
     1
 10
33.6875
 20
10.90625
 11
33.5
 21
11.0
 97
        1
330
2AB
 75
     0
 76
     1
 98
        1
 10
0.0
 20
0.0
450
        0
451
        0
460
0.0
461
0.0
452
        0
462
0.0
453
        0
470

  0
ENDBLK
  5
2AD
330
215
100
AcDbEntity
  8
0
  6
ByBlock
 62
     0
100
AcDbBlockEnd
  0
BLOCK
  5
399
330
228
100
AcDbEntity
  8
___SYMBOL
  6
Continuous
 62
     2
100
AcDbBlockBegin
  2
APPLICABLE_STANDARDS_BL5
 70
     0
 10
30.3589816717
 20
8.487344662499999
 30
0.0
  3
APPLICABLE_STANDARDS_BL5
  1

  0
TEXT
  5
39A
330
228
100
AcDbEntity
  8
___SYMBOL
  6
Continuous
 62
     2
100
AcDbText
 10
27.2628493355
 20
9.693929232
 30
0.0
 40
0.15625
  1
APPLICABLE STANDARDS:
 41
0.7182539683
  7
TEXTSTYLE_3
100
AcDbText
  0
TEXT
  5
39B
330
228
100
AcDbEntity
  8
___SYMBOL
  6
Continuous
 62
     2
100
AcDbText
 10
27.4297853465
 20
8.873827121899999
 30
0.0
 40
0.15625
  1
B
 41
0.8
100
AcDbText
  0
TEXT
  5
39C
330
228
100
AcDbEntity
  8
___SYMBOL
  6
Continuous
 62
     2
100
AcDbText
 10
27.4297853465
 20
7.6278090988
 30
0.0
 40
0.15625
  1
E
 41
0.8
100
AcDbText
  0
TEXT
  5
39D
330
228
100
AcDbEntity
  8
___SYMBOL
  6
Continuous
 62
     2
100
AcDbText
 10
27.4297853465
 20
8.454155058099999
 30
0.0
 40
0.15625
  1
C
 41
0.8
100
AcDbText
  0
TEXT
  5
39E
330
228
100
AcDbEntity
  8
___SYMBOL
  6
Continuous
 62
     2
100
AcDbText
 10
27.4228889478
 20
9.278458913999999
 30
0.0
 40
0.15625
  1
A
 41
0.8
100
AcDbText
  0
TEXT
  5
39F
330
228
100
AcDbEntity
  8
___SYMBOL
  6
Continuous
 62
     2
100
AcDbText
 10
27.4297853465
 20
8.042390434199999
 30
0.0
 40
0.15625
  1
D
 41
0.8
100
AcDbText
  0
TEXT
  5
3A0
330
228
100
AcDbEntity
  8
___SYMBOL
  6
Continuous
 62
     2
100
AcDbText
 10
27.8275163097
 20
9.3025395755
 30
0.0
 40
0.15625
  1
H040.001 - SINK/LAV PRODUCT SPECIFICATION
 41
0.8
100
AcDbText
  0
TEXT
  5
3A1
330
228
100
AcDbEntity
  8
___SYMBOL
  6
Continuous
 62
     2
100
AcDbText
 10
27.8274143167
 20
8.884455950499999
 30
0.0
 40
0.15625
  1
G300.055 - SANITARY LOGO SPECIFICATION
 41
0.8
100
AcDbText
  0
TEXT
  5
3A2
330
228
100
AcDbEntity
  8
___SYMBOL
  6
Continuous
 62
     2
100
AcDbText
 10
27.8228568148
 20
8.4651211763
 30
0.0
 40
0.15625
  1
H040.001.5.4 - UNSPECIFIED TOLERANCE-VIT
 41
0.8
100
AcDbText
  0
TEXT
  5
3A3
330
228
100
AcDbEntity
  8
___SYMBOL
  6
Continuous
 62
     2
100
AcDbText
 10
27.8301140079
 20
8.0586941884
 30
0.0
 40
0.15625
  1
GQ.001.P - GLOBAL VITREOUS AESTHETIC STANDARD
 41
0.8
100
AcDbText
  0
TEXT
  5
3A4
330
228
100
AcDbEntity
  8
___SYMBOL
  6
Continuous
 62
     2
100
AcDbText
 10
27.8258913069
 20
7.615859948999999
 30
0.0
 40
0.15625
  1
H040.001.1C.7 - COUNTRY OF ORIGIN
 41
0.8
100
AcDbText
  0
LINE
  5
3A5
330
228
100
AcDbEntity
  8
___SYMBOL
  6
Continuous
 62
     7
100
AcDbLine
 10
27.7154128325
 20
8.8068679621
 30
0.0
 11
27.2658698094
 21
8.8068679621
 31
0.0
  0
LINE
  5
3A6
330
228
100
AcDbEntity
  8
___SYMBOL
  6
Continuous
 62
     7
100
AcDbLine
 10
27.2658698094
 20
8.8068679621
 30
0.0
 11
27.4810901236
 21
9.158352025499999
 31
0.0
  0
LINE
  5
3A7
330
228
100
AcDbEntity
  8
___SYMBOL
  6
Continuous
 62
     7
100
AcDbLine
 10
27.4810901236
 20
9.158352025499999
 30
0.0
 11
27.7154128325
 21
8.8068679621
 31
0.0
  0
LINE
  5
3A8
330
228
100
AcDbEntity
  8
___SYMBOL
  6
Continuous
 62
     7
100
AcDbLine
 10
27.7154128325
 20
7.560849938999999
 30
0.0
 11
27.2658698094
 21
7.560849938999999
 31
0.0
  0
LINE
  5
3A9
330
228
100
AcDbEntity
  8
___SYMBOL
  6
Continuous
 62
     7
100
AcDbLine
 10
27.2658698094
 20
7.560849938999999
 30
0.0
 11
27.4810901236
 21
7.912334002399999
 31
0.0
  0
LINE
  5
3AA
330
228
100
AcDbEntity
  8
___SYMBOL
  6
Continuous
 62
     7
100
AcDbLine
 10
27.4810901236
 20
7.912334002399999
 30
0.0
 11
27.7154128325
 21
7.560849938999999
 31
0.0
  0
LINE
  5
3AB
330
228
100
AcDbEntity
  8
___SYMBOL
  6
Continuous
 62
     7
100
AcDbLine
 10
27.7154128325
 20
8.387195898299999
 30
0.0
 11
27.2658698094
 21
8.387195898299999
 31
0.0
  0
LINE
  5
3AC
330
228
100
AcDbEntity
  8
___SYMBOL
  6
Continuous
 62
     7
100
AcDbLine
 10
27.2658698094
 20
8.387195898299999
 30
0.0
 11
27.4810901236
 21
8.7386799617
 31
0.0
  0
LINE
  5
3AD
330
228
100
AcDbEntity
  8
___SYMBOL
  6
Continuous
 62
     7
100
AcDbLine
 10
27.4810901236
 20
8.7386799617
 30
0.0
 11
27.7154128325
 21
8.387195898299999
 31
0.0
  0
TEXT
  5
3AE
330
228
100
AcDbEntity
  8
___SYMBOL
  6
Continuous
 62
     2
100
AcDbText
 10
27.4228889478
 20
7.180034736499999
 30
0.0
 40
0.15625
  1
F
 41
0.8
100
AcDbText
  0
TEXT
  5
3AF
330
228
100
AcDbEntity
  8
___SYMBOL
  6
Continuous
 62
     2
100
AcDbText
 10
27.8275163097
 20
7.204115397999999
 30
0.0
 40
0.15625
  1
G300.015.3.3 - MARKING VITREOUS PRODUCT
 41
0.8
100
AcDbText
  0
LINE
  5
3B0
330
228
100
AcDbEntity
  8
___SYMBOL
  6
Continuous
 62
     7
100
AcDbLine
 10
27.7154128325
 20
7.124510092999999
 30
0.0
 11
27.2658698094
 21
7.124510092999999
 31
0.0
  0
LINE
  5
3B1
330
228
100
AcDbEntity
  8
___SYMBOL
  6
Continuous
 62
     7
100
AcDbLine
 10
27.2658698094
 20
7.124510092999999
 30
0.0
 11
27.4810901236
 21
7.475994156399999
 31
0.0
  0
LINE
  5
3B2
330
228
100
AcDbEntity
  8
___SYMBOL
  6
Continuous
 62
     7
100
AcDbLine
 10
27.4810901236
 20
7.475994156399999
 30
0.0
 11
27.7154128325
 21
7.124510092999999
 31
0.0
  0
ENDBLK
  5
3B3
330
228
100
AcDbEntity
  8
0
  6
ByBlock
 62
     0
100
AcDbBlockEnd
  0
BLOCK
  5
3B4
330
229
100
AcDbEntity
  8
___SYMBOL
  6
Continuous
 62
     2
100
AcDbBlockBegin
  2
CHARACTERISTIC_BL6
 70
     0
 10
29.064629035
 20
6.433774065899999
 30
0.0
  3
CHARACTERISTIC_BL6
  1

  0
TEXT
  5
3B5
330
229
100
AcDbEntity
  8
___SYMBOL
  6
Continuous
 62
     2
100
AcDbText
 10
28.9993237
 20
6.494927678799999
 30
0.0
 40
0.15625
  1
5
 41
0.8
100
AcDbText
  0
LINE
  5
3B6
330
229
100
AcDbEntity
  8
___SYMBOL
  6
Continuous
 62
     7
100
AcDbLine
 10
28.9296289494
 20
6.7037742372
 30
0.0
 11
28.9296289494
 21
6.1637738947
 31
0.0
  0
LINE
  5
3B7
330
229
100
AcDbEntity
  8
___SYMBOL
  6
Continuous
 62
     7
100
AcDbLine
 10
28.9296289494
 20
6.1637738947
 30
0.0
 11
29.1996291207
 21
6.1637738947
 31
0.0
  0
LINE
  5
3B8
330
229
100
AcDbEntity
  8
___SYMBOL
  6
Continuous
 62
     7
100
AcDbLine
 10
28.9296289494
 20
6.433774065899999
 30
0.0
 11
29.1996291207
 21
6.433774065899999
 31
0.0
  0
LINE
  5
3B9
330
229
100
AcDbEntity
  8
___SYMBOL
  6
Continuous
 62
     7
100
AcDbLine
 10
28.9296289494
 20
6.7037742372
 30
0.0
 11
29.1996291207
 21
6.7037742372
 31
0.0
  0
LINE
  5
3BA
330
229
100
AcDbEntity
  8
___SYMBOL
  6
Continuous
 62
     7
100
AcDbLine
 10
29.1996291207
 20
6.1637738947
 30
0.0
 11
29.1996291207
 21
6.7037742372
 31
0.0
  0
ENDBLK
  5
3BB
330
229
100
AcDbEntity
  8
0
  6
ByBlock
 62
     0
100
AcDbBlockEnd
  0
BLOCK
  5
3BC
330
22A
100
AcDbEntity
  8
___SYMBOL
  6
Continuous
 62
     2
100
AcDbBlockBegin
  2
CHARACTERISTIC_BL7
 70
     0
 10
7.0843358581
 20
20.0708830499
 30
0.0
  3
CHARACTERISTIC_BL7
  1

  0
TEXT
  5
3BD
330
22A
100
AcDbEntity
  8
___SYMBOL
  6
Continuous
 62
     2
100
AcDbText
 10
7.019030523099999
 20
20.1320366628
 30
0.0
 40
0.15625
  1
4
 41
0.8
100
AcDbText
  0
LINE
  5
3BE
330
22A
100
AcDbEntity
  8
___SYMBOL
  6
Continuous
 62
     7
100
AcDbLine
 10
6.949335772499999
 20
20.3408832212
 30
0.0
 11
6.949335772499999
 21
19.8008828786
 31
0.0
  0
LINE
  5
3BF
330
22A
100
AcDbEntity
  8
___SYMBOL
  6
Continuous
 62
     7
100
AcDbLine
 10
6.949335772499999
 20
19.8008828786
 30
0.0
 11
7.219335943799999
 21
19.8008828786
 31
0.0
  0
LINE
  5
3C0
330
22A
100
AcDbEntity
  8
___SYMBOL
  6
Continuous
 62
     7
100
AcDbLine
 10
6.949335772499999
 20
20.0708830499
 30
0.0
 11
7.219335943799999
 21
20.0708830499
 31
0.0
  0
LINE
  5
3C1
330
22A
100
AcDbEntity
  8
___SYMBOL
  6
Continuous
 62
     7
100
AcDbLine
 10
6.949335772499999
 20
20.3408832212
 30
0.0
 11
7.219335943799999
 21
20.3408832212
 31
0.0
  0
LINE
  5
3C2
330
22A
100
AcDbEntity
  8
___SYMBOL
  6
Continuous
 62
     7
100
AcDbLine
 10
7.219335943799999
 20
19.8008828786
 30
0.0
 11
7.219335943799999
 21
20.3408832212
 31
0.0
  0
ENDBLK
  5
3C3
330
22A
100
AcDbEntity
  8
0
  6
ByBlock
 62
     0
100
AcDbBlockEnd
  0
BLOCK
  5
3C4
330
22B
100
AcDbEntity
  8
___SYMBOL
  6
Continuous
 62
     2
100
AcDbBlockBegin
  2
CHARACTERISTIC_BL8
 70
     0
 10
17.57438561
 20
13.3487694345
 30
0.0
  3
CHARACTERISTIC_BL8
  1

  0
TEXT
  5
3C5
330
22B
100
AcDbEntity
  8
___SYMBOL
  6
Continuous
 62
     2
100
AcDbText
 10
17.5090802749
 20
13.4099230474
 30
0.0
 40
0.15625
  1
3
 41
0.8
100
AcDbText
  0
LINE
  5
3C6
330
22B
100
AcDbEntity
  8
___SYMBOL
  6
Continuous
 62
     7
100
AcDbLine
 10
17.4393855244
 20
13.6187696058
 30
0.0
 11
17.4393855244
 21
13.0787692633
 31
0.0
  0
LINE
  5
3C7
330
22B
100
AcDbEntity
  8
___SYMBOL
  6
Continuous
 62
     7
100
AcDbLine
 10
17.4393855244
 20
13.0787692633
 30
0.0
 11
17.7093856956
 21
13.0787692633
 31
0.0
  0
LINE
  5
3C8
330
22B
100
AcDbEntity
  8
___SYMBOL
  6
Continuous
 62
     7
100
AcDbLine
 10
17.4393855244
 20
13.3487694345
 30
0.0
 11
17.7093856956
 21
13.3487694345
 31
0.0
  0
LINE
  5
3C9
330
22B
100
AcDbEntity
  8
___SYMBOL
  6
Continuous
 62
     7
100
AcDbLine
 10
17.4393855244
 20
13.6187696058
 30
0.0
 11
17.7093856956
 21
13.6187696058
 31
0.0
  0
LINE
  5
3CA
330
22B
100
AcDbEntity
  8
___SYMBOL
  6
Continuous
 62
     7
100
AcDbLine
 10
17.7093856956
 20
13.0787692633
 30
0.0
 11
17.7093856956
 21
13.6187696058
 31
0.0
  0
ENDBLK
  5
3CB
330
22B
100
AcDbEntity
  8
0
  6
ByBlock
 62
     0
100
AcDbBlockEnd
  0
BLOCK
  5
3CC
330
22C
100
AcDbEntity
  8
___SYMBOL
  6
Continuous
 62
     2
100
AcDbBlockBegin
  2
REVISION_BL9
 70
     0
 10
6.994314824099999
 20
20.5972700956
 30
0.0
  3
REVISION_BL9
  1

  0
TEXT
  5
3CD
330
22C
100
AcDbEntity
  8
___SYMBOL
  6
Continuous
 62
     2
100
AcDbText
 10
6.8756685248
 20
20.5181958884
 30
0.0
 40
0.15625
  1
A1
 41
0.8
100
AcDbText
  0
LINE
  5
3CE
330
22C
100
AcDbEntity
  8
___SYMBOL
  6
Continuous
 62
     7
100
AcDbLine
 10
6.855368540499999
 20
20.4822700956
 30
0.0
 11
6.7968148241
 21
20.540823812
 31
0.0
  0
LINE
  5
3CF
330
22C
100
AcDbEntity
  8
___SYMBOL
  6
Continuous
 62
     7
100
AcDbLine
 10
6.7968148241
 20
20.6537163793
 30
0.0
 11
6.7968148241
 21
20.540823812
 31
0.0
  0
LINE
  5
3D0
330
22C
100
AcDbEntity
  8
___SYMBOL
  6
Continuous
 62
     7
100
AcDbLine
 10
6.855368540499999
 20
20.7122700956
 30
0.0
 11
6.7968148241
 21
20.6537163793
 31
0.0
  0
LINE
  5
3D1
330
22C
100
AcDbEntity
  8
___SYMBOL
  6
Continuous
 62
     7
100
AcDbLine
 10
7.1332611078
 20
20.4822700956
 30
0.0
 11
7.191814824099999
 21
20.540823812
 31
0.0
  0
LINE
  5
3D2
330
22C
100
AcDbEntity
  8
___SYMBOL
  6
Continuous
 62
     7
100
AcDbLine
 10
7.191814824099999
 20
20.6537163793
 30
0.0
 11
7.191814824099999
 21
20.540823812
 31
0.0
  0
LINE
  5
3D3
330
22C
100
AcDbEntity
  8
___SYMBOL
  6
Continuous
 62
     7
100
AcDbLine
 10
7.1332611078
 20
20.7122700956
 30
0.0
 11
7.191814824099999
 21
20.6537163793
 31
0.0
  0
LINE
  5
3D4
330
22C
100
AcDbEntity
  8
___SYMBOL
  6
Continuous
 62
     7
100
AcDbLine
 10
6.855368540499999
 20
20.7122700956
 30
0.0
 11
7.1332611078
 21
20.7122700956
 31
0.0
  0
LINE
  5
3D5
330
22C
100
AcDbEntity
  8
___SYMBOL
  6
Continuous
 62
     7
100
AcDbLine
 10
7.1332611078
 20
20.4822700956
 30
0.0
 11
6.855368540499999
 21
20.4822700956
 31
0.0
  0
ENDBLK
  5
3D6
330
22C
100
AcDbEntity
  8
0
  6
ByBlock
 62
     0
100
AcDbBlockEnd
  0
BLOCK
  5
3D7
330
22D
100
AcDbEntity
  8
___SYMBOL
  6
Continuous
 62
     2
100
AcDbBlockBegin
  2
CHARACTERISTIC_BL10
 70
     0
 10
28.3056524584
 20
13.9736622498
 30
0.0
  3
CHARACTERISTIC_BL10
  1

  0
TEXT
  5
3D8
330
22D
100
AcDbEntity
  8
___SYMBOL
  6
Continuous
 62
     2
100
AcDbText
 10
28.2403471233
 20
14.0348158627
 30
0.0
 40
0.15625
  1
1
 41
0.8
100
AcDbText
  0
LINE
  5
3D9
330
22D
100
AcDbEntity
  8
___SYMBOL
  6
Continuous
 62
     7
100
AcDbLine
 10
28.1706523727
 20
14.243662421
 30
0.0
 11
28.1706523727
 21
13.7036620785
 31
0.0
  0
LINE
  5
3DA
330
22D
100
AcDbEntity
  8
___SYMBOL
  6
Continuous
 62
     7
100
AcDbLine
 10
28.1706523727
 20
13.7036620785
 30
0.0
 11
28.440652544
 21
13.7036620785
 31
0.0
  0
LINE
  5
3DB
330
22D
100
AcDbEntity
  8
___SYMBOL
  6
Continuous
 62
     7
100
AcDbLine
 10
28.1706523727
 20
13.9736622498
 30
0.0
 11
28.440652544
 21
13.9736622498
 31
0.0
  0
LINE
  5
3DC
330
22D
100
AcDbEntity
  8
___SYMBOL
  6
Continuous
 62
     7
100
AcDbLine
 10
28.1706523727
 20
14.243662421
 30
0.0
 11
28.440652544
 21
14.243662421
 31
0.0
  0
LINE
  5
3DD
330
22D
100
AcDbEntity
  8
___SYMBOL
  6
Continuous
 62
     7
100
AcDbLine
 10
28.440652544
 20
13.7036620785
 30
0.0
 11
28.440652544
 21
14.243662421
 31
0.0
  0
ENDBLK
  5
3DE
330
22D
100
AcDbEntity
  8
0
  6
ByBlock
 62
     0
100
AcDbBlockEnd
  0
BLOCK
  5
3DF
330
22E
100
AcDbEntity
  8
___SYMBOL
  6
Continuous
 62
     2
100
AcDbBlockBegin
  2
CHARACTERISTIC_BL11
 70
     0
 10
28.2874285171
 20
11.4238444392
 30
0.0
  3
CHARACTERISTIC_BL11
  1

  0
TEXT
  5
3E0
330
22E
100
AcDbEntity
  8
___SYMBOL
  6
Continuous
 62
     2
100
AcDbText
 10
28.2221231821
 20
11.484998052
 30
0.0
 40
0.15625
  1
2
 41
0.8
100
AcDbText
  0
LINE
  5
3E1
330
22E
100
AcDbEntity
  8
___SYMBOL
  6
Continuous
 62
     7
100
AcDbLine
 10
28.1524284315
 20
11.6938446104
 30
0.0
 11
28.1524284315
 21
11.1538442679
 31
0.0
  0
LINE
  5
3E2
330
22E
100
AcDbEntity
  8
___SYMBOL
  6
Continuous
 62
     7
100
AcDbLine
 10
28.1524284315
 20
11.1538442679
 30
0.0
 11
28.4224286028
 21
11.1538442679
 31
0.0
  0
LINE
  5
3E3
330
22E
100
AcDbEntity
  8
___SYMBOL
  6
Continuous
 62
     7
100
AcDbLine
 10
28.1524284315
 20
11.4238444392
 30
0.0
 11
28.4224286028
 21
11.4238444392
 31
0.0
  0
LINE
  5
3E4
330
22E
100
AcDbEntity
  8
___SYMBOL
  6
Continuous
 62
     7
100
AcDbLine
 10
28.1524284315
 20
11.6938446104
 30
0.0
 11
28.4224286028
 21
11.6938446104
 31
0.0
  0
LINE
  5
3E5
330
22E
100
AcDbEntity
  8
___SYMBOL
  6
Continuous
 62
     7
100
AcDbLine
 10
28.4224286028
 20
11.1538442679
 30
0.0
 11
28.4224286028
 21
11.6938446104
 31
0.0
  0
ENDBLK
  5
3E6
330
22E
100
AcDbEntity
  8
0
  6
ByBlock
 62
     0
100
AcDbBlockEnd
  0
BLOCK
  5
3E7
330
22F
100
AcDbEntity
  8
___SYMBOL
  6
Continuous
 62
     2
100
AcDbBlockBegin
  2
CHARACTERISTIC_BL12
 70
     0
 10
22.0664754506
 20
7.830968914199999
 30
0.0
  3
CHARACTERISTIC_BL12
  1

  0
TEXT
  5
3E8
330
22F
100
AcDbEntity
  8
___SYMBOL
  6
Continuous
 62
     2
100
AcDbText
 10
22.0011701156
 20
7.892122527099999
 30
0.0
 40
0.15625
  1
5
 41
0.8
100
AcDbText
  0
LINE
  5
3E9
330
22F
100
AcDbEntity
  8
___SYMBOL
  6
Continuous
 62
     7
100
AcDbLine
 10
21.931475365
 20
8.100969085499999
 30
0.0
 11
21.931475365
 21
7.5609687429
 31
0.0
  0
LINE
  5
3EA
330
22F
100
AcDbEntity
  8
___SYMBOL
  6
Continuous
 62
     7
100
AcDbLine
 10
21.931475365
 20
7.5609687429
 30
0.0
 11
22.2014755362
 21
7.5609687429
 31
0.0
  0
LINE
  5
3EB
330
22F
100
AcDbEntity
  8
___SYMBOL
  6
Continuous
 62
     7
100
AcDbLine
 10
21.931475365
 20
7.830968914199999
 30
0.0
 11
22.2014755362
 21
7.830968914199999
 31
0.0
  0
LINE
  5
3EC
330
22F
100
AcDbEntity
  8
___SYMBOL
  6
Continuous
 62
     7
100
AcDbLine
 10
21.931475365
 20
8.100969085499999
 30
0.0
 11
22.2014755362
 21
8.100969085499999
 31
0.0
  0
LINE
  5
3ED
330
22F
100
AcDbEntity
  8
___SYMBOL
  6
Continuous
 62
     7
100
AcDbLine
 10
22.2014755362
 20
7.5609687429
 30
0.0
 11
22.2014755362
 21
8.100969085499999
 31
0.0
  0
ENDBLK
  5
3EE
330
22F
100
AcDbEntity
  8
0
  6
ByBlock
 62
     0
100
AcDbBlockEnd
  0
BLOCK
  5
3EF
330
230
100
AcDbEntity
  8
___SYMBOL
  6
Continuous
 62
     2
100
AcDbBlockBegin
  2
DELTA_BL13
 70
     0
 10
6.1769944471
 20
7.3700476736
 30
0.0
  3
DELTA_BL13
  1

  0
TEXT
  5
3F0
330
230
100
AcDbEntity
  8
___SYMBOL
  6
Continuous
 62
     2
100
AcDbText
 10
6.108546271899999
 20
7.236919263299999
 30
0.0
 40
0.15625
  1
B
 41
0.8
100
AcDbText
  0
LINE
  5
3F1
330
230
100
AcDbEntity
  8
___SYMBOL
  6
Continuous
 62
     7
100
AcDbLine
 10
6.4017659587
 20
7.194305641899999
 30
0.0
 11
5.9522229356
 21
7.194305641899999
 31
0.0
  0
LINE
  5
3F2
330
230
100
AcDbEntity
  8
___SYMBOL
  6
Continuous
 62
     7
100
AcDbLine
 10
5.9522229356
 20
7.194305641899999
 30
0.0
 11
6.167443249799999
 21
7.545789705299999
 31
0.0
  0
LINE
  5
3F3
330
230
100
AcDbEntity
  8
___SYMBOL
  6
Continuous
 62
     7
100
AcDbLine
 10
6.167443249799999
 20
7.545789705299999
 30
0.0
 11
6.4017659587
 21
7.194305641899999
 31
0.0
  0
ENDBLK
  5
3F4
330
230
100
AcDbEntity
  8
0
  6
ByBlock
 62
     0
100
AcDbBlockEnd
  0
BLOCK
  5
3F5
330
231
100
AcDbEntity
  8
___SYMBOL
  6
Continuous
 62
     2
100
AcDbBlockBegin
  2
REVISION_BL14
 70
     0
 10
3.9876458648
 20
2.7530033123
 30
0.0
  3
REVISION_BL14
  1

  0
TEXT
  5
3F6
330
231
100
AcDbEntity
  8
___SYMBOL
  6
Continuous
 62
     2
100
AcDbText
 10
3.868999565399999
 20
2.673929105
 30
0.0
 40
0.15625
  1
A2
 41
0.8
100
AcDbText
  0
LINE
  5
3F7
330
231
100
AcDbEntity
  8
___SYMBOL
  6
Continuous
 62
     7
100
AcDbLine
 10
3.848699581099999
 20
2.638003312299999
 30
0.0
 11
3.790145864799999
 21
2.6965570286
 31
0.0
  0
LINE
  5
3F8
330
231
100
AcDbEntity
  8
___SYMBOL
  6
Continuous
 62
     7
100
AcDbLine
 10
3.790145864799999
 20
2.809449595899999
 30
0.0
 11
3.790145864799999
 21
2.6965570286
 31
0.0
  0
LINE
  5
3F9
330
231
100
AcDbEntity
  8
___SYMBOL
  6
Continuous
 62
     7
100
AcDbLine
 10
3.848699581099999
 20
2.868003312299999
 30
0.0
 11
3.790145864799999
 21
2.809449595899999
 31
0.0
  0
LINE
  5
3FA
330
231
100
AcDbEntity
  8
___SYMBOL
  6
Continuous
 62
     7
100
AcDbLine
 10
4.1265921484
 20
2.638003312299999
 30
0.0
 11
4.185145864799999
 21
2.6965570286
 31
0.0
  0
LINE
  5
3FB
330
231
100
AcDbEntity
  8
___SYMBOL
  6
Continuous
 62
     7
100
AcDbLine
 10
4.185145864799999
 20
2.809449595899999
 30
0.0
 11
4.185145864799999
 21
2.6965570286
 31
0.0
  0
LINE
  5
3FC
330
231
100
AcDbEntity
  8
___SYMBOL
  6
Continuous
 62
     7
100
AcDbLine
 10
4.1265921484
 20
2.868003312299999
 30
0.0
 11
4.185145864799999
 21
2.809449595899999
 31
0.0
  0
LINE
  5
3FD
330
231
100
AcDbEntity
  8
___SYMBOL
  6
Continuous
 62
     7
100
AcDbLine
 10
3.848699581099999
 20
2.868003312299999
 30
0.0
 11
4.1265921484
 21
2.868003312299999
 31
0.0
  0
LINE
  5
3FE
330
231
100
AcDbEntity
  8
___SYMBOL
  6
Continuous
 62
     7
100
AcDbLine
 10
4.1265921484
 20
2.638003312299999
 30
0.0
 11
3.848699581099999
 21
2.638003312299999
 31
0.0
  0
ENDBLK
  5
3FF
330
231
100
AcDbEntity
  8
0
  6
ByBlock
 62
     0
100
AcDbBlockEnd
  0
BLOCK
  5
400
330
210
100
AcDbEntity
  8
0
100
AcDbBlockBegin
  2
_FILLED
 70
     0
 10
0.0
 20
0.0
 30
0.0
  3
_FILLED
  1

  0
SOLID
  5
401
330
210
100
AcDbEntity
  8
0
  6
ByBlock
 62
     0
100
AcDbTrace
 10
0.0
 20
0.0
 30
0.0
 11
-1.0
 21
0.1666666667
 31
0.0
 12
-1.0
 22
-0.1666666667
 32
0.0
 13
-1.0
 23
-0.1666666667
 33
0.0
  0
ENDBLK
  5
402
330
210
100
AcDbEntity
  8
0
  6
ByBlock
 62
     0
100
AcDbBlockEnd
  0
BLOCK
  5
CE4
330
CE2
100
AcDbEntity
  8
0
370
     0
100
AcDbBlockBegin
  2
GENAXEH
 70
     0
 10
0.0
 20
0.0
 30
0.0
  3
GENAXEH
  1

  0
LINE
  5
CE3
330
CE2
100
AcDbEntity
  8
0
100
AcDbLine
 10
-1.0
 20
0.0
 30
0.0
 11
1.0
 21
0.0
 31
0.0
  0
ENDBLK
  5
CE5
330
CE2
100
AcDbEntity
  8
0
370
     0
100
AcDbBlockEnd
  0
ENDSEC
  0
SECTION
  2
ENTITIES
  0
TEXT
  5
47F
330
1F
100
AcDbEntity
  8
0
  6
Continuous
 62
     2
100
AcDbText
 10
28.2966666667
 20
2.049999999999999
 30
0.0
 40
0.1
  1
 
 41
0.8
100
AcDbText
  0
TEXT
  5
490
330
1F
100
AcDbEntity
  8
0
  6
Continuous
 62
     2
100
AcDbText
 10
26.4309802092
 20
15.4921865663
 30
0.0
 40
0.15625
  1
 
 41
0.75
100
AcDbText
  0
TEXT
  5
495
330
1F
100
AcDbEntity
  8
0
  6
Continuous
 62
     2
100
AcDbText
 10
21.1117279926
 20
20.1214049783
 30
0.0
 40
0.15625
  1
 
 41
0.75
100
AcDbText
  0
LINE
  5
501
330
1F
100
AcDbEntity
  8
0
  6
Continuous
 62
     7
100
AcDbLine
 10
1.817698702899999
 20
19.4614887135
 30
0.0
 11
1.817698702899999
 21
9.003350971899999
 31
0.0
  0
LINE
  5
505
330
1F
100
AcDbEntity
  8
0
  6
Continuous
 62
     7
100
AcDbLine
 10
2.5713257811
 20
18.5764482901
 30
0.0
 11
2.571325779799999
 21
9.753401523
 31
0.0
  0
LWPOLYLINE
  5
506
330
1F
100
AcDbEntity
  8
0
  6
Continuous
 62
     7
100
AcDbPolyline
 90
       31
 70
     0
 43
0.0
 10
1.888245263199999
 20
8.9154785442
 10
2.1243210648
 20
8.864102736099999
 10
2.364024931899999
 20
8.8137472079
 10
2.6040921287
 20
8.765134646799999
 10
2.844508720099999
 20
8.718267883699999
 10
3.0852620746
 20
8.6731493889
 10
3.3263397958
 20
8.629781557899999
 10
3.567729869899999
 20
8.588166668899999
 10
3.809419170399999
 20
8.548307006799999
 10
4.051393626
 20
8.5102049485
 10
4.29364036
 20
8.473862610199999
 10
4.5361465862
 20
8.439281900799999
 10
4.77889836
 20
8.406464834299999
 10
5.0218827906
 20
8.375413211099999
 10
5.265087130699999
 20
8.346128625
 10
5.5084976445
 20
8.3186127353
 10
5.7521011987
 20
8.292867064999999
 10
5.995885177599999
 20
8.2688928896
 10
6.23983662
 20
8.2466914764
 10
6.483942602299999
 20
8.2262640397
 10
6.7281902839
 20
8.207611600899999
 10
6.972566828099999
 20
8.1907351364
 10
7.2170593385
 20
8.175635577399999
 10
7.461654786599999
 20
8.162313667699999
 10
7.706340137799999
 20
8.150770103399999
 10
7.951102075499999
 20
8.1410055478
 10
8.195928394699999
 20
8.133020446199999
 10
8.440807728799999
 20
8.1268151927
 10
8.6857276047
 20
8.122390174799999
 10
8.9306733464
 20
8.119745600899999
 10
9.172000974599999
 20
8.118881425199999
  0
LWPOLYLINE
  5
509
330
1F
100
AcDbEntity
  8
0
  6
Continuous
 62
     7
100
AcDbPolyline
 90
       31
 70
     0
 43
0.0
 10
9.172000974599999
 20
8.118881425199999
 10
9.4133286029
 20
8.119745600899999
 10
9.6582743445
 20
8.122390174799999
 10
9.903194220499999
 20
8.1268151927
 10
10.1480735546
 20
8.133020446199999
 10
10.3928998737
 20
8.1410055478
 10
10.6376618115
 20
8.150770103399999
 10
10.8823471627
 20
8.162313667699999
 10
11.1269426108
 20
8.175635577399999
 10
11.3714351212
 20
8.1907351364
 10
11.6158116654
 20
8.207611600899999
 10
11.860059347
 20
8.2262640397
 10
12.1041653293
 20
8.2466914764
 10
12.3481167716
 20
8.2688928896
 10
12.5919007506
 20
8.292867064999999
 10
12.8355043047
 20
8.3186127353
 10
13.0789148186
 20
8.346128625
 10
13.3221191587
 20
8.375413211099999
 10
13.5651035893
 20
8.406464834299999
 10
13.8078553631
 20
8.439281900799999
 10
14.0503615893
 20
8.473862610199999
 10
14.2926083233
 20
8.5102049485
 10
14.5345827788
 20
8.548307006799999
 10
14.7762720794
 20
8.588166668899999
 10
15.0176621534
 20
8.629781557899999
 10
15.2587398747
 20
8.6731493889
 10
15.4994932292
 20
8.718267883699999
 10
15.7399098206
 20
8.765134646799999
 10
15.9799770174
 20
8.8137472079
 10
16.2196808845
 20
8.864102736099999
 10
16.4557566861
 20
8.9154785442
  0
LINE
  5
533
330
1F
100
AcDbEntity
  8
0
  6
Continuous
 62
     7
100
AcDbLine
 10
15.7726761681
 20
18.5764482901
 30
0.0
 11
15.7726761694
 21
9.753401523
 31
0.0
  0
LINE
  5
537
330
1F
100
AcDbEntity
  8
0
  6
Continuous
 62
     7
100
AcDbLine
 10
16.5263032464
 20
9.003350971899999
 30
0.0
 11
16.5263032464
 21
19.4614887135
 31
0.0
  0
ARC
  5
6B0
330
1F
100
AcDbEntity
  8
0
  6
Continuous
 62
     7
100
AcDbCircle
 10
9.172000974599999
 20
-431.5568163033
 30
0.0
 40
451.1668022718
100
AcDbArc
 50
89.0772483707
 51
90.92275162929999
  0
ARC
  5
6B4
330
1F
100
AcDbEntity
  8
0
  6
Continuous
 62
     7
100
AcDbCircle
 10
1.9076987029
 20
19.4614887135
 30
0.0
 40
0.09
100
AcDbArc
 50
91.0317404641
 51
179.8910111637
  0
ARC
  5
6B5
330
1F
100
AcDbEntity
  8
0
  6
Continuous
 62
     7
100
AcDbCircle
 10
1.9076987029
 20
9.003350971899999
 30
0.0
 40
0.09
100
AcDbArc
 50
180.0890029831
 51
257.4279673676
  0
ARC
  5
6B6
330
1F
100
AcDbEntity
  8
0
  6
Continuous
 62
     7
100
AcDbCircle
 10
16.4363032464
 20
9.003350971899999
 30
0.0
 40
0.09
100
AcDbArc
 50
282.5720326324
 51
359.9109970169
  0
ARC
  5
6B7
330
1F
100
AcDbEntity
  8
0
  6
Continuous
 62
     7
100
AcDbCircle
 10
16.4363032464
 20
19.4614887135
 30
0.0
 40
0.09
100
AcDbArc
 50
0.1089888363
 51
88.96825953590001
  0
SPLINE
  5
70D
330
1F
100
AcDbEntity
  8
0
  6
Continuous
 62
     7
100
AcDbSpline
210
0.0
220
0.0
230
1.0
 70
     8
 71
     3
 72
    58
 73
    54
 74
    52
 42
0.0000000001
 43
0.0000000001
 44
0.0000000001
 12
-0.7351975115207106
 22
-0.6778529479568225
 32
0.0
 13
-0.836901812776245
 23
-0.5473530449096224
 33
0.0
 40
0.0
 40
0.0
 40
0.0
 40
0.0
 40
0.0977548915465414
 40
0.1872500532871018
 40
0.2693444062422152
 40
0.3446950216524813
 40
0.4139194308057827
 40
0.4775632998820261
 40
0.5361194071413945
 40
0.5900308342663968
 40
0.6396973813446421
 40
0.6854802259328202
 40
0.7277061961206024
 40
0.7666715022818219
 40
0.8026450089042103
 40
0.8358711045143575
 40
0.8665722292771341
 40
0.8949511055880128
 40
0.9211927111182294
 40
0.9454660268963102
 40
0.9679255897878181
 40
0.9887128578547351
 40
1.007957423234348
 40
1.025778140748994
 40
1.042284116779263
 40
1.057575592746601
 40
1.07174474052988
 40
1.084876356048216
 40
1.097048450013526
 40
1.108332885738814
 40
1.118795928548871
 40
1.128498724402537
 40
1.137497637409379
 40
1.145844675397749
 40
1.153587880244699
 40
1.160771680038805
 40
1.167437127738525
 40
1.173621911175292
 40
1.179360975217411
 40
1.184686905960405
 40
1.189629052019101
 40
1.194213968907578
 40
1.198465608885132
 40
1.202406197564887
 40
1.20605605221299
 40
1.209432550663297
 40
1.21255045614017
 40
1.215420482367464
 40
1.21804501853278
 40
1.220427950852169
 40
1.222621565458264
 40
1.224661273779543
 40
1.226564175044762
 40
1.226564175044762
 40
1.226564175044762
 40
1.226564175044762
 10
15.1800753399
 20
18.2914997211
 30
0.0
 10
15.15611895556533
 20
18.26941190729599
 30
0.0
 10
15.11023768568163
 20
18.22709463174287
 30
0.0
 10
15.04426621111756
 20
18.16619736509638
 30
0.0
 10
14.98380327716869
 20
18.11034285851007
 30
0.0
 10
14.92832212831483
 20
18.05905327983893
 30
0.0
 10
14.8773731260019
 20
18.01192119389819
 30
0.0
 10
14.83054756830905
 20
17.96857555348615
 30
0.0
 10
14.78747998694301
 20
17.92868420347327
 30
0.0
 10
14.74784109212996
 20
17.89194747765255
 30
0.0
 10
14.71133420495104
 20
17.85809505381084
 30
0.0
 10
14.67769144150057
 20
17.82688254589485
 30
0.0
 10
14.64667056070799
 20
17.79808869572111
 30
0.0
 10
14.6180521609163
 20
17.77151286851414
 30
0.0
 10
14.59163722318479
 20
17.74697286228436
 30
0.0
 10
14.56724495878422
 20
17.72430297939405
 30
0.0
 10
14.54471091334475
 20
17.70335233172172
 30
0.0
 10
14.52388529565784
 20
17.68398334318333
 30
0.0
 10
14.50463150180086
 20
17.66607042372231
 30
0.0
 10
14.48682480592783
 20
17.64949879595776
 30
0.0
 10
14.47035120510685
 20
17.63416345359823
 30
0.0
 10
14.45510639533653
 20
17.61996824073919
 30
0.0
 10
14.44099485360749
 20
17.60682502458131
 30
0.0
 10
14.42792901485552
 20
17.59465295037706
 30
0.0
 10
14.41582852934303
 20
17.58337777110878
 30
0.0
 10
14.40461960419016
 20
17.57293124976208
 30
0.0
 10
14.39423441670346
 20
17.56325062892211
 30
0.0
 10
14.3846106016989
 20
17.55427816408499
 30
0.0
 10
14.37569077670689
 20
17.545960693372
 30
0.0
 10
14.3674221042951
 20
17.53824923789927
 30
0.0
 10
14.35975588169209
 20
17.5310986276715
 30
0.0
 10
14.35264720453782
 20
17.5244671947513
 30
0.0
 10
14.34605466092833
 20
17.51831649446824
 30
0.0
 10
14.3399400481192
 20
17.51261104548166
 30
0.0
 10
14.33426808522774
 20
17.50731806697337
 30
0.0
 10
14.32900617227355
 20
17.50240725750176
 30
0.0
 10
14.32412424261352
 20
17.4978506595903
 30
0.0
 10
14.3195945480989
 20
17.49362246449524
 30
0.0
 10
14.3153914116449
 20
17.48969878078919
 30
0.0
 10
14.31149119381033
 20
17.48605760781624
 30
0.0
 10
14.30787230513518
 20
17.48267884695183
 30
0.0
 10
14.3045152632339
 20
17.47954435992494
 30
0.0
 10
14.30140232780614
 20
17.47663762160442
 30
0.0
 10
14.29851727415244
 20
17.4739435310512
 30
0.0
 10
14.29584550526545
 20
17.47144845359011
 30
0.0
 10
14.2933741700712
 20
17.46914053478977
 30
0.0
 10
14.29109300437748
 20
17.46700982265158
 30
0.0
 10
14.28899458759644
 20
17.46505069883285
 30
0.0
 10
14.28707680801456
 20
17.4632569803138
 30
0.0
 10
14.28534926251671
 20
17.46159038099155
 30
0.0
 10
14.28371292102439
 20
17.46011064940318
 30
0.0
 10
14.28212190532328
 20
17.45882330182399
 30
0.0
 10
14.2810477713728
 20
17.45806401256723
 30
0.0
 10
14.2805169242
 20
17.4577168263
 30
0.0
 11
15.1800753399
 21
18.2914997211
 31
0.0
 11
15.1082185881
 21
18.2252228319
 31
0.0
 11
15.0424574711
 21
18.1645197886
 31
0.0
 11
14.9821555803
 21
18.1088137319
 31
0.0
 11
14.9268256689
 21
18.057663794
 31
0.0
 11
14.876010264
 21
18.0106551411
 31
0.0
 11
14.8293053083
 21
17.9674210205
 31
0.0
 11
14.78634613
 21
17.9276299826
 31
0.0
 11
14.7468050178
 21
17.8909838038
 31
0.0
 11
14.7103864407
 21
17.857213208
 31
0.0
 11
14.6768235664
 21
17.8260747699
 31
0.0
 11
14.645875072
 21
17.7973480706
 31
0.0
 11
14.6173223599
 21
17.7708332122
 31
0.0
 11
14.5909671167
 21
17.7463486388
 31
0.0
 11
14.5666291743
 21
17.7237292226
 31
0.0
 11
14.5441446259
 21
17.7028245785
 31
0.0
 11
14.5233641646
 21
17.6834975754
 31
0.0
 11
14.504151615
 21
17.6656230181
 31
0.0
 11
14.4863826321
 21
17.6490864796
 31
0.0
 11
14.4699435475
 21
17.6337832622
 31
0.0
 11
14.4547303543
 21
17.6196174842
 31
0.0
 11
14.440647806
 21
17.6065012679
 31
0.0
 11
14.4276085795
 21
17.5943539824
 31
0.0
 11
14.4155325414
 21
17.5831015805
 31
0.0
 11
14.4043460933
 21
17.5726760054
 31
0.0
 11
14.3939815823
 21
17.5630146566
 31
0.0
 11
14.3843767876
 21
17.5540599235
 31
0.0
 11
14.3754744827
 21
17.5457587887
 31
0.0
 11
14.3672219644
 21
17.5380623979
 31
0.0
 11
14.3595706469
 21
17.5309256896
 31
0.0
 11
14.3524757083
 21
17.5243070724
 31
0.0
 11
14.3458958407
 21
17.5181681981
 31
0.0
 11
14.3397929366
 21
17.512473674
 31
0.0
 11
14.3341318011
 21
17.5071907992
 31
0.0
 11
14.3288798926
 21
17.5022893263
 31
0.0
 11
14.3240071468
 21
17.4977413002
 31
0.0
 11
14.3194859675
 21
17.4935210533
 31
0.0
 11
14.3152907711
 21
17.4896047817
 31
0.0
 11
14.3113977043
 21
17.4859702846
 31
0.0
 11
14.3077852857
 21
17.4825975647
 31
0.0
 11
14.3044340799
 21
17.4794685261
 31
0.0
 11
14.3013265584
 21
17.4765668451
 31
0.0
 11
14.2984464577
 21
17.4738773732
 31
0.0
 11
14.2957789123
 21
17.4713862609
 31
0.0
 11
14.2933112072
 21
17.4690816626
 31
0.0
 11
14.2910325405
 21
17.4669535149
 31
0.0
 11
14.2889350715
 21
17.4649945166
 31
0.0
 11
14.2870228723
 21
17.463196828
 31
0.0
 11
14.2852946379
 21
17.4615562268
 31
0.0
 11
14.2836612607
 21
17.4600919782
 31
0.0
 11
14.2820725468
 21
17.4588127604
 31
0.0
 11
14.2805169242
 21
17.4577168263
 31
0.0
  0
SPLINE
  5
70E
330
1F
100
AcDbEntity
  8
0
  6
Continuous
 62
     7
100
AcDbSpline
210
0.0
220
0.0
230
1.0
 70
     8
 71
     3
 72
    15
 73
    11
 74
     9
 42
0.0000000001
 43
0.0000000001
 44
0.0000000001
 12
-0.8363319515054399
 22
-0.5482233731711033
 32
0.0
 13
-0.9734918144459973
 23
-0.2287218555508858
 33
0.0
 40
0.0
 40
0.0
 40
0.0
 40
0.0
 40
0.0013740407259326
 40
0.0026846742110952
 40
0.0039524292241364
 40
0.00519169933828
 40
0.0064115683264086
 40
0.0076198425969971
 40
0.0088209382589634
 40
0.0100172525689243
 40
0.0100172525689243
 40
0.0100172525689243
 40
0.0100172525689243
 10
14.2805169242
 20
17.4577168263
 30
0.0
 10
14.28013387281274
 20
17.45746573255278
 30
0.0
 10
14.27937072578544
 20
17.45699718946654
 30
0.0
 10
14.2782105005916
 20
17.45637174602617
 30
0.0
 10
14.27706043195161
 20
17.45582581460553
 30
0.0
 10
14.2759141558416
 20
17.45534584821385
 30
0.0
 10
14.27476715210978
 20
17.45492200731381
 30
0.0
 10
14.27361664918079
 20
17.45454715545239
 30
0.0
 10
14.27246105521314
 20
17.45421594492549
 30
0.0
 10
14.27168583792942
 20
17.45402124314293
 30
0.0
 10
14.2712976372
 20
17.4539300354
 30
0.0
 11
14.2805169242
 21
17.4577168263
 31
0.0
 11
14.2793461707
 21
17.4569975738
 31
0.0
 11
14.2781927823
 21
17.4563751147
 31
0.0
 11
14.2770477999
 21
17.4558308555
 31
0.0
 11
14.2759049494
 21
17.4553516028
 31
0.0
 11
14.2747609188
 21
17.4549281948
 31
0.0
 11
14.2736122631
 21
17.4545533391
 31
0.0
 11
14.2724577995
 21
17.454221911
 31
0.0
 11
14.2712976372
 21
17.4539300354
 31
0.0
  0
SPLINE
  5
70F
330
1F
100
AcDbEntity
  8
0
  6
Continuous
 62
     7
100
AcDbSpline
210
0.0
220
0.0
230
1.0
 70
     8
 71
     3
 72
    14
 73
    10
 74
     8
 42
0.0000000001
 43
0.0000000001
 44
0.0000000001
 12
-0.9886308437276712
 22
0.1503630766854443
 32
0.0
 13
-0.9999999999999991
 23
0.0000000422020259
 33
0.0
 40
0.0
 40
0.0
 40
0.0
 40
0.0
 40
0.7183486872718355
 40
1.441828463805156
 40
2.170165918918677
 40
2.90281764018219
 40
3.639194068271686
 40
4.378149204448325
 40
5.118237701464618
 40
5.118237701464618
 40
5.118237701464618
 40
5.118237701464618
 10
14.2712976372
 20
17.4539300354
 30
0.0
 10
14.03457041427059
 20
17.48993440831705
 30
0.0
 10
13.5586091880553
 20
17.55694483852012
 30
0.0
 10
12.8401958434808
 20
17.6421039893568
 30
0.0
 10
12.11535401565374
 20
17.71210353413724
 30
0.0
 10
11.38488567557248
 20
17.76677298127772
 30
0.0
 10
10.64987806736522
 20
17.80595689040115
 30
0.0
 10
9.911727815039926
 20
17.82952767470111
 30
0.0
 10
9.418697140272097
 20
17.83477240278892
 30
0.0
 10
9.172000974599999
 20
17.8347724132
 30
0.0
 11
14.2712976372
 21
17.4539300354
 31
0.0
 11
13.5599697082
 21
17.5541169304
 31
0.0
 11
12.8415244182
 21
17.6393187633
 31
0.0
 11
12.1165629472
 21
17.7093638494
 31
0.0
 11
11.385956792
 21
17.7640739093
 31
0.0
 11
10.6506258199
 21
17.8032989691
 31
0.0
 11
9.9120475662
 21
17.826896775
 31
0.0
 11
9.172000974599999
 21
17.8347724132
 31
0.0
  0
SPLINE
  5
710
330
1F
100
AcDbEntity
  8
0
  6
Continuous
 62
     7
100
AcDbSpline
210
0.0
220
0.0
230
1.0
 70
     8
 71
     3
 72
    31
 73
    27
 74
    25
 42
0.0000000001
 43
0.0000000001
 44
0.0000000001
 12
-0.8665393087640914
 22
0.4991088321865791
 32
0.0
 13
-0.7654594211291152
 23
0.6434841681072503
 33
0.0
 40
0.0
 40
0.0
 40
0.0
 40
0.0
 40
0.0635806570576666
 40
0.1232248409547265
 40
0.2316205842451651
 40
0.3271547175157241
 40
0.4114558346557243
 40
0.5517984087112485
 40
0.6617671410111815
 40
0.7482199831264522
 40
0.8163663432763531
 40
0.8701971886598533
 40
0.9127926662454392
 40
0.9733160699610477
 40
0.9945768612321687
 40
1.011454249435925
 40
1.024867429903902
 40
1.030475841721957
 40
1.035444741844598
 40
1.039836517284116
 40
1.041827074864982
 40
1.043685247787235
 40
1.045415891330223
 40
1.047030190229063
 40
1.048542803924956
 40
1.049973327578876
 40
1.049973327578876
 40
1.049973327578876
 40
1.049973327578876
 10
15.3473049638
 20
10.1389665644
 30
0.0
 10
15.32893991759416
 20
10.14954445356457
 30
0.0
 10
15.29334517785921
 20
10.17004239962307
 30
0.0
 10
15.22643290529914
 20
10.2085605417112
 30
0.0
 10
15.15027945605734
 20
10.25237474196101
 30
0.0
 10
15.06698752212327
 20
10.30026256436553
 30
0.0
 10
14.97444869737664
 20
10.35343203613478
 30
0.0
 10
14.87771732534209
 20
10.40896266693476
 30
0.0
 10
14.78033874363744
 20
10.46480650105703
 30
0.0
 10
14.70381980509805
 20
10.50864948253197
 30
0.0
 10
14.64352631174972
 20
10.54317055144052
 30
0.0
 10
14.59591267914832
 20
10.57041562550258
 30
0.0
 10
14.55049872213308
 20
10.59638862283554
 30
0.0
 10
14.51450527223899
 20
10.61696516794709
 30
0.0
 10
14.48594901819311
 20
10.6332779820953
 30
0.0
 10
14.47102791790646
 20
10.6418010860369
 30
0.0
 10
14.4606405488049
 20
10.64774209245987
 30
0.0
 10
14.45369666052995
 20
10.65170841544024
 30
0.0
 10
14.44936164321087
 20
10.65417918712289
 30
0.0
 10
14.446071009239
 20
10.65604692711665
 30
0.0
 10
14.44368297593725
 20
10.6574042794548
 30
0.0
 10
14.44206745988931
 20
10.65832565380269
 30
0.0
 10
14.44056276525361
 20
10.65918818586751
 30
0.0
 10
14.43917424258836
 20
10.66002162166667
 30
0.0
 10
14.43790531007748
 20
10.66085795562982
 30
0.0
 10
14.43712355390268
 20
10.66145287442553
 30
0.0
 10
14.4367585513
 20
10.6617597142
 30
0.0
 11
15.3473049638
 21
10.1389665644
 31
0.0
 11
15.2922071916
 21
10.1706956591
 31
0.0
 11
15.2405157966
 21
10.2004518073
 31
0.0
 11
15.1465605114
 21
10.2545077186
 31
0.0
 11
15.0637390667
 21
10.302124721
 31
0.0
 11
14.9906440307
 21
10.3441222693
 31
0.0
 11
14.8689308257
 21
10.413993106
 31
0.0
 11
14.7735350393
 21
10.468699285
 31
0.0
 11
14.6985226388
 21
10.5116787415
 31
0.0
 11
14.6393835896
 21
10.5455387365
 31
0.0
 11
14.5926609937
 21
10.5722737126
 31
0.0
 11
14.5556856999
 21
10.5934208722
 31
0.0
 11
14.5031409515
 21
10.6234563814
 31
0.0
 11
14.484680242
 21
10.6340026343
 31
0.0
 11
14.4700260928
 21
10.6423753366
 31
0.0
 11
14.4583813561
 21
10.6490321765
 31
0.0
 11
14.4535110983
 21
10.6518133403
 31
0.0
 11
14.449193733
 21
10.6542730812
 31
0.0
 11
14.4453752175
 21
10.6564425583
 31
0.0
 11
14.4436448596
 21
10.6574265202
 31
0.0
 11
14.4420308803
 21
10.6583473228
 31
0.0
 11
14.4405321129
 21
10.6592126686
 31
0.0
 11
14.4391513572
 21
10.6600490146
 31
0.0
 11
14.4378924131
 21
10.6608875013
 31
0.0
 11
14.4367585513
 21
10.6617597142
 31
0.0
  0
SPLINE
  5
711
330
1F
100
AcDbEntity
  8
0
  6
Continuous
 62
     7
100
AcDbSpline
210
0.0
220
0.0
230
1.0
 70
     8
 71
     3
 72
    17
 73
    13
 74
    11
 42
0.0000000001
 43
0.0000000001
 44
0.0000000001
 12
0.1178937870278336
 22
0.9930262106209665
 32
0.0
 13
-0.1208250926822661
 23
0.9926738119736622
 33
0.0
 40
0.0
 40
0.0
 40
0.0
 40
0.0
 40
0.659277454838302
 40
1.323306271786034
 40
1.991057397310998
 40
2.661279728479979
 40
3.332339673142902
 40
4.003077932612386
 40
4.672359932733622
 40
5.338623698128712
 40
6.000754363950482
 40
6.657925989009598
 40
6.657925989009598
 40
6.657925989009598
 40
6.657925989009598
 10
14.4367590505
 20
10.661760308
 30
0.0
 10
14.46266728911765
 20
10.8799869055753
 30
0.0
 10
14.50933164423652
 20
11.31866494922541
 30
0.0
 10
14.56362848250996
 20
11.98018663531831
 30
0.0
 10
14.60231177046645
 20
12.64646276062503
 30
0.0
 10
14.6252263639373
 20
13.31581109204853
 30
0.0
 10
14.63227988164994
 20
13.98651037994687
 30
0.0
 10
14.62343417092801
 20
14.65687499656233
 30
0.0
 10
14.59874371710655
 20
15.32524319132484
 30
0.0
 10
14.55831450744996
 20
15.98997125553106
 30
0.0
 10
14.50230408485454
 20
16.64951321505139
 30
0.0
 10
14.45451450540197
 20
17.08672773404388
 30
0.0
 10
14.4280468979
 20
17.3041800881
 30
0.0
 11
14.4367590505
 21
10.661760308
 31
0.0
 11
14.5065387183
 21
11.3173345299
 31
0.0
 11
14.5608954812
 21
11.979134811
 31
0.0
 11
14.5996257705
 21
12.6457617909
 31
0.0
 11
14.6225710547
 21
13.3155912372
 31
0.0
 11
14.6296282856
 21
13.986614072
 31
0.0
 11
14.6207727601
 21
14.6572938707
 31
0.0
 11
14.5960463503
 21
15.3261189602
 31
0.0
 11
14.5555673134
 21
15.9911519313
 31
0.0
 11
14.4995008732
 21
16.6509045917
 31
0.0
 11
14.4280468979
 21
17.3041800881
 31
0.0
  0
SPLINE
  5
712
330
1F
100
AcDbEntity
  8
0
  6
Continuous
 62
     7
100
AcDbSpline
210
0.0
220
0.0
230
1.0
 70
     8
 71
     3
 72
    58
 73
    54
 74
    52
 42
0.0000000001
 43
0.0000000001
 44
0.0000000001
 12
-0.750738351041483
 22
-0.6605996732329765
 32
0.0
 13
-0.6232167143207752
 23
-0.7820491845090162
 33
0.0
 40
0.0
 40
0.0
 40
0.0
 40
0.0
 40
0.0980006690515008
 40
0.1877219009670749
 40
0.2700243838969025
 40
0.3455665575225988
 40
0.4149673025530002
 40
0.4787735139415256
 40
0.5374791117538676
 40
0.5915282280302493
 40
0.6413216295628079
 40
0.6872213815599758
 40
0.729555125861652
 40
0.7686198188896676
 40
0.804685008388084
 40
0.8379957080800728
 40
0.8687749306832666
 40
0.8972259226026924
 40
0.923534141105458
 40
0.9478690063353905
 40
0.9703854572953872
 40
0.9912253204928447
 40
1.01051852566216
 40
1.028384237100032
 40
1.044931845193177
 40
1.06026185196243
 40
1.074466668655714
 40
1.087631311026748
 40
1.0998339919601
 40
1.111146760388865
 40
1.121636052809437
 40
1.131363172577651
 40
1.140384628893356
 40
1.148752563021086
 40
1.156515140050826
 40
1.163716901516341
 40
1.170399005481979
 40
1.176599235911822
 40
1.182352626403237
 40
1.187691845900413
 40
1.192646317874157
 40
1.197242664943414
 40
1.201504900113065
 40
1.205455305220906
 40
1.209114248999701
 40
1.212499153267912
 40
1.215624818362124
 40
1.218501985512003
 40
1.221133617094873
 40
1.223523759563649
 40
1.225719893761501
 40
1.227755298622552
 40
1.22964344499875
 40
1.22964344499875
 40
1.22964344499875
 40
1.22964344499875
 10
15.3529358628
 20
18.1144503202
 30
0.0
 10
15.3284115759051
 20
18.09287058354932
 30
0.0
 10
15.28142872296166
 20
18.05154125917317
 30
0.0
 10
15.21382625482607
 20
17.99211593035208
 30
0.0
 10
15.15182886603786
 20
17.9376531140838
 30
0.0
 10
15.09490484744775
 20
17.88767825477426
 30
0.0
 10
15.04260068813132
 20
17.84178626234633
 30
0.0
 10
14.99450347306858
 20
17.799608924461
 30
0.0
 10
14.95024360472561
 20
17.76081697576255
 30
0.0
 10
14.90948768701746
 20
17.72511374382871
 30
0.0
 10
14.87193501588806
 20
17.69223193568865
 30
0.0
 10
14.83731378146307
 20
17.66193020132909
 30
0.0
 10
14.80537793690405
 20
17.63399029417436
 30
0.0
 10
14.77590440732513
 20
17.60821454486487
 30
0.0
 10
14.74869064451355
 20
17.58442365021956
 30
0.0
 10
14.72355247924821
 20
17.56245473194788
 30
0.0
 10
14.70032223028758
 20
17.54215962945009
 30
0.0
 10
14.67884703375156
 20
17.52340339499821
 30
0.0
 10
14.65898736699271
 20
17.5060629619455
 30
0.0
 10
14.64061573813232
 20
17.49002596714154
 30
0.0
 10
14.62361552670206
 20
17.47518970866843
 30
0.0
 10
14.60787995656137
 20
17.46146022385842
 30
0.0
 10
14.5933111744342
 20
17.44875146154328
 30
0.0
 10
14.5798194194816
 20
17.43698454115591
 30
0.0
 10
14.56732227695614
 20
17.4260870828586
 30
0.0
 10
14.55574401264583
 20
17.41599261428041
 30
0.0
 10
14.54501498165519
 20
17.40664004225132
 30
0.0
 10
14.53507110929259
 20
17.39797319040349
 30
0.0
 10
14.52585341174513
 20
17.3899403716175
 30
0.0
 10
14.51730755174209
 20
17.38249399325501
 30
0.0
 10
14.50938342250304
 20
17.37559018743072
 30
0.0
 10
14.50203480551816
 20
17.36918850873429
 30
0.0
 10
14.49521906148139
 20
17.36325165747668
 30
0.0
 10
14.4888968406758
 20
17.35774522502611
 30
0.0
 10
14.48303179111674
 20
17.35263743479809
 30
0.0
 10
14.47759031192748
 20
17.34789892577849
 30
0.0
 10
14.47254140469177
 20
17.34350261762691
 30
0.0
 10
14.46785645363396
 20
17.33942351989907
 30
0.0
 10
14.46350897147236
 20
17.33563850676869
 30
0.0
 10
14.45947456777055
 20
17.33212628809045
 30
0.0
 10
14.45573096204646
 20
17.32886741995319
 30
0.0
 10
14.45225804694171
 20
17.32584435654045
 30
0.0
 10
14.44903750540986
 20
17.32304112089324
 30
0.0
 10
14.44605259712401
 20
17.32044310029957
 30
0.0
 10
14.44328821275246
 20
17.31803715280801
 30
0.0
 10
14.44073120222788
 20
17.31581169003249
 30
0.0
 10
14.43837056796239
 20
17.31375751840265
 30
0.0
 10
14.43619982849838
 20
17.31186766391883
 30
0.0
 10
14.43421230902635
 20
17.31014061497374
 30
0.0
 10
14.43237090834933
 20
17.30859200858691
 30
0.0
 10
14.43072983579256
 20
17.30711471076729
 30
0.0
 10
14.42929397336341
 20
17.30566389017664
 30
0.0
 10
14.42843913936024
 20
17.30467229587791
 30
0.0
 10
14.4280468979
 20
17.3041800881
 30
0.0
 11
15.3529358628
 21
18.1144503202
 31
0.0
 11
15.2793525689
 21
18.049722969
 31
0.0
 11
15.2119656006
 21
17.9904870343
 31
0.0
 11
15.1501329797
 21
17.9361692132
 31
0.0
 11
15.093363922
 21
17.8863305326
 31
0.0
 11
15.0411967319
 21
17.8405588417
 31
0.0
 11
14.9932232566
 21
17.7984901089
 31
0.0
 11
14.9490746844
 21
17.7597957839
 31
0.0
 11
14.9084192214
 21
17.7241806144
 31
0.0
 11
14.8709573256
 21
17.6913783401
 31
0.0
 11
14.8364182542
 21
17.6611485571
 31
0.0
 11
14.804556893
 21
17.6332738451
 31
0.0
 11
14.775150985
 21
17.6075572587
 31
0.0
 11
14.7479986999
 21
17.5838201294
 31
0.0
 11
14.7229165013
 21
17.5619001379
 31
0.0
 11
14.6997372663
 21
17.5416496167
 31
0.0
 11
14.6783086255
 21
17.5229340538
 31
0.0
 11
14.6584914943
 21
17.5056307688
 31
0.0
 11
14.6401587701
 21
17.4896277413
 31
0.0
 11
14.6231941749
 21
17.4748225708
 31
0.0
 11
14.607491237
 21
17.4611215621
 31
0.0
 11
14.5929523862
 21
17.4484389132
 31
0.0
 11
14.5794881102
 21
17.4366959614
 31
0.0
 11
14.567016216
 21
17.4258205217
 31
0.0
 11
14.5554611693
 21
17.415746297
 31
0.0
 11
14.5447534994
 21
17.406412347
 31
0.0
 11
14.5348292802
 21
17.3977626255
 31
0.0
 11
14.5256296881
 21
17.3897455857
 31
0.0
 11
14.5171005242
 21
17.382313756
 31
0.0
 11
14.5091918018
 21
17.3754233739
 31
0.0
 11
14.5018573876
 21
17.3690340682
 31
0.0
 11
14.4950547491
 21
17.3631086329
 31
0.0
 11
14.488744635
 21
17.3576127452
 31
0.0
 11
14.4828907817
 21
17.352514706
 31
0.0
 11
14.4774596488
 21
17.3477852067
 31
0.0
 11
14.4724202399
 21
17.3433971694
 31
0.0
 11
14.4677440961
 21
17.3393257401
 31
0.0
 11
14.463404827
 21
17.3355478775
 31
0.0
 11
14.4593778206
 21
17.3320420988
 31
0.0
 11
14.4556409083
 21
17.3287890573
 31
0.0
 11
14.4521740303
 21
17.3257712496
 31
0.0
 11
14.448959092
 21
17.3229728893
 31
0.0
 11
14.4459793018
 21
17.3203793298
 31
0.0
 11
14.4432193089
 21
17.3179771831
 31
0.0
 11
14.4406659833
 21
17.3157549983
 31
0.0
 11
14.4383081708
 21
17.3137030474
 31
0.0
 11
14.4361377777
 21
17.3118142688
 31
0.0
 11
14.4341467231
 21
17.310093459
 31
0.0
 11
14.4323304849
 21
17.3085397345
 31
0.0
 11
14.4307050503
 21
17.3070629245
 31
0.0
 11
14.4292771164
 21
17.3056124495
 31
0.0
 11
14.4280468979
 21
17.3041800881
 31
0.0
  0
LINE
  5
713
330
1F
100
AcDbEntity
  8
0
  6
Continuous
 62
     7
100
AcDbLine
 10
15.3562417722
 20
18.1174711411
 30
0.0
 11
15.3529358628
 21
18.1144503202
 31
0.0
  0
SPLINE
  5
715
330
1F
100
AcDbEntity
  8
0
  6
Continuous
 62
     7
100
AcDbSpline
210
0.0
220
0.0
230
1.0
 70
     8
 71
     3
 72
    10
 73
     6
 74
     4
 42
0.0000000001
 43
0.0000000001
 44
0.0000000001
 12
-0.7964628701941614
 22
0.6046874369474518
 32
0.0
 13
-0.8665391532991527
 23
0.4991091021005203
 33
0.0
 40
0.0
 40
0.0
 40
0.0
 40
0.0
 40
0.0036381547207852
 40
0.0072200568408585
 40
0.0107499513936947
 40
0.0107499513936947
 40
0.0107499513936947
 40
0.0107499513936947
 10
15.3562443976
 20
10.1330075986
 30
0.0
 10
15.35527851254962
 20
10.13374091408444
 30
0.0
 10
15.35333312253658
 20
10.13515912248388
 30
0.0
 10
15.35035240556668
 20
10.13714968616559
 30
0.0
 10
15.34832499657901
 20
10.13838005289974
 30
0.0
 10
15.3473053993
 20
10.1389673204
 30
0.0
 11
15.3562443976
 21
10.1330075986
 31
0.0
 11
15.3533036026
 21
10.1351495357
 31
0.0
 11
15.3503239141
 21
10.1371373685
 31
0.0
 11
15.3473053993
 21
10.1389673204
 31
0.0
  0
SPLINE
  5
717
330
1F
100
AcDbEntity
  8
0
  6
Continuous
 62
     7
100
AcDbSpline
210
0.0
220
0.0
230
1.0
 70
     8
 71
     3
 72
    15
 73
    11
 74
     9
 42
0.0000000001
 43
0.0000000001
 44
0.0000000001
 12
0.9999999999999992
 22
0.0000000409866187
 32
0.0
 13
0.9839948963712902
 23
0.1781966439505913
 33
0.0
 40
0.0
 40
0.0
 40
0.0
 40
0.0
 40
0.642102447621816
 40
1.284467160412896
 40
1.926975386601839
 40
2.569521941795838
 40
3.21233271619641
 40
3.855612288662986
 40
4.499261840854474
 40
5.143141993563039
 40
5.143141993563039
 40
5.143141993563039
 40
5.143141993563039
 10
9.172000974599999
 20
10.0462062288
 30
0.0
 10
9.386035123807271
 20
10.04620623757253
 30
0.0
 10
9.814206276672486
 20
10.05099657062151
 30
0.0
 10
10.45622082032135
 20
10.0725444942735
 30
0.0
 10
11.0977440886345
 20
10.10845254295393
 30
0.0
 10
11.73845099121054
 20
10.15871510879518
 30
0.0
 10
12.37812727682765
 20
10.22334153972135
 30
0.0
 10
13.01656129973939
 20
10.30232482254433
 30
0.0
 10
13.65341459526782
 20
10.39564581736279
 30
0.0
 10
14.07659618498667
 20
10.46738463062698
 30
0.0
 10
14.2877877797
 20
10.5056303914
 30
0.0
 11
9.172000974599999
 21
10.0462062288
 31
0.0
 11
9.814063259499999
 21
10.0533878408
 31
0.0
 11
10.4560664956
 21
10.0749347449
 31
0.0
 11
11.0975705589
 21
10.1108423693
 31
0.0
 11
11.7381488412
 21
10.1610971187
 31
0.0
 11
12.3777040524
 21
10.2257099929
 31
0.0
 11
13.0161167306
 21
10.3046901212
 31
0.0
 11
13.6529651726
 21
10.3980111154
 31
0.0
 11
14.2877877797
 21
10.5056303914
 31
0.0
  0
SPLINE
  5
718
330
1F
100
AcDbEntity
  8
0
  6
Continuous
 62
     7
100
AcDbSpline
210
0.0
220
0.0
230
1.0
 70
     8
 71
     3
 72
    14
 73
    10
 74
     8
 42
0.0000000001
 43
0.0000000001
 44
0.0000000001
 12
-0.9159922405823063
 22
0.4011959810279835
 32
0.0
 13
-0.9890544766850688
 23
0.1475508120927333
 33
0.0
 40
0.0
 40
0.0
 40
0.0
 40
0.0
 40
0.0011630926085478
 40
0.0022777594711656
 40
0.0033611566568071
 40
0.0044242966001801
 40
0.0054750061280282
 40
0.0065177613560076
 40
0.0075536866281319
 40
0.0075536866281319
 40
0.0075536866281319
 40
0.0075536866281319
 10
14.2950519534
 20
10.5036395935
 30
0.0
 10
14.29469682546516
 20
10.50379513619337
 30
0.0
 10
14.29399328229169
 20
10.50408164991417
 30
0.0
 10
14.29293608025998
 20
10.50445367315658
 30
0.0
 10
14.29189570855504
 20
10.50476992372973
 30
0.0
 10
14.29086455120551
 20
10.50504018305484
 30
0.0
 10
14.28983785027797
 20
10.50527131478377
 30
0.0
 10
14.28881331975052
 20
10.50546822111471
 30
0.0
 10
14.28812930854263
 20
10.50557944086161
 30
0.0
 10
14.2877877797
 20
10.5056303914
 30
0.0
 11
14.2950519534
 21
10.5036395935
 31
0.0
 11
14.2939749632
 21
10.5040787706
 31
0.0
 11
14.2929237128
 21
10.5044493847
 31
0.0
 11
14.2918873326
 21
10.5047650832
 31
0.0
 11
14.2908590768
 21
10.5050351879
 31
0.0
 11
14.2898341372
 21
10.5052664655
 31
0.0
 11
14.2888102099
 21
10.5054637251
 31
0.0
 11
14.2877877797
 21
10.5056303914
 31
0.0
  0
SPLINE
  5
719
330
1F
100
AcDbEntity
  8
0
  6
Continuous
 62
     7
100
AcDbSpline
210
0.0
220
0.0
230
1.0
 70
     8
 71
     3
 72
    29
 73
    25
 74
    23
 42
0.0000000001
 43
0.0000000001
 44
0.0000000001
 12
-0.8599745055649218
 22
0.5103369962861488
 32
0.0
 13
-0.9156946946867481
 23
0.4018746398101564
 33
0.0
 40
0.0
 40
0.0
 40
0.0
 40
0.0
 40
0.0640757700017124
 40
0.1241893836124985
 40
0.2334499040868909
 40
0.3297585871536934
 40
0.4147526737665367
 40
0.5562681668267305
 40
0.6671722431842929
 40
0.7543700101632116
 40
0.8231092402734519
 40
0.87741179649441
 40
0.9203825593590526
 40
0.9544582694050379
 40
0.9814421317076861
 40
1.002891559256046
 40
1.019919834707163
 40
1.033454531784794
 40
1.044124517751249
 40
1.04855215982233
 40
1.052433794197511
 40
1.054182852590942
 40
1.055826155699453
 40
1.058892938158862
 40
1.058892938158862
 40
1.058892938158862
 40
1.058892938158862
 10
15.2051187091
 20
9.9623307778
 30
0.0
 10
15.18675086622469
 20
9.973230856465798
 30
0.0
 10
15.15115237163402
 20
9.994359372649579
 30
0.0
 10
15.08423996583196
 20
10.0340854171476
 30
0.0
 10
15.00809719842353
 20
10.07931062102112
 30
0.0
 10
14.92483534443593
 20
10.12879035874778
 30
0.0
 10
14.83234234205421
 20
10.18378231019776
 30
0.0
 10
14.73568309195618
 20
10.24128678796152
 30
0.0
 10
14.63841085569942
 20
10.29919758777738
 30
0.0
 10
14.56199467742584
 20
10.34471836330385
 30
0.0
 10
14.50179514326206
 20
10.38059595617752
 30
0.0
 10
14.45426416921614
 20
10.40893404457627
 30
0.0
 10
14.4166608452806
 20
10.43136041235051
 30
0.0
 10
14.38688002923804
 20
10.44912503924745
 30
0.0
 10
14.36326160423363
 20
10.46321705794752
 30
0.0
 10
14.34452455031555
 20
10.47439999254443
 30
0.0
 10
14.32963704448241
 20
10.48328536406669
 30
0.0
 10
14.31783225606803
 20
10.4903247894366
 30
0.0
 10
14.30963694226671
 20
10.49521626115264
 30
0.0
 10
14.304210896589
 20
10.49846927845371
 30
0.0
 10
14.3013343685442
 20
10.50019154114535
 30
0.0
 10
14.29925078012156
 20
10.50143185248069
 30
0.0
 10
14.2973850306093
 20
10.502505741468
 30
0.0
 10
14.29598825120928
 20
10.50322927170125
 30
0.0
 10
14.2950521724
 20
10.5036400924
 30
0.0
 11
15.2051187091
 21
9.9623307778
 31
0.0
 11
15.1500173786
 21
9.995034717599999
 31
0.0
 11
15.098327334
 21
10.0257232469
 31
0.0
 11
15.0043875895
 21
10.0815191763
 31
0.0
 11
14.9215949514
 21
10.1307202079
 31
0.0
 11
14.8485381733
 21
10.1741563902
 31
0.0
 11
14.7269180829
 21
10.2465109919
 31
0.0
 11
14.6316236809
 21
10.3032445014
 31
0.0
 11
14.5567103778
 21
10.3478701396
 31
0.0
 11
14.497662464
 21
10.3830614117
 31
0.0
 11
14.4510204968
 21
10.4108695851
 31
0.0
 11
14.4141146803
 21
10.4328797457
 31
0.0
 11
14.3848501807
 21
10.4503366377
 31
0.0
 11
14.361677701
 21
10.4641628812
 31
0.0
 11
14.3432590836
 21
10.4751552638
 31
0.0
 11
14.3286364608
 21
10.4838811487
 31
0.0
 11
14.3170126262
 21
10.490814726
 31
0.0
 11
14.3078527292
 21
10.4962869182
 31
0.0
 11
14.3040545816
 21
10.4985624597
 31
0.0
 11
14.3007232568
 21
10.5005547851
 31
0.0
 11
14.2992183134
 21
10.5014460486
 31
0.0
 11
14.2977917955
 21
10.5022618254
 31
0.0
 11
14.2950521724
 21
10.5036400924
 31
0.0
  0
SPLINE
  5
71C
330
1F
100
AcDbEntity
  8
0
  6
Continuous
 62
     7
100
AcDbSpline
210
0.0
220
0.0
230
1.0
 70
     8
 71
     3
 72
    35
 73
    31
 74
    29
 42
0.0000000001
 43
0.0000000001
 44
0.0000000001
 12
-0.8296747767836784
 22
-0.5582470463593637
 32
0.0
 13
-0.8305272232862382
 23
-0.5569780349174028
 33
0.0
 40
0.0
 40
0.0
 40
0.0
 40
0.0
 40
0.026347387757359
 40
0.0547863711286561
 40
0.0855072633913371
 40
0.1186989446839278
 40
0.1545743040541437
 40
0.1933645554392035
 40
0.2353243422393842
 40
0.2807338979483751
 40
0.3299024153049683
 40
0.383171770959519
 40
0.4409212264616055
 40
0.5035726707111931
 40
0.5715971279555844
 40
0.6455225993652891
 40
0.7259436412852108
 40
0.813533265033477
 40
0.9090579021743812
 40
1.013396468307726
 40
1.127565095313325
 40
1.252749876583816
 40
1.390351132640347
 40
1.542045082258245
 40
1.709870108670965
 40
1.896357626927767
 40
2.104731195300556
 40
2.339241312140837
 40
2.607427910325967
 40
2.89282090323449
 40
2.89282090323449
 40
2.89282090323449
 40
2.89282090323449
 10
14.1581456242
 20
17.3127519028
 30
0.0
 10
14.15085903651452
 20
17.30784911900172
 30
0.0
 10
14.13570850413817
 20
17.2976527209721
 30
0.0
 10
14.11206101666184
 20
17.28174095341816
 30
0.0
 10
14.08652130622023
 20
17.26455465789823
 30
0.0
 10
14.05892466275812
 20
17.24598509204196
 30
0.0
 10
14.02909638717121
 20
17.2259139374291
 30
0.0
 10
13.99684305730482
 20
17.20421143432666
 30
0.0
 10
13.96195281362328
 20
17.18073501307167
 30
0.0
 10
13.9241921513928
 20
17.15532771169631
 30
0.0
 10
13.88330345129719
 20
17.12781632007509
 30
0.0
 10
13.83900168271693
 20
17.09800923679418
 30
0.0
 10
13.79097062947081
 20
17.06569391718787
 30
0.0
 10
13.73885833151287
 20
17.03063382468666
 30
0.0
 10
13.68227165976465
 20
16.99256479524699
 30
0.0
 10
13.62076968866495
 20
16.95119059969539
 30
0.0
 10
13.55385557428414
 20
16.90617750764514
 30
0.0
 10
13.48096645774183
 20
16.85714753263154
 30
0.0
 10
13.40146073742554
 20
16.80366992390166
 30
0.0
 10
13.3146017839268
 20
16.74525028276019
 30
0.0
 10
13.21953672026685
 20
16.68131639644346
 30
0.0
 10
13.11526821071251
 20
16.61119941458723
 30
0.0
 10
13.00061599473609
 20
16.53410821023343
 30
0.0
 10
12.87416356000673
 20
16.44909386983762
 30
0.0
 10
12.73418075811149
 20
16.35499822735805
 30
0.0
 10
12.57850822582787
 20
16.25037709756371
 30
0.0
 10
12.40437271477775
 20
16.13337779643448
 30
0.0
 10
12.20761193936705
 20
16.00122143745371
 30
0.0
 10
11.98950774308851
 20
15.85479723063093
 30
0.0
 10
11.83627398061522
 20
15.75198937022313
 30
0.0
 10
11.7572650973
 20
15.6990034941
 30
0.0
 11
14.1581456242
 21
17.3127519028
 31
0.0
 11
14.1362866956
 21
17.2980423113
 31
0.0
 11
14.1126921799
 21
17.2821654538
 31
0.0
 11
14.0872045389
 21
17.2650145536
 31
0.0
 11
14.0596668377
 21
17.2464845045
 31
0.0
 11
14.0299024792
 21
17.2264564149
 31
0.0
 11
13.9977195807
 21
17.2048012851
 31
0.0
 11
13.9629068335
 21
17.1813770169
 31
0.0
 11
13.9252316811
 21
17.1560272508
 31
0.0
 11
13.8844375288
 21
17.1285794779
 31
0.0
 11
13.840240648
 21
17.0988429687
 31
0.0
 11
13.792326272
 21
17.0666061546
 31
0.0
 11
13.7403442409
 21
17.0316337096
 31
0.0
 11
13.6839035945
 21
16.9936629285
 31
0.0
 11
13.6225660565
 21
16.952399364
 31
0.0
 11
13.5558380744
 21
16.9075114994
 31
0.0
 11
13.4831609285
 21
16.8586241324
 31
0.0
 11
13.4038982903
 21
16.8053100584
 31
0.0
 11
13.317320371
 21
16.7470794799
 31
0.0
 11
13.2225833509
 21
16.6833662755
 31
0.0
 11
13.1187021377
 21
16.6135098298
 31
0.0
 11
13.0045135288
 21
16.5367304884
 31
0.0
 11
12.878624872
 21
16.4520953867
 31
0.0
 11
12.7393422154
 21
16.3584707048
 31
0.0
 11
12.5845612663
 21
16.2544493019
 31
0.0
 11
12.4116013769
 21
16.1382407796
 31
0.0
 11
12.2169262353
 21
16.0074868728
 31
0.0
 11
11.9942624975
 21
15.858004729
 31
0.0
 11
11.7572650973
 21
15.6990034941
 31
0.0
  0
SPLINE
  5
71D
330
1F
100
AcDbEntity
  8
0
  6
Continuous
 62
     7
100
AcDbSpline
210
0.0
220
0.0
230
1.0
 70
     8
 71
     3
 72
    11
 73
     7
 74
     5
 42
0.0000000001
 43
0.0000000001
 44
0.0000000001
 12
-0.9999992117911913
 22
0.0012555544575163
 32
0.0
 13
-0.9914165073299187
 23
0.1307413821012522
 33
0.0
 40
0.0
 40
0.0
 40
0.0
 40
0.0
 40
0.0764849201005055
 40
0.1513383336597828
 40
0.2245947992616097
 40
0.2962297634257657
 40
0.2962297634257657
 40
0.2962297634257657
 40
0.2962297634257657
 10
11.7572650973
 20
15.6990034941
 30
0.0
 10
11.73177014402853
 20
15.69903550442745
 30
0.0
 10
11.68132189879264
 20
15.69973279332788
 30
0.0
 10
11.60651227525311
 20
15.70288464607087
 30
0.0
 10
11.53345110178479
 20
15.70829505221199
 30
0.0
 10
11.48543166189144
 20
15.71360157105947
 30
0.0
 10
11.4617582999
 20
15.7167234558
 30
0.0
 11
11.7572650973
 21
15.6990034941
 31
0.0
 11
11.6807881046
 21
15.7001046709
 31
0.0
 11
11.6060032479
 21
15.7033075961
 31
0.0
 11
11.5329514333
 21
15.7087795369
 31
0.0
 11
11.4617582999
 21
15.7167234558
 31
0.0
  0
SPLINE
  5
71E
330
1F
100
AcDbEntity
  8
0
  6
Continuous
 62
     7
100
AcDbSpline
210
0.0
220
0.0
230
1.0
 70
     8
 71
     3
 72
    12
 73
     8
 74
     6
 42
0.0000000001
 43
0.0000000001
 44
0.0000000001
 12
-0.9914183673288443
 22
0.1307272768897479
 32
0.0
 13
-0.9999999999999873
 23
-0.0000001591785648
 33
0.0
 40
0.0
 40
0.0
 40
0.0
 40
0.0
 40
0.4612625067319191
 40
0.9236646106479495
 40
1.384599240653063
 40
1.841720292149341
 40
2.296163433873516
 40
2.296163433873516
 40
2.296163433873516
 40
2.296163433873516
 10
11.4617582999
 20
15.7167234558
 30
0.0
 10
11.30932359278861
 20
15.73682331961213
 30
0.0
 10
11.00351635931577
 20
15.77293902159546
 30
0.0
 10
10.54382702420069
 20
15.81473272060176
 30
0.0
 10
10.08456562336303
 20
15.84422058974094
 30
0.0
 10
9.627350842652857
 20
15.8616611157045
 30
0.0
 10
9.323482021841389
 20
15.86550641941254
 30
0.0
 10
9.172000974599999
 20
15.8655063953
 30
0.0
 11
11.4617582999
 21
15.7167234558
 31
0.0
 11
11.0036814298
 21
15.7708407469
 31
0.0
 11
10.5431809573
 21
15.8127337121
 31
0.0
 11
10.0831955159
 21
15.8422993482
 31
0.0
 11
9.6264076474
 21
15.8597492454
 31
0.0
 11
9.172000974599999
 21
15.8655063953
 31
0.0
  0
SPLINE
  5
71F
330
1F
100
AcDbEntity
  8
0
  6
Continuous
 62
     7
100
AcDbSpline
210
0.0
220
0.0
230
1.0
 70
     8
 71
     3
 72
    11
 73
     7
 74
     5
 42
0.0000000001
 43
0.0000000001
 44
0.0000000001
 12
-0.049693427712357
 22
0.9987645184137234
 32
0.0
 13
0.1771825183772455
 23
0.984178009905473
 33
0.0
 40
0.0
 40
0.0
 40
0.0
 40
0.0
 40
0.0476362191391482
 40
0.09339139879928
 40
0.1373931111139715
 40
0.1797303186560432
 40
0.1797303186560432
 40
0.1797303186560432
 40
0.1797303186560432
 10
11.8034373954
 20
15.4349430293
 30
0.0
 10
11.8026483263959
 20
15.45080215112252
 30
0.0
 10
11.80231167816975
 20
15.48196390499612
 30
0.0
 10
11.80484619461349
 20
15.52771695553511
 30
0.0
 10
11.80971688561168
 20
15.57149714097437
 30
0.0
 10
11.81423899228221
 20
15.59992963447876
 30
0.0
 10
11.8167394633
 20
15.6138187507
 30
0.0
 11
11.8034373954
 21
15.4349430293
 31
0.0
 11
11.8028407109
 21
15.4825755113
 31
0.0
 11
11.8053083118
 21
15.528264103
 31
0.0
 11
11.8101259231
 21
15.5720012875
 31
0.0
 11
11.8167394633
 21
15.6138187507
 31
0.0
  0
SPLINE
  5
720
330
1F
100
AcDbEntity
  8
0
  6
Continuous
 62
     7
100
AcDbSpline
210
0.0
220
0.0
230
1.0
 70
     8
 71
     3
 72
    35
 73
    31
 74
    29
 42
0.0000000001
 43
0.0000000001
 44
0.0000000001
 12
-0.8289994245240009
 22
-0.5592494560917119
 32
0.0
 13
-0.8282462261666829
 23
-0.5603643358036341
 33
0.0
 40
0.0
 40
0.0
 40
0.0
 40
0.0
 40
0.0263484570020153
 40
0.0547885940280158
 40
0.0855107755768758
 40
0.1187038736557465
 40
0.1545808006056599
 40
0.1933727839266906
 40
0.2353344879956963
 40
0.2807461684104813
 40
0.3299170437813234
 40
0.3831890201854259
 40
0.4409413942406716
 40
0.5035960947649265
 40
0.571624193377852
 40
0.645553747840021
 40
0.725979381076559
 40
0.8135741847288153
 40
0.9091046880893516
 40
1.013449926071042
 40
1.1276261785524
 40
1.25281972402291
 40
1.390431115328953
 40
1.54213688558244
 40
1.709975793468388
 40
1.896479798187595
 40
2.10487295184235
 40
2.339369146220921
 40
2.607841793196648
 40
2.893057736954556
 40
2.893057736954556
 40
2.893057736954556
 40
2.893057736954556
 10
14.2143824681
 20
17.23279678
 30
0.0
 10
14.20710151620274
 20
17.22788499325092
 30
0.0
 10
14.19196048104555
 20
17.21767317253467
 30
0.0
 10
14.16833074872308
 20
17.20173295611281
 30
0.0
 10
14.14280896063224
 20
17.18451775617276
 30
0.0
 10
14.11523248190723
 20
17.16591571063296
 30
0.0
 10
14.08542601710954
 20
17.14580936903642
 30
0.0
 10
14.05319664411317
 20
17.12406819496996
 30
0.0
 10
14.01833263603473
 20
17.10054938807476
 30
0.0
 10
13.98060079673728
 20
17.07509548719735
 30
0.0
 10
13.93974380895403
 20
17.04753278769785
 30
0.0
 10
13.89547701112866
 20
17.01766908644534
 30
0.0
 10
13.84748461266245
 20
16.98529114478178
 30
0.0
 10
13.79541515528343
 20
16.95016160834441
 30
0.0
 10
13.73887610417455
 20
16.91201534517169
 30
0.0
 10
13.67742724403073
 20
16.87055497008717
 30
0.0
 10
13.61057258691766
 20
16.82544536070992
 30
0.0
 10
13.53775031648232
 20
16.77630683715245
 30
0.0
 10
13.45832011556418
 20
16.72270656466342
 30
0.0
 10
13.37154695639916
 20
16.6641475493287
 30
0.0
 10
13.27657998959866
 20
16.60005429874934
 30
0.0
 10
13.17242448909285
 20
16.52975375143906
 30
0.0
 10
13.0579036137509
 20
16.45244926803673
 30
0.0
 10
12.93160544239382
 20
16.36718456953416
 30
0.0
 10
12.79180614149689
 20
16.27279137938684
 30
0.0
 10
12.63635538364693
 20
16.16781125526231
 30
0.0
 10
12.46250362085223
 20
16.05037755033106
 30
0.0
 10
12.26602871222548
 20
15.91762281204463
 30
0.0
 10
12.04836317506279
 20
15.77049071359637
 30
0.0
 10
11.89548247298668
 20
15.66709369832817
 30
0.0
 10
11.8167394633
 20
15.6138187507
 30
0.0
 11
14.2143824681
 21
17.23279678
 31
0.0
 11
14.1925387461
 21
17.218062704
 31
0.0
 11
14.1689612668
 21
17.202158495
 31
0.0
 11
14.143491843
 21
17.1849782479
 31
0.0
 11
14.1159741307
 21
17.166415994
 31
0.0
 11
14.0862315898
 21
17.1463527154
 31
0.0
 11
14.0540725811
 21
17.1246590267
 31
0.0
 11
14.0192860217
 21
17.101192457
 31
0.0
 11
13.9816396298
 21
17.0757961995
 31
0.0
 11
13.9408771233
 21
17.048297235
 31
0.0
 11
13.8967151381
 21
17.0185042403
 31
0.0
 11
13.8488393325
 21
16.9862049532
 31
0.0
 11
13.796900047
 21
16.9511632335
 31
0.0
 11
13.740506914
 21
16.9131154116
 31
0.0
 11
13.6792223648
 21
16.8717658886
 31
0.0
 11
13.6125537005
 21
16.8267817616
 31
0.0
 11
13.5399432406
 21
16.777786142
 31
0.0
 11
13.4607559364
 21
16.7243497506
 31
0.0
 11
13.3742635955
 21
16.6659802067
 31
0.0
 11
13.2796244183
 21
16.6021081254
 31
0.0
 11
13.1758559118
 21
16.5320687016
 31
0.0
 11
13.061798284
 21
16.4550768023
 31
0.0
 11
12.9360634429
 21
16.3701922309
 31
0.0
 11
12.7969637425
 21
16.2762711345
 31
0.0
 11
12.6424038084
 21
16.1718921589
 31
0.0
 11
12.4697163594
 21
16.055244178
 31
0.0
 11
12.2754166627
 21
15.9239578762
 31
0.0
 11
12.052993182
 21
15.773607095
 31
0.0
 11
11.8167394633
 21
15.6138187507
 31
0.0
  0
SPLINE
  5
721
330
1F
100
AcDbEntity
  8
0
  6
Continuous
 62
     7
100
AcDbSpline
210
0.0
220
0.0
230
1.0
 70
     8
 71
     3
 72
    23
 73
    19
 74
    17
 42
0.0000000001
 43
0.0000000001
 44
0.0000000001
 12
-0.9718845132405672
 22
-0.2354580491789264
 32
0.0
 13
-0.8290350658267289
 23
-0.5591966198303341
 33
0.0
 40
0.0
 40
0.0
 40
0.0
 40
0.0
 40
0.0025124503324831
 40
0.005187112408783
 40
0.0080253594831318
 40
0.0110169291134673
 40
0.0141328947627274
 40
0.0173323815780994
 40
0.0205589618690764
 40
0.0237149887080644
 40
0.0267383431756703
 40
0.0296305880068405
 40
0.0323961884715874
 40
0.0350370162602205
 40
0.037557274999825
 40
0.0399588615652
 40
0.04225222582934
 40
0.0443942049866956
 40
0.0443942049866956
 40
0.0443942049866956
 40
0.0443942049866956
 10
14.256278738
 20
17.2466725019
 30
0.0
 10
14.25546480081052
 20
17.24647530968202
 30
0.0
 10
14.25378228274846
 20
17.24607680961106
 30
0.0
 10
14.25117433177263
 20
17.24548103025632
 30
0.0
 10
14.24840737953448
 20
17.24486438695188
 30
0.0
 10
14.24549583372723
 20
17.24422035394327
 30
0.0
 10
14.24246924738675
 20
17.24353886447499
 30
0.0
 10
14.23937363691218
 20
17.24280774764426
 30
0.0
 10
14.23627877001796
 20
17.24201693086799
 30
0.0
 10
14.23326175743075
 20
17.24116234439913
 30
0.0
 10
14.23037582770742
 20
17.24025807783663
 30
0.0
 10
14.22764092418411
 20
17.23931116966662
 30
0.0
 10
14.22505662935721
 20
17.23832314160672
 30
0.0
 10
14.22262195887499
 20
17.23729517377349
 30
0.0
 10
14.22033699671619
 20
17.23622888356409
 30
0.0
 10
14.21819953827126
 20
17.23512477200471
 30
0.0
 10
14.21622165761016
 20
17.23399114673807
 30
0.0
 10
14.21497439337724
 20
17.23319604250151
 30
0.0
 10
14.2143824681
 20
17.23279678
 30
0.0
 11
14.256278738
 21
17.2466725019
 31
0.0
 11
14.25383417
 21
17.2460924209
 31
0.0
 11
14.2512269867
 21
17.245495418
 31
0.0
 11
14.2484571067
 21
17.2448762159
 31
0.0
 11
14.2455367188
 21
17.2442275069
 31
0.0
 11
14.2424976002
 21
17.2435397569
 31
0.0
 11
14.2393847108
 21
17.2428004089
 31
0.0
 11
14.2362596182
 21
17.2419975287
 31
0.0
 11
14.2332234386
 21
17.2411360655
 31
0.0
 11
14.2303388921
 21
17.2402304918
 31
0.0
 11
14.2276063888
 21
17.2392825963
 31
0.0
 11
14.2250238034
 21
17.2382932538
 31
0.0
 11
14.2225916984
 21
17.2372642559
 31
0.0
 11
14.220308747
 21
17.2361966244
 31
0.0
 11
14.2181760157
 21
17.235092507
 31
0.0
 11
14.2161874483
 21
17.2339500888
 31
0.0
 11
14.2143824681
 21
17.23279678
 31
0.0
  0
SPLINE
  5
723
330
1F
100
AcDbEntity
  8
0
  6
Continuous
 62
     7
100
AcDbSpline
210
0.0
220
0.0
230
1.0
 70
     8
 71
     3
 72
    29
 73
    25
 74
    23
 42
0.0000000001
 43
0.0000000001
 44
0.0000000001
 12
-0.9794743169106117
 22
0.2015690018641022
 32
0.0
 13
-0.8388785942198612
 23
0.5443185686339477
 33
0.0
 40
0.0
 40
0.0
 40
0.0
 40
0.0
 40
0.0023564040260092
 40
0.00481016301962
 40
0.0073830871244043
 40
0.0100846582972037
 40
0.012905571498556
 40
0.0158273394485758
 40
0.0188586106247259
 40
0.0219782270946246
 40
0.0251523488136848
 40
0.0283485010847799
 40
0.0315330090607287
 40
0.0346853668947783
 40
0.0377730572066668
 40
0.0407466102156078
 40
0.0435938405097155
 40
0.0463222073158757
 40
0.0489330323627961
 40
0.051429547202159
 40
0.0538144019780792
 40
0.0560928767879687
 40
0.058261364043532
 40
0.0602809538467337
 40
0.0602809538467337
 40
0.0602809538467337
 40
0.0602809538467337
 10
14.2627971483
 20
10.7124342774
 30
0.0
 10
14.26202780255875
 20
10.7125926034025
 30
0.0
 10
14.26045585306224
 20
10.712908682457
 30
0.0
 10
14.2580389450957
 20
10.71337275130832
 30
0.0
 10
14.25550512982483
 20
10.71383764725479
 30
0.0
 10
14.25284756295547
 20
10.7143058052743
 30
0.0
 10
14.25007277624152
 20
10.7147785089161
 30
0.0
 10
14.24718750418131
 20
10.71525685939892
 30
0.0
 10
14.24420299276103
 20
10.71574531153362
 30
0.0
 10
14.24113590329907
 20
10.71625002204444
 30
0.0
 10
14.23801689389063
 20
10.71677761634837
 30
0.0
 10
14.23488121348944
 20
10.71733588432991
 30
0.0
 10
14.23176025450928
 20
10.71793422664554
 30
0.0
 10
14.22868584481722
 20
10.71858117764174
 30
0.0
 10
14.22569567766131
 20
10.71928347157255
 30
0.0
 10
14.22282364345848
 20
10.72003944490183
 30
0.0
 10
14.22008868309106
 20
10.720841389246
 30
0.0
 10
14.21749389703547
 20
10.72168748028351
 30
0.0
 10
14.21503752188151
 20
10.72257673507111
 30
0.0
 10
14.21271958282693
 20
10.72350777892164
 30
0.0
 10
14.21053913780501
 20
10.72447959464145
 30
0.0
 10
14.20849759967168
 20
10.72549013619511
 30
0.0
 10
14.20660877044308
 20
10.72653013128029
 30
0.0
 10
14.20541810291833
 20
10.7272601886897
 30
0.0
 10
14.2048533727
 20
10.7276266221
 30
0.0
 11
14.2627971483
 21
10.7124342774
 31
0.0
 11
14.2604870222
 21
10.7128989895
 31
0.0
 11
14.258077348
 21
10.7133620267
 31
0.0
 11
14.2555467853
 21
10.71382699
 31
0.0
 11
14.2528863179
 21
10.7142964578
 31
0.0
 11
14.2501055783
 21
10.7147708401
 31
0.0
 11
14.2472233538
 21
10.715249912
 31
0.0
 11
14.2442321243
 21
10.7157409833
 31
0.0
 11
14.2411542072
 21
10.7162493466
 31
0.0
 11
14.2380249054
 21
10.7167808717
 31
0.0
 11
14.2348786649
 21
10.7173435084
 31
0.0
 11
14.2317516038
 21
10.7179456545
 31
0.0
 11
14.2286674158
 21
10.7185976854
 31
0.0
 11
14.2256620094
 21
10.7193057559
 31
0.0
 11
14.2227866901
 21
10.7200637509
 31
0.0
 11
14.2200549438
 21
10.720866423
 31
0.0
 11
14.2174614889
 21
10.7217137583
 31
0.0
 11
14.2150071651
 21
10.7226040965
 31
0.0
 11
14.2126912203
 21
10.7235362907
 31
0.0
 11
14.2105137052
 21
10.7245088956
 31
0.0
 11
14.2084725958
 21
10.7255214764
 31
0.0
 11
14.2065740284
 21
10.7265692258
 31
0.0
 11
14.2048533727
 21
10.7276266221
 31
0.0
  0
SPLINE
  5
724
330
1F
100
AcDbEntity
  8
0
  6
Continuous
 62
     7
100
AcDbSpline
210
0.0
220
0.0
230
1.0
 70
     8
 71
     3
 72
    35
 73
    31
 74
    29
 42
0.0000000001
 43
0.0000000001
 44
0.0000000001
 12
-0.8388599171668607
 22
0.5443473517624642
 32
0.0
 13
-0.8376613556011786
 23
0.5461899425405012
 33
0.0
 40
0.0
 40
0.0
 40
0.0
 40
0.0
 40
0.0267202345819023
 40
0.055525399658025
 40
0.0865992791443547
 40
0.1201026472240383
 40
0.1562455759766459
 40
0.1952633395994499
 40
0.2374080510980423
 40
0.2829316749376312
 40
0.3321479209096081
 40
0.3853904487127973
 40
0.4430182576729603
 40
0.5054464641560513
 40
0.5731322975172772
 40
0.6465854213666905
 40
0.7263877841033354
 40
0.8131961136428532
 40
0.9077541808968907
 40
1.010927281188995
 40
1.123714176758412
 40
1.247282293602415
 40
1.383021962474065
 40
1.532607353506905
 40
1.698086446178489
 40
1.882026539745731
 40
2.087724978391161
 40
2.320321022783901
 40
2.584244001195456
 40
2.840570780476052
 40
2.840570780476052
 40
2.840570780476052
 40
2.840570780476052
 10
14.2048533727
 20
10.7276266221
 30
0.0
 10
14.19738186144398
 20
10.73247498507771
 30
0.0
 10
14.18185520315067
 20
10.74254902186116
 30
0.0
 10
14.15764054653176
 20
10.75826274126485
 30
0.0
 10
14.13152866709206
 20
10.77520644793167
 30
0.0
 10
14.1033654643283
 20
10.7934822972355
 30
0.0
 10
14.07298109160192
 20
10.81319970939577
 30
0.0
 10
14.04018073937686
 20
10.83448556757091
 30
0.0
 10
14.00475768118775
 20
10.85747404344597
 30
0.0
 10
13.96648335179023
 20
10.88231368466817
 30
0.0
 10
13.92510637601879
 20
10.90916782337221
 30
0.0
 10
13.88034548360942
 20
10.93821926543085
 30
0.0
 10
13.83189107617274
 20
10.96966925870959
 30
0.0
 10
13.77939904259455
 20
11.00374153400792
 30
0.0
 10
13.7224831920077
 20
11.04068723547355
 30
0.0
 10
13.66071074732283
 20
11.08078787632801
 30
0.0
 10
13.59359323027706
 20
11.1243612958299
 30
0.0
 10
13.52057680933623
 20
11.17176797778162
 30
0.0
 10
13.44102856678313
 20
11.22342003960081
 30
0.0
 10
13.35422013877075
 20
11.27979195837236
 30
0.0
 10
13.25930496356125
 20
11.34143549014065
 30
0.0
 10
13.15529003841535
 20
11.40899822656289
 30
0.0
 10
13.04099402922024
 20
11.48325112092857
 30
0.0
 10
12.91499015241558
 20
11.56512608786638
 30
0.0
 10
12.77552368209679
 20
11.65577038795228
 30
0.0
 10
12.62038783745978
 20
11.75662859820101
 30
0.0
 10
12.44651456653079
 20
11.86971098899882
 30
0.0
 10
12.2503200582633
 20
11.99737322070432
 30
0.0
 10
12.04002208256734
 20
12.13430372893317
 30
0.0
 10
11.89473442503635
 20
12.22898641575105
 30
0.0
 10
11.8231627459
 20
12.2756541187
 30
0.0
 11
14.2048533727
 21
10.7276266221
 31
0.0
 11
14.1824384
 21
10.7421710346
 31
0.0
 11
14.158274838
 21
10.7578509519
 31
0.0
 11
14.1322080802
 21
10.774765742
 31
0.0
 11
14.1041035464
 21
10.7930033639
 31
0.0
 11
14.0737849889
 21
10.8126781287
 31
0.0
 11
14.041055122
 21
10.833918225
 31
0.0
 11
14.005702521
 21
10.8568609866
 31
0.0
 11
13.9675159083
 21
10.8816437011
 31
0.0
 11
13.9262322286
 21
10.9084372947
 31
0.0
 11
13.8815717163
 21
10.9374235916
 31
0.0
 11
13.8332333791
 21
10.9687982553
 31
0.0
 11
13.7808691898
 21
11.0027875572
 31
0.0
 11
13.7240958432
 21
11.0396407681
 31
0.0
 11
13.662486112
 21
11.0796357981
 31
0.0
 11
13.595552215
 21
11.123090033
 31
0.0
 11
13.522743749
 21
11.1703617302
 31
0.0
 11
13.4434374361
 21
11.2218567476
 31
0.0
 11
13.3569082507
 21
11.2780473936
 31
0.0
 11
13.2623194706
 21
11.3394790344
 31
0.0
 11
13.158693256
 21
11.4067894136
 31
0.0
 11
13.0448653071
 21
11.4807384214
 31
0.0
 11
12.9194339912
 21
11.5622416373
 31
0.0
 11
12.780685259
 21
11.652419902
 31
0.0
 11
12.6264712367
 21
11.7526795317
 31
0.0
 11
12.4540346039
 21
11.8648287864
 31
0.0
 11
12.2590786175
 21
11.991687303
 31
0.0
 11
12.0379098433
 21
12.1357001908
 31
0.0
 11
11.8231627459
 21
12.2756541187
 31
0.0
  0
SPLINE
  5
725
330
1F
100
AcDbEntity
  8
0
  6
Continuous
 62
     7
100
AcDbSpline
210
0.0
220
0.0
230
1.0
 70
     8
 71
     3
 72
    11
 73
     7
 74
     5
 42
0.0000000001
 43
0.0000000001
 44
0.0000000001
 12
-0.1782596586452933
 22
0.9839834826355895
 32
0.0
 13
0.0456113393120739
 23
0.9989592612945529
 33
0.0
 40
0.0
 40
0.0
 40
0.0
 40
0.0
 40
0.0421265026397805
 40
0.0858636777132988
 40
0.1312938224239142
 40
0.1784591250332152
 40
0.1784591250332152
 40
0.1784591250332152
 40
0.1784591250332152
 10
11.8231627459
 20
12.2756541187
 30
0.0
 10
11.8206595939065
 20
12.28947137962625
 30
0.0
 10
11.81612612778442
 20
12.31774139175182
 30
0.0
 10
11.81120814450542
 20
12.36124729848724
 30
0.0
 10
11.80858277577967
 20
12.40664033216531
 30
0.0
 10
11.80881105002631
 20
12.43753635281556
 30
0.0
 10
11.8095281409
 20
12.4532417581
 30
0.0
 11
11.8231627459
 21
12.2756541187
 31
0.0
 11
11.8165282298
 21
12.317254905
 31
0.0
 11
11.8116620273
 21
12.36072053
 31
0.0
 11
11.8091003687
 21
12.4060783954
 31
0.0
 11
11.8095281409
 21
12.4532417581
 31
0.0
  0
SPLINE
  5
726
330
1F
100
AcDbEntity
  8
0
  6
Continuous
 62
     7
100
AcDbSpline
210
0.0
220
0.0
230
1.0
 70
     8
 71
     3
 72
    12
 73
     8
 74
     6
 42
0.0000000001
 43
0.0000000001
 44
0.0000000001
 12
0.0456133315304687
 22
0.9989591703301449
 32
0.0
 13
-0.0496954774289091
 23
0.9987644164281748
 33
0.0
 40
0.0
 40
0.0
 40
0.0
 40
0.0
 40
0.5977110086673
 40
1.19370657001901
 40
1.789020971759672
 40
2.385033200223316
 40
2.982787142176409
 40
2.982787142176409
 40
2.982787142176409
 40
2.982787142176409
 10
11.8095281409
 20
12.4532417581
 30
0.0
 10
11.81861600436591
 20
12.65227138920516
 30
0.0
 10
11.83293215758402
 20
13.04994498523812
 30
0.0
 10
11.84300595578876
 20
13.64623410718848
 30
0.0
 10
11.84178963176918
 20
14.24204336861123
 30
0.0
 10
11.82928064557785
 20
14.83830625083439
 30
0.0
 10
11.81333928457679
 20
15.23593790696586
 30
0.0
 10
11.8034373954
 20
15.4349430293
 30
0.0
 11
11.8095281409
 21
12.4532417581
 31
0.0
 11
11.8310486424
 21
13.0505652198
 31
0.0
 11
11.8411279242
 21
13.6464755463
 31
0.0
 11
11.8399125963
 21
14.2417887075
 31
0.0
 11
11.8273996785
 21
14.8376695709
 31
0.0
 11
11.8034373954
 21
15.4349430293
 31
0.0
  0
SPLINE
  5
727
330
1F
100
AcDbEntity
  8
0
  6
Continuous
 62
     7
100
AcDbSpline
210
0.0
220
0.0
230
1.0
 70
     8
 71
     3
 72
    12
 73
     8
 74
     6
 42
0.0000000001
 43
0.0000000001
 44
0.0000000001
 12
0.9999999999999896
 22
-0.0000001432114866
 32
0.0
 13
0.9914621579300883
 23
0.1303947444976712
 33
0.0
 40
0.0
 40
0.0
 40
0.0
 40
0.0
 40
0.4545928216595382
 40
0.9118984688598263
 40
1.373257146045756
 40
1.837569744341407
 40
2.301491366617332
 40
2.301491366617332
 40
2.301491366617332
 40
2.301491366617332
 10
9.172000974599999
 20
12.020860998
 30
0.0
 10
9.323531915153177
 20
12.02086097629903
 30
0.0
 10
9.627512011985894
 20
12.02468623333655
 30
0.0
 10
10.08498253417364
 20
12.04204134527363
 30
0.0
 10
10.54509125763462
 20
12.07143144020071
 30
0.0
 10
11.00645474226238
 20
12.11319643001739
 30
0.0
 10
11.31378834755596
 20
12.14937823919879
 30
0.0
 10
11.4671085918
 20
12.169542553
 30
0.0
 11
9.172000974599999
 21
12.020860998
 31
0.0
 11
9.6265577173
 21
12.0265882286
 31
0.0
 11
10.083533638
 21
12.0439509145
 31
0.0
 11
10.5439519092
 21
12.0733931386
 31
0.0
 11
11.0063712197
 21
12.1152807288
 31
0.0
 11
11.4671085918
 21
12.169542553
 31
0.0
  0
SPLINE
  5
728
330
1F
100
AcDbEntity
  8
0
  6
Continuous
 62
     7
100
AcDbSpline
210
0.0
220
0.0
230
1.0
 70
     8
 71
     3
 72
    11
 73
     7
 74
     5
 42
0.0000000001
 43
0.0000000001
 44
0.0000000001
 12
0.991460084713044
 22
0.1304105073251513
 32
0.0
 13
0.9999812387936676
 23
0.0061255253392606
 33
0.0
 40
0.0
 40
0.0
 40
0.0
 40
0.0
 40
0.0717097115452515
 40
0.1452140849563718
 40
0.2204928401295697
 40
0.2975793583197395
 40
0.2975793583197395
 40
0.2975793583197395
 40
0.2975793583197395
 10
11.4671085918
 20
12.169542553
 30
0.0
 10
11.49080769736113
 20
12.17265978628758
 30
0.0
 10
11.53893023766247
 20
12.17800214368528
 30
0.0
 10
11.61222829753387
 20
12.18357466642487
 30
0.0
 10
11.68745104242508
 20
12.18698768893584
 30
0.0
 10
11.7382375281153
 20
12.1879111491265
 30
0.0
 10
11.7639325521
 20
12.1880685476
 30
0.0
 11
11.4671085918
 21
12.169542553
 31
0.0
 11
11.5383722612
 21
12.1775282999
 31
0.0
 11
11.6116605142
 21
12.1831607845
 31
0.0
 11
11.686859574
 21
12.1866237869
 31
0.0
 11
11.7639325521
 21
12.1880685476
 31
0.0
  0
SPLINE
  5
729
330
1F
100
AcDbEntity
  8
0
  6
Continuous
 62
     7
100
AcDbSpline
210
0.0
220
0.0
230
1.0
 70
     8
 71
     3
 72
    35
 73
    31
 74
    29
 42
0.0000000001
 43
0.0000000001
 44
0.0000000001
 12
-0.8397851512568966
 22
0.5429188703005555
 32
0.0
 13
-0.8409529840942475
 23
0.5411081948584592
 33
0.0
 40
0.0
 40
0.0
 40
0.0
 40
0.0
 40
0.0267195884421162
 40
0.0555243111888206
 40
0.0865976320133675
 40
0.1201003369338984
 40
0.1562424713076248
 40
0.1952592934383387
 40
0.2374028915683307
 40
0.2829252373684859
 40
0.3321399753963494
 40
0.3853807559492203
 40
0.4430065652658602
 40
0.5054324486080006
 40
0.573115613120974
 40
0.646565682459401
 40
0.7263645243110668
 40
0.8131688099091734
 40
0.9077222604579679
 40
1.010890023848961
 40
1.123670785105834
 40
1.247231839721256
 40
1.382963315733227
 40
1.532539167394395
 40
1.698007105844513
 40
1.881934072811534
 40
2.087620094216058
 40
2.320190546576589
 40
2.583941824184382
 40
2.840641994784237
 40
2.840641994784237
 40
2.840641994784237
 40
2.840641994784237
 10
14.1505780386
 20
10.6475597339
 30
0.0
 10
14.14309846739287
 20
10.65239525682396
 30
0.0
 10
14.12755624208024
 20
10.66244459195852
 30
0.0
 10
14.10331489253466
 20
10.67811608988449
 30
0.0
 10
14.07717525055991
 20
10.69501591317835
 30
0.0
 10
14.04898121576643
 20
10.71324292426297
 30
0.0
 10
14.01856347330426
 20
10.73290734547679
 30
0.0
 10
13.98572659778797
 20
10.75413506786906
 30
0.0
 10
13.9502636219013
 20
10.77705987076152
 30
0.0
 10
13.9119455464335
 20
10.80182958104253
 30
0.0
 10
13.87052054739871
 20
10.82860679657125
 30
0.0
 10
13.82570681238762
 20
10.8575734324233
 30
0.0
 10
13.77719411686331
 20
10.88892971237622
 30
0.0
 10
13.72463761147289
 20
10.92289816223673
 30
0.0
 10
13.66765023134012
 20
10.95972849507306
 30
0.0
 10
13.60579815184758
 20
10.99970051924723
 30
0.0
 10
13.538591632927
 20
11.04313001720881
 30
0.0
 10
13.4654752997599
 20
11.09037497541068
 30
0.0
 10
13.38581433979462
 20
11.14184443026885
 30
0.0
 10
13.29887801421146
 20
11.19800902402109
 30
0.0
 10
13.20381675663243
 20
11.25941565621795
 30
0.0
 10
13.09963368581374
 20
11.32670567902828
 30
0.0
 10
12.98514238178723
 20
11.40064185728884
 30
0.0
 10
12.85890922256951
 20
11.48214512701808
 30
0.0
 10
12.7191700319432
 20
11.57234764298599
 30
0.0
 10
12.56370367972115
 20
11.67267308979182
 30
0.0
 10
12.3894244756653
 20
11.78509741978279
 30
0.0
 10
12.19275784166408
 20
11.91190217317846
 30
0.0
 10
11.98175893375088
 20
12.04785851909565
 30
0.0
 10
11.83589014359448
 20
12.14176769228895
 30
0.0
 10
11.7639325521
 20
12.1880685476
 30
0.0
 11
14.1505780386
 21
10.6475597339
 31
0.0
 11
14.1281397356
 21
10.6620669378
 31
0.0
 11
14.103950019
 21
10.677705661
 31
0.0
 11
14.0778552278
 21
10.6945761423
 31
0.0
 11
14.0497200589
 21
10.7127652464
 31
0.0
 11
14.0193681452
 21
10.7323870509
 31
0.0
 11
13.9866018464
 21
10.7535691677
 31
0.0
 11
13.9512094018
 21
10.7764483663
 31
0.0
 11
13.912979127
 21
10.8011613195
 31
0.0
 11
13.871647528
 21
10.8278781562
 31
0.0
 11
13.8269342865
 21
10.85677983
 31
0.0
 11
13.7785377784
 21
10.8880610049
 31
0.0
 11
13.7261092642
 21
10.9219467218
 31
0.0
 11
13.66926455
 21
10.9586848386
 31
0.0
 11
13.6075753623
 21
10.9985515767
 31
0.0
 11
13.540552678
 21
11.0418622561
 31
0.0
 11
13.467644551
 21
11.0889726479
 31
0.0
 11
13.3882257938
 21
11.1402855704
 31
0.0
 11
13.3015690585
 21
11.1962694755
 31
0.0
 11
13.206834599
 21
11.2574649189
 31
0.0
 11
13.1030407159
 21
11.3245034455
 31
0.0
 11
12.9890180673
 21
11.3981367884
 31
0.0
 11
12.8633582113
 21
11.4792696177
 31
0.0
 11
12.7243377043
 21
11.5690077773
 31
0.0
 11
12.5697952949
 21
11.6687362731
 31
0.0
 11
12.3969512085
 21
11.7802336327
 31
0.0
 11
12.2014872194
 21
11.9062607896
 31
0.0
 11
11.9797737439
 21
12.0491169103
 31
0.0
 11
11.7639325521
 21
12.1880685476
 31
0.0
  0
SPLINE
  5
744
330
1F
100
AcDbEntity
  8
0
  6
Continuous
 62
     7
100
AcDbSpline
210
0.0
220
0.0
230
1.0
 70
     8
 71
     3
 72
    21
 73
    17
 74
    15
 42
0.0000000001
 43
0.0000000001
 44
0.0000000001
 12
-0.1400152198552846
 22
-0.9901493514661696
 32
0.0
 13
0.9982634574238067
 23
-0.0589072964263962
 33
0.0
 40
0.0
 40
0.0
 40
0.0
 40
0.0
 40
0.0158099969276026
 40
0.030420131438597
 40
0.0440760869776601
 40
0.0568092723800614
 40
0.0688003399904961
 40
0.080261389490698
 40
0.0914386621543797
 40
0.1026120907662972
 40
0.11405726836484
 40
0.1260152699428817
 40
0.1386931970786017
 40
0.1522608502127756
 40
0.1668418918134007
 40
0.1824942469817545
 40
0.1824942469817545
 40
0.1824942469817545
 40
0.1824942469817545
 10
2.5713257214
 20
9.7534014769
 30
0.0
 10
2.570587841334756
 20
9.748183390831817
 30
0.0
 10
2.569576748606936
 20
9.738077898965704
 30
0.0
 10
2.569501962994953
 20
9.723362703739148
 30
0.0
 10
2.5708716992826
 20
9.709736681951103
 30
0.0
 10
2.573626534768743
 20
9.697211378445272
 30
0.0
 10
2.577688158588508
 20
9.685817930509829
 30
0.0
 10
2.582995127402226
 20
9.675526805196987
 30
0.0
 10
2.589516200055456
 20
9.666289448329322
 30
0.0
 10
2.597261487958242
 20
9.658058719117152
 30
0.0
 10
2.606272979518566
 20
9.650815880866499
 30
0.0
 10
2.616598741918677
 20
9.644583044646944
 30
0.0
 10
2.628271376429455
 20
9.639414363249867
 30
0.0
 10
2.641298018774866
 20
9.635379945698959
 30
0.0
 10
2.65564595896891
 20
9.632552139561857
 30
0.0
 10
2.665689373904271
 20
9.631547484775225
 30
0.0
 10
2.670897765299999
 20
9.6312401388
 30
0.0
 11
2.5713257214
 21
9.7534014769
 31
0.0
 11
2.569796032999999
 21
9.7376656561
 31
0.0
 11
2.5697654492
 21
9.7230555536
 31
0.0
 11
2.571173669499999
 21
9.709472400899999
 31
0.0
 11
2.5739451763
 21
9.6970444984
 31
0.0
 11
2.577999055399999
 21
9.685759474399999
 31
0.0
 11
2.583268469
 21
9.6755816094
 31
0.0
 11
2.5897199242
 21
9.666454169999999
 31
0.0
 11
2.5973727751
 21
9.658312955099999
 31
0.0
 11
2.6062823786
 21
9.651128871599999
 31
0.0
 11
2.6165050582
 21
9.644924790399999
 31
0.0
 11
2.628082418199999
 21
9.6397581114
 31
0.0
 11
2.641030251
 21
9.635704121099999
 31
0.0
 11
2.655327554399999
 21
9.632841623999999
 31
0.0
 11
2.670897765299999
 21
9.6312401388
 31
0.0
  0
SPLINE
  5
749
330
1F
100
AcDbEntity
  8
0
  6
Continuous
 62
     7
100
AcDbSpline
210
0.0
220
0.0
230
1.0
 70
     8
 71
     3
 72
    18
 73
    14
 74
    12
 42
0.0000000001
 43
0.0000000001
 44
0.0000000001
 12
0.2032580051480369
 22
-0.9791252133119854
 32
0.0
 13
0.9587052630024505
 23
-0.2844015096503571
 33
0.0
 40
0.0
 40
0.0
 40
0.0
 40
0.0
 40
0.0277965952497054
 40
0.055920121361496
 40
0.0700627467601882
 40
0.0842264387395557
 40
0.1125119467195342
 40
0.1266050384511777
 40
0.1406331573566214
 40
0.1684007342751583
 40
0.1821215162331549
 40
0.1957109526448266
 40
0.2224371206395992
 40
0.2224371206395992
 40
0.2224371206395992
 40
0.2224371206395992
 10
3.907242817299999
 20
10.6617601635
 30
0.0
 10
3.90912611080012
 20
10.65268804774893
 30
0.0
 10
3.914183420015041
 20
10.6346795989967
 30
0.0
 10
3.923424894918808
 20
10.61315682191841
 30
0.0
 10
3.932509004194278
 20
10.59667187866761
 30
0.0
 10
3.94266938014207
 20
10.58076595189565
 30
0.0
 10
3.954338391345653
 20
10.56588494186378
 30
0.0
 10
3.967347475960345
 20
10.55229400503003
 30
0.0
 10
3.981092055090355
 20
10.53970288666125
 30
0.0
 10
3.995956523819857
 20
10.52856888986832
 30
0.0
 10
4.011722162579161
 20
10.51913566608971
 30
0.0
 10
4.02779310392472
 20
10.5109800051988
 30
0.0
 10
4.040409183394507
 20
10.50617333777496
 30
0.0
 10
4.048950022699999
 20
10.5036396836
 30
0.0
 11
3.907242817299999
 21
10.6617601635
 31
0.0
 11
3.914726773099999
 21
10.6349900101
 31
0.0
 11
3.925813151599999
 21
10.6091438318
 31
0.0
 11
3.932636739599999
 21
10.5967562372
 31
0.0
 11
3.9402608166
 21
10.5848195869
 31
0.0
 11
3.957725256999999
 21
10.5625695693
 31
0.0
 11
3.967470502499999
 21
10.5523889296
 31
0.0
 11
3.9778158899
 21
10.5429146972
 31
0.0
 11
4.0000612428
 21
10.5262959547
 31
0.0
 11
4.0118367345
 21
10.5192533946
 31
0.0
 11
4.023957220699999
 21
10.5131079413
 31
0.0
 11
4.048950022699999
 21
10.5036396836
 31
0.0
  0
SPLINE
  5
74D
330
1F
100
AcDbEntity
  8
0
  6
Continuous
 62
     7
100
AcDbSpline
210
0.0
220
0.0
230
1.0
 70
     8
 71
     3
 72
    19
 73
    15
 74
    13
 42
0.0000000001
 43
0.0000000001
 44
0.0000000001
 12
-0.6135451548234229
 22
0.7896596374341937
 32
0.0
 13
-0.5061704002255972
 23
0.8624334907315805
 33
0.0
 40
0.0
 40
0.0
 40
0.0
 40
0.0
 40
0.0114430876775675
 40
0.021944202798799
 40
0.0315452069379769
 40
0.0402956325415627
 40
0.0483545998431376
 40
0.0559515805421602
 40
0.0633340304757648
 40
0.0707685199094291
 40
0.0785161908591175
 40
0.0867986356475531
 40
0.0958198967484511
 40
0.1058057851668671
 40
0.1058057851668671
 40
0.1058057851668671
 40
0.1058057851668671
 10
6.5800694444
 20
12.1880685467
 30
0.0
 10
6.57772916073307
 20
12.19108059485553
 30
0.0
 10
6.573254944287877
 20
12.19686790212144
 30
0.0
 10
6.567006865219568
 20
12.20532605589104
 30
0.0
 10
6.561380764776417
 20
12.21312645073304
 30
0.0
 10
6.556311729491454
 20
12.22032428931892
 30
0.0
 10
6.55168739438805
 20
12.2270177742439
 30
0.0
 10
6.547379014087335
 20
12.23337495609852
 30
0.0
 10
6.543246477588281
 20
12.23959944583391
 30
0.0
 10
6.539145411741907
 20
12.24590470392267
 30
0.0
 10
6.534938390823041
 20
12.25249856856578
 30
0.0
 10
6.530509157933957
 20
12.25957764320121
 30
0.0
 10
6.525751407085439
 20
12.26733105018496
 30
0.0
 10
6.522524066612453
 20
12.27278344286442
 30
0.0
 10
6.5208392129
 20
12.2756541644
 30
0.0
 11
6.5800694444
 21
12.1880685467
 31
0.0
 11
6.573097632399999
 21
12.1971425807
 31
0.0
 11
6.566845437299999
 21
12.2055796107
 31
0.0
 11
6.561230284799999
 21
12.2133673795
 31
0.0
 11
6.556190225399999
 21
12.2205205431
 31
0.0
 11
6.551610081299999
 21
12.2271514732
 31
0.0
 11
6.5473490474
 21
12.2334409649
 31
0.0
 11
6.543265731299999
 21
12.2395913386
 31
0.0
 11
6.5392112711
 21
12.2458229504
 31
0.0
 11
6.5350435816
 21
12.2523541654
 31
0.0
 11
6.530649549099999
 21
12.2593749467
 31
0.0
 11
6.525939051699999
 21
12.2670687342
 31
0.0
 11
6.5208392129
 21
12.2756541644
 31
0.0
  0
SPLINE
  5
74E
330
1F
100
AcDbEntity
  8
0
  6
Continuous
 62
     7
100
AcDbSpline
210
0.0
220
0.0
230
1.0
 70
     8
 71
     3
 72
    22
 73
    18
 74
    16
 42
0.0000000001
 43
0.0000000001
 44
0.0000000001
 12
-0.9914084166153617
 22
0.1308027196361814
 32
0.0
 13
0.145021535983595
 23
-0.9894284987309386
 33
0.0
 40
0.0
 40
0.0
 40
0.0
 40
0.0
 40
0.0200867828056493
 40
0.0378365471178617
 40
0.0533823053849684
 40
0.0670646113716704
 40
0.0793069010792497
 40
0.090559927579152
 40
0.1012567592888714
 40
0.1117702412248954
 40
0.1224600093777042
 40
0.1336925789206923
 40
0.1459045775719004
 40
0.159568032201351
 40
0.1751364468070878
 40
0.1929866656280395
 40
0.2132877188943998
 40
0.2132877188943998
 40
0.2132877188943998
 40
0.2132877188943998
 10
2.6940596528
 20
18.7010143592
 30
0.0
 10
2.687421584287918
 20
18.7018901611399
 30
0.0
 10
2.674836875368455
 20
18.7030119027962
 30
0.0
 10
2.657011500779669
 20
18.70279576439965
 30
0.0
 10
2.641436928266113
 20
18.70085402705274
 30
0.0
 10
2.627992952732238
 20
18.69748524293319
 30
0.0
 10
2.616427021519049
 20
18.6929356244132
 30
0.0
 10
2.60644875962594
 20
18.6873544424999
 30
0.0
 10
2.597802256907789
 20
18.68078889486383
 30
0.0
 10
2.590302394713996
 20
18.67320084839988
 30
0.0
 10
2.583843906995186
 20
18.6644855264925
 30
0.0
 10
2.578388984769745
 20
18.65445970550758
 30
0.0
 10
2.573982964041891
 20
18.64286320262053
 30
0.0
 10
2.570775147920301
 20
18.62938887122896
 30
0.0
 10
2.569020186725258
 20
18.61375673952964
 30
0.0
 10
2.569035599499057
 20
18.5958168468544
 30
0.0
 10
2.570344165191075
 20
18.58314401941866
 30
0.0
 10
2.5713255285
 20
18.5764485392
 30
0.0
 11
2.6940596528
 21
18.7010143592
 31
0.0
 11
2.674045576
 21
18.7027218642
 31
0.0
 11
2.6562981454
 21
18.7024340444
 31
0.0
 11
2.640879889599999
 21
18.7004470899
 31
0.0
 11
2.627620602399999
 21
18.6970711752
 31
0.0
 11
2.616242184799999
 21
18.6925539559
 31
0.0
 11
2.606433455799999
 21
18.6870385737
 31
0.0
 11
2.597921961299999
 21
18.6805596332
 31
0.0
 11
2.590531451799999
 21
18.6730820887
 31
0.0
 11
2.5841568843
 21
18.6645009447
 31
0.0
 11
2.578766542899999
 21
18.6546462586
 31
0.0
 11
2.574393527999999
 21
18.6432440811
 31
0.0
 11
2.571178866399999
 21
18.6299641736
 31
0.0
 11
2.569377661699999
 21
18.6145003062
 31
0.0
 11
2.569318960499999
 21
18.5966501839
 31
0.0
 11
2.5713255285
 21
18.5764485392
 31
0.0
  0
SPLINE
  5
752
330
1F
100
AcDbEntity
  8
0
  6
Continuous
 62
     7
100
AcDbSpline
210
0.0
220
0.0
230
1.0
 70
     8
 71
     3
 72
    19
 73
    15
 74
    13
 42
0.0000000001
 43
0.0000000001
 44
0.0000000001
 12
-0.9569918060692069
 22
-0.2901149481091889
 32
0.0
 13
-0.2572795445537022
 23
-0.9663370198612074
 33
0.0
 40
0.0
 40
0.0
 40
0.0
 40
0.0
 40
0.0268254209515655
 40
0.0405055804097398
 40
0.0543315361798745
 40
0.0682807802002111
 40
0.0823272957636879
 40
0.1105842533263541
 40
0.1388832975865426
 40
0.1529815442522056
 40
0.167001969312523
 40
0.1809174035221351
 40
0.1947036568316987
 40
0.2217833460068603
 40
0.2217833460068603
 40
0.2217833460068603
 40
0.2217833460068603
 10
4.0634850646
 20
17.4577166952
 30
0.0
 10
4.054927828584998
 20
17.45512254333087
 30
0.0
 10
4.042265872442644
 20
17.4502806164551
 30
0.0
 10
4.026053909378962
 20
17.44219121500163
 30
0.0
 10
4.014102123054636
 20
17.43523480938395
 30
0.0
 10
4.002516227423798
 20
17.42746525368966
 30
0.0
 10
3.987612660789634
 20
17.41606992180665
 30
0.0
 10
3.9702585844408
 20
17.40008141232929
 30
0.0
 10
3.954966430106561
 20
17.38208865459226
 30
0.0
 10
3.944135660500442
 20
17.36670278519719
 30
0.0
 10
3.936785206324091
 20
17.35476349917111
 30
0.0
 10
3.930247948867047
 20
17.34247683782691
 30
0.0
 10
3.922705824867439
 20
17.32583848924298
 30
0.0
 10
3.918280173032547
 20
17.31289969234543
 30
0.0
 10
3.915957822999999
 20
17.3041769903
 30
0.0
 11
4.0634850646
 21
17.4577166952
 31
0.0
 11
4.038409109699999
 21
17.4481878078
 31
0.0
 11
4.0261660272
 21
17.4420842274
 31
0.0
 11
4.0142152611
 21
17.4351318003
 31
0.0
 11
4.0026272126
 21
17.4273665868
 31
0.0
 11
3.991466836799999
 21
17.4188371899
 31
0.0
 11
3.970683478499999
 21
17.3996927999
 31
0.0
 11
3.952354915599999
 21
17.3781312673
 31
0.0
 11
3.9442416354
 21
17.3666015126
 31
0.0
 11
3.9368947934
 21
17.3546601462
 31
0.0
 11
3.9303605833
 21
17.3423742434
 31
0.0
 11
3.9246726638
 21
17.3298160448
 31
0.0
 11
3.915957822999999
 21
17.3041769903
 31
0.0
  0
SPLINE
  5
756
330
1F
100
AcDbEntity
  8
0
  6
Continuous
 62
     7
100
AcDbSpline
210
0.0
220
0.0
230
1.0
 70
     8
 71
     3
 72
    19
 73
    15
 74
    13
 42
0.0000000001
 43
0.0000000001
 44
0.0000000001
 12
0.520454833355168
 22
0.8538892003282654
 32
0.0
 13
0.6236403418366257
 23
0.7817114071279098
 33
0.0
 40
0.0
 40
0.0
 40
0.0
 40
0.0
 40
0.0098395651591679
 40
0.0187370775667181
 40
0.0269116942513954
 40
0.0345590680802837
 40
0.0418911484737053
 40
0.0491616043860686
 40
0.0566320161464639
 40
0.0645434732991189
 40
0.0731190187355387
 40
0.0825149434539741
 40
0.092782547169554
 40
0.1039600053839146
 40
0.1039600053839146
 40
0.1039600053839146
 40
0.1039600053839146
 10
6.5272625026
 20
15.6138186908
 30
0.0
 10
6.528969519015067
 20
15.61661932360844
 30
0.0
 10
6.532238078480489
 20
15.62194173739262
 30
0.0
 10
6.537055069919283
 20
15.6295095708549
 30
0.0
 10
6.541536661879571
 20
15.63642413778993
 30
0.0
 10
6.545790177094072
 20
15.64286440739019
 30
0.0
 10
6.549930655218809
 20
15.64901781068277
 30
0.0
 10
6.554095055429497
 20
15.65508364644237
 30
0.0
 10
6.558425473193342
 20
15.66126936849389
 30
0.0
 10
6.563060695930135
 20
15.66777238009513
 30
0.0
 10
6.568129886727609
 20
15.67475394310911
 30
0.0
 10
6.573744279973388
 20
15.68230948609402
 30
0.0
 10
6.579969398278705
 20
15.69049138892498
 30
0.0
 10
6.584413357512777
 20
15.69609097807038
 30
0.0
 10
6.586736928799999
 20
15.6990034936
 30
0.0
 11
6.5272625026
 21
15.6138186908
 31
0.0
 11
6.532425919199999
 21
15.6221946189
 31
0.0
 11
6.537195152899999
 21
15.6297059528
 31
0.0
 11
6.541642416
 21
15.6365649767
 31
0.0
 11
6.545857408699999
 21
15.6429458985
 31
0.0
 11
6.5499516053
 21
15.6490284109
 31
0.0
 11
6.5540663079
 21
15.6550224706
 31
0.0
 11
6.558349535599999
 21
15.6611430108
 31
0.0
 11
6.562941219199999
 21
15.6675856497
 31
0.0
 11
6.5679813507
 21
15.6745237369
 31
0.0
 11
6.573584575799999
 21
15.6820661019
 31
0.0
 11
6.579812194499999
 21
15.6902294622
 31
0.0
 11
6.586736928799999
 21
15.6990034936
 31
0.0
  0
SPLINE
  5
757
330
1F
100
AcDbEntity
  8
0
  6
Continuous
 62
     7
100
AcDbSpline
210
0.0
220
0.0
230
1.0
 70
     8
 71
     3
 72
    10
 73
     6
 74
     4
 42
0.0000000001
 43
0.0000000001
 44
0.0000000001
 12
0.9318882803513313
 22
0.3627454106447645
 32
0.0
 13
0.9649275731536157
 23
0.2625162443885592
 33
0.0
 40
0.0
 40
0.0
 40
0.0
 40
0.0
 40
0.0029030966827149
 40
0.0058253540667991
 40
0.0087690493318753
 40
0.0087690493318753
 40
0.0087690493318753
 40
0.0087690493318753
 10
3.130559076699999
 20
9.9595853042
 30
0.0
 10
3.131460863958449
 20
9.959936332532771
 30
0.0
 10
3.133282380197121
 20
9.960610461901859
 30
0.0
 10
3.136058980168106
 20
9.961525786616592
 30
0.0
 10
3.137936777723921
 20
9.962072619924795
 30
0.0
 10
3.138883595299999
 20
9.962330209199999
 30
0.0
 11
3.130559076699999
 21
9.9595853042
 31
0.0
 11
3.133282101799999
 21
9.9605918352
 31
0.0
 11
3.136057260799999
 21
9.961507302699999
 31
0.0
 11
3.138883595299999
 21
9.962330209199999
 31
0.0
  0
LINE
  5
758
330
1F
100
AcDbEntity
  8
0
  6
Continuous
 62
     7
100
AcDbLine
 10
3.0248223085
 20
9.9179894767
 30
0.0
 11
3.130559076699999
 21
9.9595853042
 31
0.0
  0
LINE
  5
759
330
1F
100
AcDbEntity
  8
0
  6
Continuous
 62
     7
100
AcDbLine
 10
3.018274913199999
 20
9.9153452561
 30
0.0
 11
3.0248223085
 21
9.9179894767
 31
0.0
  0
LINE
  5
75A
330
1F
100
AcDbEntity
  8
0
  6
Continuous
 62
     7
100
AcDbLine
 10
2.924702558699999
 20
18.2279966486
 30
0.0
 11
2.9877639382
 21
18.1174705137
 31
0.0
  0
LINE
  5
75B
330
1F
100
AcDbEntity
  8
0
  6
Continuous
 62
     7
100
AcDbLine
 10
2.9244654681
 20
10.0435642751
 30
0.0
 11
2.987760665
 21
10.1330083372
 31
0.0
  0
LINE
  5
75C
330
1F
100
AcDbEntity
  8
0
  6
Continuous
 62
     7
100
AcDbLine
 10
3.0450386579
 20
18.3550557184
 30
0.0
 11
3.0475487962
 21
18.3537048527
 31
0.0
  0
LINE
  5
75D
330
1F
100
AcDbEntity
  8
0
  6
Continuous
 62
     7
100
AcDbLine
 10
3.0475487962
 20
18.3537048527
 30
0.0
 11
3.160664576099999
 21
18.2931805547
 31
0.0
  0
LINE
  5
75E
330
1F
100
AcDbEntity
  8
0
  6
Continuous
 62
     7
100
AcDbLine
 10
3.160664576099999
 20
18.2931805547
 30
0.0
 11
3.163926663199999
 21
18.2914995785
 31
0.0
  0
SPLINE
  5
765
330
1F
100
AcDbEntity
  8
0
  6
Continuous
 62
     7
100
AcDbSpline
210
0.0
220
0.0
230
1.0
 70
     8
 71
     3
 72
    10
 73
     6
 74
     4
 42
0.0000000001
 43
0.0000000001
 44
0.0000000001
 12
1.0
 22
-0.0000000000463095
 32
0.0
 13
0.9998965315674965
 23
-0.0143849281990152
 33
0.0
 40
0.0
 40
0.0
 40
0.0
 40
0.0
 40
2.159391088399948
 40
4.318765112249153
 40
6.478158271675092
 40
6.478158271675092
 40
6.478158271675092
 40
6.478158271675092
 10
9.172000974599999
 20
18.7476088902
 30
0.0
 10
9.891798004066648
 20
18.74760889016666
 30
0.0
 10
11.33138885732433
 20
18.7441572973036
 30
0.0
 10
13.49072653727106
 20
18.72862552581977
 30
0.0
 10
14.93021877933314
 20
18.71136832711726
 30
0.0
 10
15.6499420228
 20
18.7010140886
 30
0.0
 11
9.172000974599999
 21
18.7476088902
 31
0.0
 11
11.3313858564
 21
18.7424315439
 31
0.0
 11
13.4907040227
 21
18.7268999129
 31
0.0
 11
15.6499420228
 21
18.7010140886
 31
0.0
  0
LINE
  5
766
330
1F
100
AcDbEntity
  8
0
  6
Continuous
 62
     7
100
AcDbLine
 10
15.6499420228
 20
18.7010140886
 30
0.0
 11
15.2989633112
 21
18.3550557487
 31
0.0
  0
LINE
  5
768
330
1F
100
AcDbEntity
  8
0
  6
Continuous
 62
     7
100
AcDbLine
 10
15.7726761694
 20
9.753401523
 30
0.0
 11
15.4266526583
 21
10.0378731374
 31
0.0
  0
LINE
  5
769
330
1F
100
AcDbEntity
  8
0
  6
Continuous
 62
     7
100
AcDbLine
 10
15.4266526583
 20
10.0378731374
 30
0.0
 11
15.4195377194
 21
10.0435630364
 31
0.0
  0
LINE
  5
76B
330
1F
100
AcDbEntity
  8
0
  6
Continuous
 62
     7
100
AcDbLine
 10
15.4218342781
 20
18.2304755639
 30
0.0
 11
15.419300863
 21
18.2279983398
 31
0.0
  0
LINE
  5
76C
330
1F
100
AcDbEntity
  8
0
  6
Continuous
 62
     7
100
AcDbLine
 10
15.7726761681
 20
18.5764482901
 30
0.0
 11
15.4218342781
 21
18.2304755639
 31
0.0
  0
LINE
  5
76E
330
1F
100
AcDbEntity
  8
0
  6
Continuous
 62
     7
100
AcDbLine
 10
15.6731041335
 20
9.631240187899999
 30
0.0
 11
15.3257270491
 21
9.9153452547
 31
0.0
  0
SPLINE
  5
76F
330
1F
100
AcDbEntity
  8
0
  6
Continuous
 62
     7
100
AcDbSpline
210
0.0
220
0.0
230
1.0
 70
     8
 71
     3
 72
    16
 73
    12
 74
    10
 42
0.0000000001
 43
0.0000000001
 44
0.0000000001
 12
-0.9802064084666346
 22
-0.1979782735578357
 32
0.0
 13
-0.9999999999999992
 23
-0.0000000402951878
 33
0.0
 40
0.0
 40
0.0
 40
0.0
 40
0.0
 40
0.7271399332841019
 40
1.454340289594149
 40
2.181522712773361
 40
2.908611220493822
 40
3.635632367672006
 40
4.362736652608184
 40
5.089935585217594
 40
5.817127034744721
 40
6.544205761683656
 40
6.544205761683656
 40
6.544205761683656
 40
6.544205761683656
 10
15.6731041335
 20
9.631240187899999
 30
0.0
 10
15.43552172601431
 20
9.583254218357817
 30
0.0
 10
14.95925697545953
 20
9.492539841846452
 30
0.0
 10
14.2420319614902
 20
9.372320046274314
 30
0.0
 10
13.52233505199246
 20
9.268006591150646
 30
0.0
 10
12.80056571438797
 20
9.179656696325819
 30
0.0
 10
12.07704181693533
 20
9.107320424509641
 30
0.0
 10
11.35205694251244
 20
9.051024449153082
 30
0.0
 10
10.62594596001837
 20
9.010786158304064
 30
0.0
 10
9.89913441442542
 20
8.98663011995147
 30
0.0
 10
9.414360550246311
 20
8.981258512965924
 30
0.0
 10
9.172000974599999
 20
8.981258503199999
 30
0.0
 11
15.6731041335
 21
9.631240187899999
 31
0.0
 11
14.9588061599
 21
9.4951854655
 31
0.0
 11
14.2416112353
 21
9.374969832799999
 31
0.0
 11
13.5219487449
 21
9.2706617483
 31
0.0
 11
12.8002466688
 21
9.182322564399999
 31
0.0
 11
12.0768320449
 21
9.109996702
 31
0.0
 11
11.351910175
 21
9.053703507799999
 31
0.0
 11
10.6258252834
 21
9.0134664878
 31
0.0
 11
9.8990350948
 21
8.989312274499999
 31
0.0
 11
9.172000974599999
 21
8.981258503199999
 31
0.0
  0
SPLINE
  5
770
330
1F
100
AcDbEntity
  8
0
  6
Continuous
 62
     7
100
AcDbSpline
210
0.0
220
0.0
230
1.0
 70
     8
 71
     3
 72
    30
 73
    26
 74
    24
 42
0.0000000001
 43
0.0000000001
 44
0.0000000001
 12
0.7272149943126336
 22
-0.6864097552095806
 32
0.0
 13
0.806485082625236
 23
-0.5912544388864798
 33
0.0
 40
0.0
 40
0.0
 40
0.0
 40
0.0
 40
0.0030931884226718
 40
0.0065203709614876
 40
0.0102822363037945
 40
0.0142832924081931
 40
0.0183990878734685
 40
0.0225458759850807
 40
0.0266507025519427
 40
0.0306610926946399
 40
0.0345444809146556
 40
0.0382839158095359
 40
0.0418730127860287
 40
0.0453120010459858
 40
0.048605107060722
 40
0.0517590544140186
 40
0.054782250652337
 40
0.0576845415202882
 40
0.0604772188556468
 40
0.0631730484149065
 40
0.0657863475440871
 40
0.0683331314538055
 40
0.0708307761142853
 40
0.0732984171526915
 40
0.0757545200186413
 40
0.0757545200186413
 40
0.0757545200186413
 40
0.0757545200186413
 10
4.0727042945
 20
17.4539300381
 30
0.0
 10
4.073454098833733
 20
17.45322230653066
 30
0.0
 10
4.075097615588779
 20
17.45179856320034
 30
0.0
 10
4.077699769337662
 20
17.44956834878889
 30
0.0
 10
4.080583251419137
 20
17.44720162064311
 30
0.0
 10
4.083673617347693
 20
17.44472616173677
 30
0.0
 10
4.08688990831362
 20
17.44220290645567
 30
0.0
 10
4.090150785084723
 20
17.43968069228602
 30
0.0
 10
4.093395730124394
 20
17.43719538878066
 30
0.0
 10
4.096578314172058
 20
17.43477310424295
 30
0.0
 10
4.099668185530954
 20
17.43243012452234
 30
0.0
 10
4.102648197555391
 20
17.43017468874984
 30
0.0
 10
4.105510675537777
 20
17.4280094208171
 30
0.0
 10
4.108254050958
 20
17.42593331291169
 30
0.0
 10
4.110880465812573
 20
17.42394302127891
 30
0.0
 10
4.113394241853081
 20
17.42203356934692
 30
0.0
 10
4.1158010104584
 20
17.42019861765003
 30
0.0
 10
4.118107279372938
 20
17.41843047978366
 30
0.0
 10
4.120320136960876
 20
17.41671988397066
 30
0.0
 10
4.12244769849506
 20
17.41505649302281
 30
0.0
 10
4.124497351543997
 20
17.41342667849655
 30
0.0
 10
4.126482098855285
 20
17.41182144820766
 30
0.0
 10
4.128397910770321
 20
17.41020865708547
 30
0.0
 10
4.130306398467778
 20
17.40863574031251
 30
0.0
 10
4.131455142492406
 20
17.40744961077395
 30
0.0
 10
4.1321154126
 20
17.4069655502
 30
0.0
 11
4.0727042945
 21
17.4539300381
 31
0.0
 11
4.075014917299999
 21
17.4518736245
 31
0.0
 11
4.077622599999999
 21
17.4496497605
 31
0.0
 11
4.0805261346
 21
17.4472578747
 31
0.0
 11
4.0836479133
 21
17.4447552865
 31
0.0
 11
4.086884659699999
 21
17.4422129952
 31
0.0
 11
4.0901638646
 21
17.4396747543
 31
0.0
 11
4.093421991999999
 21
17.4371779149
 31
0.0
 11
4.0966127376
 21
17.4347484352
 31
0.0
 11
4.0997067805
 21
17.432401607
 31
0.0
 11
4.102688259099999
 21
17.4301445827
 31
0.0
 11
4.105550501299999
 21
17.4279791297
 31
0.0
 11
4.1082925959
 21
17.4259036641
 31
0.0
 11
4.1109170495
 21
17.4239144958
 31
0.0
 11
4.1134283684
 21
17.4220064441
 31
0.0
 11
4.115832222299999
 21
17.420173086
 31
0.0
 11
4.118135075499999
 21
17.4184066887
 31
0.0
 11
4.1203440852
 21
17.4166980861
 31
0.0
 11
4.122467047499999
 21
17.4150366024
 31
0.0
 11
4.124512424699999
 21
17.4134100218
 31
0.0
 11
4.126489497399999
 21
17.4118046272
 31
0.0
 11
4.1284082378
 21
17.41020567
 31
0.0
 11
4.1302798658
 21
17.4085974844
 31
0.0
 11
4.1321154126
 21
17.4069655502
 31
0.0
  0
SPLINE
  5
771
330
1F
100
AcDbEntity
  8
0
  6
Continuous
 62
     7
100
AcDbSpline
210
0.0
220
0.0
230
1.0
 70
     8
 71
     3
 72
    23
 73
    19
 74
    17
 42
0.0000000001
 43
0.0000000001
 44
0.0000000001
 12
0.7119416235042486
 22
-0.7022386522558658
 32
0.0
 13
0.3367494369180221
 23
-0.9415942951905535
 33
0.0
 40
0.0
 40
0.0
 40
0.0
 40
0.0
 40
0.004011756467066
 40
0.008537054811798
 40
0.0136395008899633
 40
0.0193613713370765
 40
0.0256963246923839
 40
0.0325900060016143
 40
0.0399245121528209
 40
0.0474631551948561
 40
0.0550535729151801
 40
0.0626912367638139
 40
0.0703785451719286
 40
0.0781101619057945
 40
0.0858863375113471
 40
0.0936988833612793
 40
0.1015669002417758
 40
0.1093132271411874
 40
0.1093132271411874
 40
0.1093132271411874
 40
0.1093132271411874
 10
4.1321154126
 20
17.4069655502
 30
0.0
 10
4.133067458070756
 20
17.40602648004846
 30
0.0
 10
4.135185076297251
 20
17.40412209056752
 30
0.0
 10
4.138281197105759
 20
17.40078701457132
 30
0.0
 10
4.141621659680715
 20
17.39691065354383
 30
0.0
 10
4.145144582709103
 20
17.392401619929
 30
0.0
 10
4.148835130271981
 20
17.38727342701793
 30
0.0
 10
4.152639580525527
 20
17.38157022046937
 30
0.0
 10
4.156484254343638
 20
17.37541595902327
 30
0.0
 10
4.160289726212329
 20
17.36896630419249
 30
0.0
 10
4.163981534421987
 20
17.36233502600638
 30
0.0
 10
4.167534711891247
 20
17.35557247673412
 30
0.0
 10
4.170948725290156
 20
17.34868607680513
 30
0.0
 10
4.174223888933938
 20
17.34168160988748
 30
0.0
 10
4.177359394311839
 20
17.33456789262339
 30
0.0
 10
4.180356500597906
 20
17.3273455903068
 30
0.0
 10
4.183199345390762
 20
17.32007180925293
 30
0.0
 10
4.18498679765948
 20
17.31518320127239
 30
0.0
 10
4.1858563214
 20
17.3127519022
 30
0.0
 11
4.1321154126
 21
17.4069655502
 31
0.0
 11
4.135018001599999
 21
17.4041962241
 31
0.0
 11
4.138130253299999
 21
17.4009110735
 31
0.0
 11
4.14145723
 21
17.3970424585
 31
0.0
 11
4.1449900354
 21
17.3925414489
 31
0.0
 11
4.148696791199999
 21
17.3874041738
 31
0.0
 11
4.152530021999999
 21
17.3816744981
 31
0.0
 11
4.156422070699999
 21
17.375457832
 31
0.0
 11
4.160253727499999
 21
17.3689655639
 31
0.0
 11
4.163947004299999
 21
17.3623342633
 31
0.0
 11
4.1675004248
 21
17.3555735598
 31
0.0
 11
4.170915832999999
 21
17.3486866376
 31
0.0
 11
4.1741915896
 21
17.3416832587
 31
0.0
 11
4.177328584499999
 21
17.3345679112
 31
0.0
 11
4.1803244156
 21
17.3273525894
 31
0.0
 11
4.183186856799999
 21
17.3200237341
 31
0.0
 11
4.1858563214
 21
17.3127519022
 31
0.0
  0
SPLINE
  5
772
330
1F
100
AcDbEntity
  8
0
  6
Continuous
 62
     7
100
AcDbSpline
210
0.0
220
0.0
230
1.0
 70
     8
 71
     3
 72
    30
 73
    26
 74
    24
 42
0.0000000001
 43
0.0000000001
 44
0.0000000001
 12
0.9102810244473797
 22
-0.4139908894299841
 32
0.0
 13
0.9908026828121753
 23
-0.1353146101948941
 33
0.0
 40
0.0
 40
0.0
 40
0.0
 40
0.0
 40
0.0044005103799894
 40
0.0093093299472594
 40
0.0147693719008044
 40
0.0206932970238156
 40
0.0269494587748484
 40
0.0334588711596065
 40
0.0401486006695117
 40
0.0469658226461533
 40
0.0538789182977718
 40
0.0608735015732425
 40
0.067946684601935
 40
0.0751021414630693
 40
0.0823464935024417
 40
0.0896869483848022
 40
0.0971296876556065
 40
0.1046790735205826
 40
0.1123373417757185
 40
0.1201043356954921
 40
0.1279774678390595
 40
0.1359522147845097
 40
0.144021622904621
 40
0.1521788505279119
 40
0.1604113027349865
 40
0.1604113027349865
 40
0.1604113027349865
 40
0.1604113027349865
 10
3.9357906747
 20
17.2952803189
 30
0.0
 10
3.937125908398929
 20
17.29467306183128
 30
0.0
 10
3.939941817907067
 20
17.29336891477147
 30
0.0
 10
3.944377364267838
 20
17.29123253566506
 30
0.0
 10
3.949255418471481
 20
17.28884517366834
 30
0.0
 10
3.954535142504802
 20
17.28625683942328
 30
0.0
 10
3.960143359679703
 20
17.28354400922643
 30
0.0
 10
3.966009439105207
 20
17.28077856726985
 30
0.0
 10
3.972083426881145
 20
17.27801680228366
 30
0.0
 10
3.978325711468576
 20
17.27530210440067
 30
0.0
 10
3.984710822994535
 20
17.27266378312691
 30
0.0
 10
3.991225695800496
 20
17.27011945666677
 30
0.0
 10
3.997866142947982
 20
17.2676784520815
 30
0.0
 10
4.004633222333342
 20
17.26534484667123
 30
0.0
 10
4.01153039492377
 20
17.26311968577114
 30
0.0
 10
4.018561509068964
 20
17.26100245196159
 30
0.0
 10
4.025729519353901
 20
17.25899195089664
 30
0.0
 10
4.033035769718233
 20
17.25708685958613
 30
0.0
 10
4.040479627358633
 20
17.25528598559029
 30
0.0
 10
4.048058332581765
 20
17.25358845565988
 30
0.0
 10
4.055767074350217
 20
17.25199373852425
 30
0.0
 10
4.063599013849874
 20
17.25050198418288
 30
0.0
 10
4.071545982739518
 20
17.24911295457653
 30
0.0
 10
4.07959768676376
 20
17.24783001186485
 30
0.0
 10
4.085004301189036
 20
17.24704382248711
 30
0.0
 10
4.0877232131
 20
17.2466724988
 30
0.0
 11
3.9357906747
 21
17.2952803189
 31
0.0
 11
3.9397835662
 21
17.2934306408
 31
0.0
 11
3.9442096806
 21
17.2913079018
 31
0.0
 11
3.949116276099999
 21
17.2889126192
 31
0.0
 11
3.9544379256
 21
17.2863101328
 31
0.0
 11
3.9600717888
 21
17.2835899958
 31
0.0
 11
3.9659612838
 21
17.2808175784
 31
0.0
 11
3.972052170299999
 21
17.2780510675
 31
0.0
 11
3.9783045099
 21
17.2753339431
 31
0.0
 11
3.984694054499999
 21
17.2726948881
 31
0.0
 11
3.991209534699999
 21
17.2701507354
 31
0.0
 11
3.997848339599999
 21
17.2677102052
 31
0.0
 11
4.004612708699999
 21
17.2653769942
 31
0.0
 11
4.0115068976
 21
17.2631519558
 31
0.0
 11
4.0185353119
 21
17.2610344879
 31
0.0
 11
4.0257011999
 21
17.2590234143
 31
0.0
 11
4.0330060332
 21
17.2571174664
 31
0.0
 11
4.040449287999999
 21
17.2553155145
 31
0.0
 11
4.0480282317
 21
17.2536167482
 31
0.0
 11
4.0557379068
 21
17.2520207784
 31
0.0
 11
4.0635716194
 21
17.2505276154
 31
0.0
 11
4.0715204454
 21
17.2491378267
 31
0.0
 11
4.0795757188
 21
17.2478521623
 31
0.0
 11
4.0877232131
 21
17.2466724988
 31
0.0
  0
LINE
  5
773
330
1F
100
AcDbEntity
  8
0
  6
Continuous
 62
     7
100
AcDbLine
 10
3.915954834599999
 20
17.3041783876
 30
0.0
 11
3.9357906747
 21
17.2952803189
 31
0.0
  0
LINE
  5
774
330
1F
100
AcDbEntity
  8
0
  6
Continuous
 62
     7
100
AcDbLine
 10
3.907242897899999
 20
10.6617602132
 30
0.0
 11
3.9235780936
 21
10.6673519803
 31
0.0
  0
SPLINE
  5
775
330
1F
100
AcDbEntity
  8
0
  6
Continuous
 62
     7
100
AcDbSpline
210
0.0
220
0.0
230
1.0
 70
     8
 71
     3
 72
    31
 73
    27
 74
    25
 42
0.0000000001
 43
0.0000000001
 44
0.0000000001
 12
0.9388270707455312
 22
0.3443889243796403
 32
0.0
 13
0.9917241087241487
 23
0.1283872741952759
 33
0.0
 40
0.0
 40
0.0
 40
0.0
 40
0.0
 40
0.0039441689527915
 40
0.0083140974750729
 40
0.0131655937897654
 40
0.0185084643860257
 40
0.0242592058208943
 40
0.0303246681198805
 40
0.0366545289947163
 40
0.0431964000113429
 40
0.0499100215341701
 40
0.0567668587308742
 40
0.0637494454614222
 40
0.0708485528352399
 40
0.0780604379642984
 40
0.0853844677440631
 40
0.0928213408597624
 40
0.1003718531849573
 40
0.1080359967622852
 40
0.1158124782610308
 40
0.1236986651955485
 40
0.1316904275247331
 40
0.1397820521570187
 40
0.1479664918516958
 40
0.1562355118998314
 40
0.1645797602131076
 40
0.1645797602131076
 40
0.1645797602131076
 40
0.1645797602131076
 10
3.9235780936
 20
10.6673519803
 30
0.0
 10
3.924812391128158
 20
10.6678047563344
 30
0.0
 10
3.927418929983504
 20
10.66874688233261
 30
0.0
 10
3.931499638665179
 20
10.67036276764126
 30
0.0
 10
3.935993840600745
 20
10.67219867708575
 30
0.0
 10
3.940897250170232
 20
10.6742497264434
 30
0.0
 10
3.946170333343878
 20
10.67646541300453
 30
0.0
 10
3.95175407803403
 20
10.67879109422152
 30
0.0
 10
3.957599021352912
 20
10.68117522511409
 30
0.0
 10
3.963669900749325
 20
10.68357670872805
 30
0.0
 10
3.969935853620984
 20
10.68596121455404
 30
0.0
 10
3.976374459476281
 20
10.68830311226868
 30
0.0
 10
3.982970941860719
 20
10.69058440374222
 30
0.0
 10
3.989716721626821
 20
10.69279319539147
 30
0.0
 10
3.996607394004092
 20
10.69492199468244
 30
0.0
 10
4.003640933478471
 20
10.6969662880185
 30
0.0
 10
4.010816270336741
 20
10.69892346350542
 30
0.0
 10
4.018132245617437
 20
10.70079203960869
 30
0.0
 10
4.025586909531179
 20
10.70257114404687
 30
0.0
 10
4.033177157003784
 20
10.70426015112482
 30
0.0
 10
4.040898560883352
 20
10.70585845370774
 30
0.0
 10
4.048745300938899
 20
10.70736536752761
 30
0.0
 10
4.056710204746641
 20
10.70877985400235
 30
0.0
 10
4.064784789497965
 20
10.71010099613814
 30
0.0
 10
4.072959645857606
 20
10.71132590051928
 30
0.0
 10
4.078446405392847
 20
10.71207718256795
 30
0.0
 10
4.0812048028
 20
10.712434281
 30
0.0
 11
3.9235780936
 21
10.6673519803
 31
0.0
 11
3.927278797499999
 21
10.6687162601
 31
0.0
 11
3.9313475264
 21
10.6703105375
 31
0.0
 11
3.935839769899999
 21
10.6721426851
 31
0.0
 11
3.940771276199999
 21
10.6741985333
 31
0.0
 11
3.946074751999999
 21
10.6764220826
 31
0.0
 11
3.9516755031
 21
10.6787504769
 31
0.0
 11
3.957537698299999
 21
10.6811383224
 31
0.0
 11
3.963621756099999
 21
10.6835425514
 31
0.0
 11
3.9698969475
 21
10.6859289057
 31
0.0
 11
3.976341088299999
 21
10.6882718239
 31
0.0
 11
3.9829403215
 21
10.6905536299
 31
0.0
 11
3.989686971399999
 21
10.6927627113
 31
0.0
 11
3.9965774231
 21
10.6948917868
 31
0.0
 11
4.003610252499999
 21
10.6969364684
 31
0.0
 11
4.0107848164
 21
10.6988942004
 31
0.0
 11
4.018100271799999
 21
10.7007635181
 31
0.0
 11
4.0255548465
 21
10.7025435217
 31
0.0
 11
4.033145467999999
 21
10.7042335305
 31
0.0
 11
4.0408677695
 21
10.7058329066
 31
0.0
 11
4.048715968699999
 21
10.7073408968
 31
0.0
 11
4.056682804
 21
10.7087564972
 31
0.0
 11
4.0647597834
 21
10.7100784113
 31
0.0
 11
4.072937323399999
 21
10.711305005
 31
0.0
 11
4.0812048028
 21
10.712434281
 31
0.0
  0
SPLINE
  5
776
330
1F
100
AcDbEntity
  8
0
  6
Continuous
 62
     7
100
AcDbSpline
210
0.0
220
0.0
230
1.0
 70
     8
 71
     3
 72
    29
 73
    25
 74
    23
 42
0.0000000001
 43
0.0000000001
 44
0.0000000001
 12
0.904036799618783
 22
0.4274546349439064
 32
0.0
 13
0.3633189080642036
 23
0.9316648383635795
 33
0.0
 40
0.0
 40
0.0
 40
0.0
 40
0.0
 40
0.0030525839537789
 40
0.0063439550699821
 40
0.0099330908137838
 40
0.013868500857393
 40
0.0181769127583037
 40
0.022873985654636
 40
0.0280175207269441
 40
0.0336145139958237
 40
0.0396385938956948
 40
0.0460500209658178
 40
0.052789771122896
 40
0.0598121850794019
 40
0.0670337905478491
 40
0.0743295262793121
 40
0.08166512973747
 40
0.089051386291164
 40
0.0964831025206768
 40
0.103959328396525
 40
0.1114764089655571
 40
0.1190380591764552
 40
0.1266158965027614
 40
0.1340411708452336
 40
0.1340411708452336
 40
0.1340411708452336
 40
0.1340411708452336
 10
4.117653418899999
 20
10.5398735999
 30
0.0
 10
4.118573301642713
 20
10.5403085469532
 30
0.0
 10
4.120427606175989
 20
10.54133000582295
 30
0.0
 10
4.123280884741769
 20
10.54300999842196
 30
0.0
 10
4.126283571571369
 20
10.54500930892503
 30
0.0
 10
4.129458746366465
 20
10.54735165856814
 30
0.0
 10
4.132800163095754
 20
10.55008262780549
 30
0.0
 10
4.136303696973115
 20
10.55324265832711
 30
0.0
 10
4.13996102133861
 20
10.55686512992969
 30
0.0
 10
4.143755498800395
 20
10.56096985084606
 30
0.0
 10
4.147653641726261
 20
10.56554727978683
 30
0.0
 10
4.151615766219019
 20
10.57056453151345
 30
0.0
 10
4.155606711468707
 20
10.57597808040397
 30
0.0
 10
4.159589032153152
 20
10.581729429892
 30
0.0
 10
4.163520837473148
 20
10.58773799647467
 30
0.0
 10
4.167359597219259
 20
10.59392957325217
 30
0.0
 10
4.171074952476176
 20
10.60025967606363
 30
0.0
 10
4.174663369507772
 20
10.60671444937767
 30
0.0
 10
4.178125865190297
 20
10.61329062741671
 30
0.0
 10
4.18146142213293
 20
10.61998081508391
 30
0.0
 10
4.184670710353321
 20
10.6267803953272
 30
0.0
 10
4.1877493095137
 20
10.6336771755531
 30
0.0
 10
4.190676936221842
 20
10.6406062309893
 30
0.0
 10
4.192524506577939
 20
10.64525381112664
 30
0.0
 10
4.1934237541
 20
10.6475597668
 30
0.0
 11
4.117653418899999
 21
10.5398735999
 31
0.0
 11
4.1203503998
 21
10.541303482
 31
0.0
 11
4.123180185999999
 21
10.5429843847
 31
0.0
 11
4.1261715453
 21
10.5449677316
 31
0.0
 11
4.129339631999999
 21
10.5473024005
 31
0.0
 11
4.132677981499999
 21
10.5500259709
 31
0.0
 11
4.136169141499999
 21
10.5531683101
 31
0.0
 11
4.139827552699999
 21
10.5567838295
 31
0.0
 11
4.1436314303
 21
10.5608895388
 31
0.0
 11
4.1475420496
 21
10.565471743
 31
0.0
 11
4.151520429999999
 21
10.5704995543
 31
0.0
 11
4.155524224399999
 21
10.575921165
 31
0.0
 11
4.159526150399999
 21
10.5816916837
 31
0.0
 11
4.1634826125
 21
10.5877330406
 31
0.0
 11
4.167327425099999
 21
10.593933458
 31
0.0
 11
4.171041675199999
 21
10.6002592326
 31
0.0
 11
4.174631448899999
 21
10.6067144871
 31
0.0
 11
4.178094624599999
 21
10.6132899582
 31
0.0
 11
4.181431281
 21
10.6199803003
 31
0.0
 11
4.184640361099999
 21
10.6267779694
 31
0.0
 11
4.187723928899999
 21
10.6336823277
 31
0.0
 11
4.190671478699999
 21
10.6406634142
 31
0.0
 11
4.1934237541
 21
10.6475597668
 31
0.0
  0
SPLINE
  5
777
330
1F
100
AcDbEntity
  8
0
  6
Continuous
 62
     7
100
AcDbSpline
210
0.0
220
0.0
230
1.0
 70
     8
 71
     3
 72
    31
 73
    27
 74
    25
 42
0.0000000001
 43
0.0000000001
 44
0.0000000001
 12
0.8147194558334664
 22
0.5798553339294386
 32
0.0
 13
0.9349685930197722
 23
0.3547305034341252
 33
0.0
 40
0.0
 40
0.0
 40
0.0
 40
0.0
 40
0.0024759804791774
 40
0.005232713709368
 40
0.0082837191352533
 40
0.0116068166210212
 40
0.0151176320638821
 40
0.0187272597478888
 40
0.0223766746860951
 40
0.0260106292710855
 40
0.0295867092042463
 40
0.0330746330649577
 40
0.0364549253927907
 40
0.0397163637812737
 40
0.0428537057300381
 40
0.0458659102020907
 40
0.0487549215417477
 40
0.0515249065508224
 40
0.0541817792301727
 40
0.0567329816603503
 40
0.0591874330632114
 40
0.0615554246891912
 40
0.0638485433689148
 40
0.0660796506060568
 40
0.0682627682007017
 40
0.0704128546494244
 40
0.0704128546494244
 40
0.0704128546494244
 40
0.0704128546494244
 10
4.056214974899999
 20
10.5056302605
 30
0.0
 10
4.056887384722882
 20
10.50610883066252
 30
0.0
 10
4.058315292016257
 20
10.50711075825004
 30
0.0
 10
4.060609876202416
 20
10.50864708171475
 30
0.0
 10
4.063163793480287
 20
10.51030285257352
 30
0.0
 10
4.065952103553636
 20
10.51205862522122
 30
0.0
 10
4.068917722868429
 20
10.51388183370886
 30
0.0
 10
4.071992905412523
 20
10.51573421497566
 30
0.0
 10
4.075117643674268
 20
10.51758364570904
 30
0.0
 10
4.078245380731843
 20
10.51940587595389
 30
0.0
 10
4.081338051663787
 20
10.52118121008057
 30
0.0
 10
4.084368173549676
 20
10.52289552898363
 30
0.0
 10
4.087317509261617
 20
10.52453951130518
 30
0.0
 10
4.090175222154657
 20
10.52610770315639
 30
0.0
 10
4.092935876256446
 20
10.52759756778854
 30
0.0
 10
4.095597814217306
 20
10.5290087878021
 30
0.0
 10
4.098161977936429
 20
10.53034282298229
 30
0.0
 10
4.100631109022438
 20
10.53160270228103
 30
0.0
 10
4.103009289691639
 20
10.53279289010381
 30
0.0
 10
4.105301581220649
 20
10.53391953487891
 30
0.0
 10
4.107514188246305
 20
10.5349898438514
 30
0.0
 10
4.109653402584617
 20
10.53601435408159
 30
0.0
 10
4.111729173710348
 20
10.53699861841596
 30
0.0
 10
4.11374219025332
 20
10.53797245877732
 30
0.0
 10
4.115730208866714
 20
10.53888380566909
 30
0.0
 10
4.116983331132722
 20
10.53961936615054
 30
0.0
 10
4.117653418899999
 20
10.5398735999
 30
0.0
 11
4.056214974899999
 21
10.5056302605
 31
0.0
 11
4.058243505
 21
10.5070499594
 31
0.0
 11
4.060531900199999
 21
10.5085871079
 31
0.0
 11
4.063091156699999
 21
10.5102480836
 31
0.0
 11
4.065902206099999
 21
10.5120203641
 31
0.0
 11
4.0688923798
 21
10.5138601158
 31
0.0
 11
4.071983916699999
 21
10.5157233956
 31
0.0
 11
4.075124203999999
 21
10.5175826495
 31
0.0
 11
4.078264009499999
 21
10.5194121979
 31
0.0
 11
4.081365405599999
 21
10.5211925602
 31
0.0
 11
4.084401235599999
 21
10.5229099271
 31
0.0
 11
4.0873539534
 21
10.5245554768
 31
0.0
 11
4.0902133424
 21
10.5261241944
 31
0.0
 11
4.092974449799999
 21
10.5276138925
 31
0.0
 11
4.0956359426
 21
10.5290245065
 31
0.0
 11
4.0981989564
 21
10.5303576782
 31
0.0
 11
4.1006663513
 21
10.5316165584
 31
0.0
 11
4.1030422338
 21
10.5328057408
 31
0.0
 11
4.105331712699999
 21
10.5339313163
 31
0.0
 11
4.107540843299999
 21
10.5350009301
 31
0.0
 11
4.1096765586
 21
10.5360237226
 31
0.0
 11
4.1117466241
 21
10.5370102428
 31
0.0
 11
4.113759672999999
 21
10.5379722582
 31
0.0
 11
4.115725185999999
 21
10.5389223956
 31
0.0
 11
4.117653418899999
 21
10.5398735999
 31
0.0
  0
LINE
  5
779
330
1F
100
AcDbEntity
  8
0
  6
Continuous
 62
     7
100
AcDbLine
 10
2.6708978158
 20
9.631240187899999
 30
0.0
 11
3.0182749001
 21
9.9153452547
 31
0.0
  0
SPLINE
  5
77A
330
1F
100
AcDbEntity
  8
0
  6
Continuous
 62
     7
100
AcDbSpline
210
0.0
220
0.0
230
1.0
 70
     8
 71
     3
 72
    16
 73
    12
 74
    10
 42
0.0000000001
 43
0.0000000001
 44
0.0000000001
 12
0.9802064084666346
 22
-0.1979782735578357
 32
0.0
 13
0.9999999999999992
 23
-0.0000000402951878
 33
0.0
 40
0.0
 40
0.0
 40
0.0
 40
0.0
 40
0.7271399332841011
 40
1.454340289594149
 40
2.181522712674395
 40
2.908611220394856
 40
3.63563236757304
 40
4.362736652608918
 40
5.08993558511848
 40
5.817127034645609
 40
6.544205761584541
 40
6.544205761584541
 40
6.544205761584541
 40
6.544205761584541
 10
2.6708978158
 20
9.631240187899999
 30
0.0
 10
2.908480223285692
 20
9.583254218357817
 30
0.0
 10
3.384744973840268
 20
9.492539841845008
 30
0.0
 10
4.101969987777988
 20
9.372320046284823
 30
0.0
 10
4.821666897239476
 20
9.268006591140984
 30
0.0
 10
5.543436234812308
 20
9.179656696328096
 30
0.0
 10
6.266960132297455
 20
9.107320424502871
 30
0.0
 10
6.991945006721534
 20
9.051024449162454
 30
0.0
 10
7.718055989214701
 20
9.010786158299836
 30
0.0
 10
8.444867534774633
 20
8.986630119952366
 30
0.0
 10
8.929641398953688
 20
8.981258512965924
 30
0.0
 10
9.172000974599999
 20
8.981258503199999
 30
0.0
 11
2.6708978158
 21
9.631240187899999
 31
0.0
 11
3.385195789399999
 21
9.4951854655
 31
0.0
 11
4.102390714
 21
9.374969832799999
 31
0.0
 11
4.8220532043
 21
9.2706617483
 31
0.0
 11
5.5437552804
 21
9.182322564399999
 31
0.0
 11
6.2671699043
 21
9.109996702
 31
0.0
 11
6.9920917743
 21
9.053703507799999
 31
0.0
 11
7.718176665799999
 21
9.0134664878
 31
0.0
 11
8.4449668544
 21
8.989312274499999
 31
0.0
 11
9.172000974599999
 21
8.981258503199999
 31
0.0
  0
LINE
  5
77B
330
1F
100
AcDbEntity
  8
0
  6
Continuous
 62
     7
100
AcDbLine
 10
2.571325779799999
 20
9.753401523
 30
0.0
 11
2.917349290999999
 21
10.0378731374
 31
0.0
  0
LINE
  5
77C
330
1F
100
AcDbEntity
  8
0
  6
Continuous
 62
     7
100
AcDbLine
 10
2.917349290999999
 20
10.0378731374
 30
0.0
 11
2.924464229899999
 21
10.0435630364
 31
0.0
  0
LINE
  5
77E
330
1F
100
AcDbEntity
  8
0
  6
Continuous
 62
     7
100
AcDbLine
 10
2.9221676712
 20
18.2304755639
 30
0.0
 11
2.924701086199999
 21
18.2279983398
 31
0.0
  0
LINE
  5
77F
330
1F
100
AcDbEntity
  8
0
  6
Continuous
 62
     7
100
AcDbLine
 10
2.5713257811
 20
18.5764482901
 30
0.0
 11
2.9221676712
 21
18.2304755639
 31
0.0
  0
SPLINE
  5
780
330
1F
100
AcDbEntity
  8
0
  6
Continuous
 62
     7
100
AcDbSpline
210
0.0
220
0.0
230
1.0
 70
     8
 71
     3
 72
    19
 73
    15
 74
    13
 42
0.0000000001
 43
0.0000000001
 44
0.0000000001
 12
0.9999999999812125
 22
-0.0000061298380086
 32
0.0
 13
0.5859744909384379
 23
-0.8103294983952135
 33
0.0
 40
0.0
 40
0.0
 40
0.0
 40
0.0
 40
0.0652756164654145
 40
0.1308741118695899
 40
0.1972816491290683
 40
0.2646234767446036
 40
0.3325261449533086
 40
0.3998062061605419
 40
0.4661231693416116
 40
0.5316716112276881
 40
0.5964754817654973
 40
0.6608037403458081
 40
0.7247502354502629
 40
0.7885363354217354
 40
0.7885363354217354
 40
0.7885363354217354
 40
0.7885363354217354
 10
9.172000974599999
 20
14.7997447909
 30
0.0
 10
9.193759513421396
 20
14.79974465752368
 30
0.0
 10
9.237405872745874
 20
14.79792768592694
 30
0.0
 10
9.302726443211746
 20
14.78973417210266
 30
0.0
 10
9.367821396564961
 20
14.77600679970493
 30
0.0
 10
9.432290381593125
 20
14.7567135072611
 30
0.0
 10
9.49522207901877
 20
14.732071598362
 30
0.0
 10
9.555643142093991
 20
14.70257128168332
 30
0.0
 10
9.612872716546885
 20
14.66880420096656
 30
0.0
 10
9.66665699185722
 20
14.63121124990913
 30
0.0
 10
9.716935572860359
 20
14.59008837834303
 30
0.0
 10
9.763624009987308
 20
14.54570315943246
 30
0.0
 10
9.806673794236697
 20
14.4982438099247
 30
0.0
 10
9.832906526046755
 20
14.46464951259815
 30
0.0
 10
9.845365535199999
 20
14.4474202598
 30
0.0
 11
9.172000974599999
 21
14.7997447909
 31
0.0
 11
9.237220196299999
 21
14.7970320016
 31
0.0
 11
9.302309801299999
 21
14.7888768854
 31
0.0
 11
9.3672909383
 21
14.7751870045
 31
0.0
 11
9.431810370499999
 21
14.755895436
 31
0.0
 11
9.4950444782
 21
14.7311523567
 31
0.0
 11
9.5555090417
 21
14.7016456931
 31
0.0
 11
9.612629981999999
 21
14.6679538872
 31
0.0
 11
9.666359145399999
 21
14.6304069135
 31
0.0
 11
9.7165233834
 21
14.5893814231
 31
0.0
 11
9.7631464893
 21
14.5450597484
 31
0.0
 11
9.8061087164
 21
14.4976951912
 31
0.0
 11
9.845365535199999
 21
14.4474202598
 31
0.0
  0
SPLINE
  5
781
330
1F
100
AcDbEntity
  8
0
  6
Continuous
 62
     7
100
AcDbSpline
210
0.0
220
0.0
230
1.0
 70
     8
 71
     3
 72
     9
 73
     5
 74
     3
 42
0.0000000001
 43
0.0000000001
 44
0.0000000001
 12
0.5859695175055678
 22
-0.8103330948161332
 32
0.0
 13
0.5622561263596911
 23
-0.8269631481335762
 33
0.0
 40
0.0
 40
0.0
 40
0.0
 40
0.0
 40
0.0233757557246055
 40
0.0467499004592823
 40
0.0467499004592823
 40
0.0467499004592823
 40
0.0467499004592823
 10
9.845365535199999
 20
14.4474202598
 30
0.0
 10
9.849931361967756
 20
14.44110621030667
 30
0.0
 10
9.858970952739845
 20
14.42841194992296
 30
0.0
 10
9.867825831674837
 20
14.41558816933824
 30
0.0
 10
9.8722065837
 20
14.4091449839
 30
0.0
 11
9.845365535199999
 21
14.4474202598
 31
0.0
 11
9.8589250831
 21
14.4283791302
 31
0.0
 11
9.8722065837
 21
14.4091449839
 31
0.0
  0
SPLINE
  5
782
330
1F
100
AcDbEntity
  8
0
  6
Continuous
 62
     7
100
AcDbSpline
210
0.0
220
0.0
230
1.0
 70
     8
 71
     3
 72
    23
 73
    19
 74
    17
 42
0.0000000001
 43
0.0000000001
 44
0.0000000001
 12
0.5622528418367009
 22
-0.8269653812866375
 32
0.0
 13
-0.5603912374911393
 23
-0.8282280247269767
 33
0.0
 40
0.0
 40
0.0
 40
0.0
 40
0.0
 40
0.0610729350924036
 40
0.1223971848332223
 40
0.1839588850247251
 40
0.2457055864557158
 40
0.3076497943390109
 40
0.3697030809734989
 40
0.4318373832505667
 40
0.4939926469825059
 40
0.5561480116996791
 40
0.6182878450165626
 40
0.6803432043172867
 40
0.7422863738679637
 40
0.804027677066527
 40
0.8655798838358755
 40
0.9268959689199645
 40
0.9879599491625326
 40
0.9879599491625326
 40
0.9879599491625326
 40
0.9879599491625326
 10
9.8722065837
 20
14.4091449839
 30
0.0
 10
9.883652727471671
 20
14.392309916215
 30
0.0
 10
9.905374601353386
 20
14.35772381906511
 30
0.0
 10
9.934134864383773
 20
14.30350790404462
 30
0.0
 10
9.958923635080683
 20
14.24711469183497
 30
0.0
 10
9.979534419437001
 20
14.18884474052692
 30
0.0
 10
9.995783891843769
 20
14.12904021164207
 30
0.0
 10
10.00752103588243
 20
14.06805679166355
 30
0.0
 10
10.01463429786891
 20
14.00629150537976
 30
0.0
 10
10.01705629610346
 20
13.94413088837779
 30
0.0
 10
10.01476716455301
 20
13.88196339466326
 30
0.0
 10
10.00778578015204
 20
13.82018047450288
 30
0.0
 10
9.996178971079391
 20
13.75916989693018
 30
0.0
 10
9.980058759014251
 20
13.69933192652988
 30
0.0
 10
9.959576326438586
 20
13.64102240058443
 30
0.0
 10
9.93491444657309
 20
13.58458201782854
 30
0.0
 10
9.906278635407138
 20
13.53031034150155
 30
0.0
 10
9.884637330051422
 20
13.49568053901275
 30
0.0
 10
9.873230756899999
 20
13.4788222391
 30
0.0
 11
9.8722065837
 21
14.4091449839
 31
0.0
 11
9.904686100099999
 21
14.3574247324
 31
0.0
 11
9.9334220064
 21
14.3032499108
 31
0.0
 11
9.9581918311
 21
14.2468912494
 31
0.0
 11
9.978779614
 21
14.1886778632
 31
0.0
 11
9.995018526499999
 21
14.1289000863
 31
0.0
 11
10.0067443247
 21
14.0679647432
 31
0.0
 11
10.0138512793
 21
14.0062382277
 31
0.0
 11
10.0162710306
 21
13.9441300832
 31
0.0
 11
10.0139841445
 21
13.8820168035
 31
0.0
 11
10.007008694
 21
13.8202697228
 31
0.0
 11
9.995413178099999
 21
13.759307344
 31
0.0
 11
9.979303372
 21
13.6994957197
 31
0.0
 11
9.95884384
 21
13.6412428565
 31
0.0
 11
9.9342015262
 21
13.5848386853
 31
0.0
 11
9.905589628499999
 21
13.5306074987
 31
0.0
 11
9.873230756899999
 21
13.4788222391
 31
0.0
  0
SPLINE
  5
783
330
1F
100
AcDbEntity
  8
0
  6
Continuous
 62
     7
100
AcDbSpline
210
0.0
220
0.0
230
1.0
 70
     8
 71
     3
 72
     9
 73
     5
 74
     3
 42
0.0000000001
 43
0.0000000001
 44
0.0000000001
 12
-0.5603953184714162
 22
-0.8282252634611671
 32
0.0
 13
-0.5840690191307694
 23
-0.8117039983218148
 33
0.0
 40
0.0
 40
0.0
 40
0.0
 40
0.0
 40
0.0233125281596105
 40
0.0466229804931742
 40
0.0466229804931742
 40
0.0466229804931742
 40
0.0466229804931742
 10
9.873230756899999
 20
13.4788222391
 30
0.0
 10
9.868876013019207
 20
13.47238623084102
 30
0.0
 10
9.860074273780794
 20
13.45957722489502
 30
0.0
 10
9.85108857694332
 20
13.44689658195395
 30
0.0
 10
9.8465502726
 20
13.4405895195
 30
0.0
 11
9.873230756899999
 21
13.4788222391
 31
0.0
 11
9.860027888399999
 21
13.4596087482
 31
0.0
 11
9.8465502726
 21
13.4405895195
 31
0.0
  0
SPLINE
  5
784
330
1F
100
AcDbEntity
  8
0
  6
Continuous
 62
     7
100
AcDbSpline
210
0.0
220
0.0
230
1.0
 70
     8
 71
     3
 72
    19
 73
    15
 74
    13
 42
0.0000000001
 43
0.0000000001
 44
0.0000000001
 12
-0.5840745678285636
 22
-0.8117000056768983
 32
0.0
 13
-0.9999999999823403
 23
-0.0000059430032194
 33
0.0
 40
0.0
 40
0.0
 40
0.0
 40
0.0
 40
0.0639459868556477
 40
0.1280558981281925
 40
0.1925528346625451
 40
0.2575226260182287
 40
0.3232418040382576
 40
0.3897266859790294
 40
0.4571595820552913
 40
0.5252275733396958
 40
0.5927615427091908
 40
0.6593494349812053
 40
0.7251037451690334
 40
0.7905598948584951
 40
0.7905598948584951
 40
0.7905598948584951
 40
0.7905598948584951
 10
9.8465502726
 20
13.4405895195
 30
0.0
 10
9.834100531054305
 20
13.42328786686875
 30
0.0
 10
9.807876993554019
 20
13.38954934976335
 30
0.0
 10
9.764814702620965
 20
13.3418795411912
 30
0.0
 10
9.718088691123515
 20
13.29729239502584
 30
0.0
 10
9.667748537035464
 20
13.25597816772267
 30
0.0
 10
9.61388220810387
 20
13.21820831845579
 30
0.0
 10
9.556555325582992
 20
13.18428292614105
 30
0.0
 10
9.496021734201953
 20
13.15464282743382
 30
0.0
 10
9.432954841404121
 20
13.12987829689131
 30
0.0
 10
9.368328134444563
 20
13.11048462860601
 30
0.0
 10
9.303067627124946
 20
13.09668592067336
 30
0.0
 10
9.237578347602074
 20
13.08844943816085
 30
0.0
 10
9.193819691162767
 20
13.0866227320687
 30
0.0
 10
9.172000974599999
 20
13.0866226024
 30
0.0
 11
9.8465502726
 21
13.4405895195
 31
0.0
 11
9.8073084234
 21
13.3901002483
 31
0.0
 11
9.7643341959
 21
13.3425261325
 31
0.0
 11
9.7176718298
 21
13.2980011012
 31
0.0
 11
9.667448180999999
 21
13.2567863115
 31
0.0
 11
9.6136352113
 21
13.2190613244
 31
0.0
 11
9.556413753099999
 21
13.1852095261
 31
0.0
 11
9.495845319
 21
13.155567322
 31
0.0
 11
9.4324810145
 21
13.1307033651
 31
0.0
 11
9.367792089799999
 21
13.1113080038
 31
0.0
 11
9.302641796199999
 21
13.0975462219
 31
0.0
 11
9.237400260499999
 21
13.0893504103
 31
0.0
 11
9.172000974599999
 21
13.0866226024
 31
0.0
  0
SPLINE
  5
785
330
1F
100
AcDbEntity
  8
0
  6
Continuous
 62
     7
100
AcDbSpline
210
0.0
220
0.0
230
1.0
 70
     8
 71
     3
 72
    10
 73
     6
 74
     4
 42
0.0000000001
 43
0.0000000001
 44
0.0000000001
 12
-1.0
 22
-0.0000000000463095
 32
0.0
 13
-0.9998965315674965
 23
-0.0143849281990152
 33
0.0
 40
0.0
 40
0.0
 40
0.0
 40
0.0
 40
2.159391088299947
 40
4.318765112149154
 40
6.478158271575093
 40
6.478158271575093
 40
6.478158271575093
 40
6.478158271575093
 10
9.172000974599999
 20
18.7476088902
 30
0.0
 10
8.452203945166683
 20
18.74760889016666
 30
0.0
 10
7.012613091942333
 20
18.74415729730328
 30
0.0
 10
4.853275412028942
 20
18.72862552581979
 30
0.0
 10
3.413783169966857
 20
18.71136832711726
 30
0.0
 10
2.6940599265
 20
18.7010140886
 30
0.0
 11
9.172000974599999
 21
18.7476088902
 31
0.0
 11
7.0126160929
 21
18.7424315439
 31
0.0
 11
4.853297926599999
 21
18.7268999129
 31
0.0
 11
2.6940599265
 21
18.7010140886
 31
0.0
  0
LINE
  5
786
330
1F
100
AcDbEntity
  8
0
  6
Continuous
 62
     7
100
AcDbLine
 10
2.6940599265
 20
18.7010140886
 30
0.0
 11
3.045038637999999
 21
18.3550557487
 31
0.0
  0
SPLINE
  5
78C
330
1F
100
AcDbEntity
  8
0
  6
Continuous
 62
     7
100
AcDbSpline
210
0.0
220
0.0
230
1.0
 70
     8
 71
     3
 72
    30
 73
    26
 74
    24
 42
0.0000000001
 43
0.0000000001
 44
0.0000000001
 12
-0.7272149943126336
 22
-0.6864097552095806
 32
0.0
 13
-0.806485082625236
 23
-0.5912544388864798
 33
0.0
 40
0.0
 40
0.0
 40
0.0
 40
0.0
 40
0.0030931884226718
 40
0.0065203708854
 40
0.0102822362277063
 40
0.0142832923321041
 40
0.0183990877973803
 40
0.0225458759089924
 40
0.0266507024758552
 40
0.0306610926185516
 40
0.0345444808385666
 40
0.0382839157334477
 40
0.0418730127896894
 40
0.0453120010496451
 40
0.0486051069846866
 40
0.0517590543379832
 40
0.0547822505763023
 40
0.0576845415235996
 40
0.0604772187798575
 40
0.0631730483391171
 40
0.0657863474682977
 40
0.068333131455647
 40
0.0708307761161254
 40
0.0732984170786848
 40
0.0757545199446352
 40
0.0757545199446352
 40
0.0757545199446352
 40
0.0757545199446352
 10
14.2712976547
 20
17.4539300381
 30
0.0
 10
14.27054785036627
 20
17.45322230653066
 30
0.0
 10
14.26890433361579
 20
17.45179856323408
 30
0.0
 10
14.26630217996037
 20
17.4495683487521
 30
0.0
 10
14.2634186978756
 20
17.44720162064927
 30
0.0
 10
14.2603283319538
 20
17.44472616173501
 30
0.0
 10
14.25711204098595
 20
17.44220290645618
 30
0.0
 10
14.25385116421546
 20
17.43968069228579
 30
0.0
 10
14.25060621917529
 20
17.43719538878107
 30
0.0
 10
14.24742363512897
 20
17.43477310424158
 30
0.0
 10
14.2443337637654
 20
17.43243012452715
 30
0.0
 10
14.24135375173622
 20
17.43017468871685
 30
0.0
 10
14.23849127367489
 20
17.42800942084444
 30
0.0
 10
14.23574789825187
 20
17.42593331294262
 30
0.0
 10
14.23312148347966
 20
17.42394302124522
 30
0.0
 10
14.23060770743868
 20
17.42203356935769
 30
0.0
 10
14.22820093883972
 20
17.42019861760904
 30
0.0
 10
14.22589466984113
 20
17.41843047985192
 30
0.0
 10
14.22368181233587
 20
17.41671988393178
 30
0.0
 10
14.22155425079688
 20
17.41505649303303
 30
0.0
 10
14.21950459775063
 20
17.41342667846196
 30
0.0
 10
14.21751985035455
 20
17.41182144823691
 30
0.0
 10
14.21560403843669
 20
17.41020865711585
 30
0.0
 10
14.21369555082953
 20
17.40863574027686
 30
0.0
 10
14.21254680680759
 20
17.40744961077395
 30
0.0
 10
14.2118865367
 20
17.4069655502
 30
0.0
 11
14.2712976547
 21
17.4539300381
 31
0.0
 11
14.2689870319
 21
17.4518736245
 31
0.0
 11
14.2663793493
 21
17.4496497605
 31
0.0
 11
14.2634758147
 21
17.4472578747
 31
0.0
 11
14.260354036
 21
17.4447552865
 31
0.0
 11
14.2571172896
 21
17.4422129952
 31
0.0
 11
14.2538380847
 21
17.4396747543
 31
0.0
 11
14.2505799573
 21
17.4371779149
 31
0.0
 11
14.2473892117
 21
17.4347484352
 31
0.0
 11
14.2442951688
 21
17.432401607
 31
0.0
 11
14.2413136902
 21
17.4301445827
 31
0.0
 11
14.2384514479
 21
17.4279791297
 31
0.0
 11
14.2357093533
 21
17.4259036641
 31
0.0
 11
14.2330848998
 21
17.4239144958
 31
0.0
 11
14.2305735809
 21
17.4220064441
 31
0.0
 11
14.228169727
 21
17.420173086
 31
0.0
 11
14.2258668737
 21
17.4184066887
 31
0.0
 11
14.2236578641
 21
17.4166980861
 31
0.0
 11
14.2215349018
 21
17.4150366024
 31
0.0
 11
14.2194895246
 21
17.4134100218
 31
0.0
 11
14.2175124518
 21
17.4118046272
 31
0.0
 11
14.2155937114
 21
17.41020567
 31
0.0
 11
14.2137220835
 21
17.4085974844
 31
0.0
 11
14.2118865367
 21
17.4069655502
 31
0.0
  0
SPLINE
  5
78D
330
1F
100
AcDbEntity
  8
0
  6
Continuous
 62
     7
100
AcDbSpline
210
0.0
220
0.0
230
1.0
 70
     8
 71
     3
 72
    23
 73
    19
 74
    17
 42
0.0000000001
 43
0.0000000001
 44
0.0000000001
 12
-0.7119416235042486
 22
-0.7022386522558658
 32
0.0
 13
-0.3367494369180221
 23
-0.9415942951905535
 33
0.0
 40
0.0
 40
0.0
 40
0.0
 40
0.0
 40
0.004011756467066
 40
0.0085370548805719
 40
0.0136395009587372
 40
0.0193613714058509
 40
0.0256963247611584
 40
0.0325900060147838
 40
0.0399245121659908
 40
0.0474631552080256
 40
0.0550535729770067
 40
0.062691236779115
 40
0.0703785452316594
 40
0.0781101619655252
 40
0.0858863375307371
 40
0.0936988833806689
 40
0.1015669002975462
 40
0.1093132271969578
 40
0.1093132271969578
 40
0.1093132271969578
 40
0.1093132271969578
 10
14.2118865367
 20
17.4069655502
 30
0.0
 10
14.21093449122924
 20
17.40602648004846
 30
0.0
 10
14.20881687300395
 20
17.40412209053484
 30
0.0
 10
14.20572075208714
 20
17.40078701460968
 30
0.0
 10
14.20238028952515
 20
17.39691065353791
 30
0.0
 10
14.19885736649416
 20
17.39240161992746
 30
0.0
 10
14.19516681891582
 20
17.38727342704812
 30
0.0
 10
14.19136236879403
 20
17.38157022043433
 30
0.0
 10
14.18751769493901
 20
17.37541595903369
 30
0.0
 10
14.18371222311887
 20
17.36896630415667
 30
0.0
 10
14.18002041472868
 20
17.36233502606893
 30
0.0
 10
14.17646723745877
 20
17.35557247667402
 30
0.0
 10
14.17305322388426
 20
17.34868607683509
 30
0.0
 10
14.16977806025415
 20
17.34168160990686
 30
0.0
 10
14.16664255500229
 20
17.33456789260221
 30
0.0
 10
14.16364544872213
 20
17.32734559028628
 30
0.0
 10
14.16080260378209
 20
17.32007180927647
 30
0.0
 10
14.15901515154052
 20
17.31518320127239
 30
0.0
 10
14.1581456278
 20
17.3127519022
 30
0.0
 11
14.2118865367
 21
17.4069655502
 31
0.0
 11
14.2089839477
 21
17.4041962241
 31
0.0
 11
14.2058716959
 21
17.4009110735
 31
0.0
 11
14.2025447192
 21
17.3970424585
 31
0.0
 11
14.1990119138
 21
17.3925414489
 31
0.0
 11
14.195305158
 21
17.3874041738
 31
0.0
 11
14.1914719273
 21
17.3816744981
 31
0.0
 11
14.1875798786
 21
17.375457832
 31
0.0
 11
14.1837482218
 21
17.3689655639
 31
0.0
 11
14.1800549449
 21
17.3623342633
 31
0.0
 11
14.1765015245
 21
17.3555735598
 31
0.0
 11
14.1730861162
 21
17.3486866376
 31
0.0
 11
14.1698103596
 21
17.3416832587
 31
0.0
 11
14.1666733648
 21
17.3345679112
 31
0.0
 11
14.1636775337
 21
17.3273525894
 31
0.0
 11
14.1608150924
 21
17.3200237341
 31
0.0
 11
14.1581456278
 21
17.3127519022
 31
0.0
  0
SPLINE
  5
78E
330
1F
100
AcDbEntity
  8
0
  6
Continuous
 62
     7
100
AcDbSpline
210
0.0
220
0.0
230
1.0
 70
     8
 71
     3
 72
    31
 73
    27
 74
    25
 42
0.0000000001
 43
0.0000000001
 44
0.0000000001
 12
-0.9388270707455312
 22
0.3443889243796403
 32
0.0
 13
-0.9917241087241487
 23
0.1283872741952759
 33
0.0
 40
0.0
 40
0.0
 40
0.0
 40
0.0
 40
0.0039441689527915
 40
0.0083140974750729
 40
0.0131655937897654
 40
0.0185084643860257
 40
0.0242592058208943
 40
0.0303246681198797
 40
0.0366545289947163
 40
0.043196400011342
 40
0.0499100215341692
 40
0.0567668587308746
 40
0.0637494454614218
 40
0.0708485528352399
 40
0.0780604379642984
 40
0.0853844677440635
 40
0.092821340859762
 40
0.1003718531849577
 40
0.1080359967622839
 40
0.1158124782610304
 40
0.1236986651955472
 40
0.1316904275247335
 40
0.1397820521570183
 40
0.1479664918516954
 40
0.1562355119987256
 40
0.1645797602129199
 40
0.1645797602129199
 40
0.1645797602129199
 40
0.1645797602129199
 10
14.4204238557
 20
10.6673519803
 30
0.0
 10
14.41918955817184
 20
10.6678047563344
 30
0.0
 10
14.41658301931649
 20
10.66874688233261
 30
0.0
 10
14.41250231063482
 20
10.67036276764126
 30
0.0
 10
14.40800810869925
 20
10.67219867708575
 30
0.0
 10
14.40310469912976
 20
10.6742497264434
 30
0.0
 10
14.39783161595612
 20
10.67646541300453
 30
0.0
 10
14.39224787126597
 20
10.67879109422151
 30
0.0
 10
14.38640292794708
 20
10.68117522511409
 30
0.0
 10
14.38033204855067
 20
10.68357670872805
 30
0.0
 10
14.37406609567902
 20
10.68596121455403
 30
0.0
 10
14.36762748982371
 20
10.68830311226868
 30
0.0
 10
14.36103100743928
 20
10.69058440374223
 30
0.0
 10
14.35428522767318
 20
10.69279319539147
 30
0.0
 10
14.3473945552959
 20
10.69492199468243
 30
0.0
 10
14.34036101582153
 20
10.6969662880185
 30
0.0
 10
14.33318567896325
 20
10.69892346350543
 30
0.0
 10
14.32586970368256
 20
10.70079203960869
 30
0.0
 10
14.31841503976882
 20
10.70257114404687
 30
0.0
 10
14.31082479229622
 20
10.70426015112485
 30
0.0
 10
14.30310338841662
 20
10.70585845370762
 30
0.0
 10
14.29525664836117
 20
10.70736536752809
 30
0.0
 10
14.28729174455309
 20
10.70877985400053
 30
0.0
 10
14.27921715977051
 20
10.71010099615034
 30
0.0
 10
14.27104230340599
 20
10.71132590049789
 30
0.0
 10
14.2655555438744
 20
10.71207718257219
 30
0.0
 10
14.2627971465
 20
10.712434281
 30
0.0
 11
14.4204238557
 21
10.6673519803
 31
0.0
 11
14.4167231518
 21
10.6687162601
 31
0.0
 11
14.4126544229
 21
10.6703105375
 31
0.0
 11
14.4081621794
 21
10.6721426851
 31
0.0
 11
14.4032306731
 21
10.6741985333
 31
0.0
 11
14.3979271973
 21
10.6764220826
 31
0.0
 11
14.3923264462
 21
10.6787504769
 31
0.0
 11
14.386464251
 21
10.6811383224
 31
0.0
 11
14.3803801932
 21
10.6835425514
 31
0.0
 11
14.3741050018
 21
10.6859289057
 31
0.0
 11
14.367660861
 21
10.6882718239
 31
0.0
 11
14.3610616278
 21
10.6905536299
 31
0.0
 11
14.3543149779
 21
10.6927627113
 31
0.0
 11
14.3474245262
 21
10.6948917868
 31
0.0
 11
14.3403916968
 21
10.6969364684
 31
0.0
 11
14.3332171329
 21
10.6988942004
 31
0.0
 11
14.3259016775
 21
10.7007635181
 31
0.0
 11
14.3184471028
 21
10.7025435217
 31
0.0
 11
14.3108564813
 21
10.7042335305
 31
0.0
 11
14.3031341798
 21
10.7058329066
 31
0.0
 11
14.2952859806
 21
10.7073408968
 31
0.0
 11
14.2873191453
 21
10.7087564972
 31
0.0
 11
14.2792421659
 21
10.7100784113
 31
0.0
 11
14.2710646258
 21
10.711305005
 31
0.0
 11
14.2627971465
 21
10.712434281
 31
0.0
  0
SPLINE
  5
78F
330
1F
100
AcDbEntity
  8
0
  6
Continuous
 62
     7
100
AcDbSpline
210
0.0
220
0.0
230
1.0
 70
     8
 71
     3
 72
    30
 73
    26
 74
    24
 42
0.0000000001
 43
0.0000000001
 44
0.0000000001
 12
-0.9102810244473797
 22
-0.4139908894299841
 32
0.0
 13
-0.9908026828121753
 23
-0.1353146101948941
 33
0.0
 40
0.0
 40
0.0
 40
0.0
 40
0.0
 40
0.004400510470726
 40
0.0093093300379952
 40
0.0147693719915418
 40
0.0206932971145518
 40
0.0269494588655846
 40
0.0334588711598661
 40
0.0401486006697721
 40
0.0469658227381272
 40
0.0538789183897453
 40
0.0608735015720664
 40
0.0679466846007585
 40
0.0751021414618936
 40
0.0823464935012644
 40
0.0896869483836257
 40
0.0971296876544292
 40
0.1046790735194062
 40
0.1123373417745429
 40
0.1201043357918936
 40
0.127977467837538
 40
0.1359522147829882
 40
0.1440216229030995
 40
0.1521788505263904
 40
0.1604113027334642
 40
0.1604113027334642
 40
0.1604113027334642
 40
0.1604113027334642
 10
14.4082112746
 20
17.2952803189
 30
0.0
 10
14.40687604087354
 20
17.29467306181876
 30
0.0
 10
14.40406013131106
 20
17.2933689148043
 30
0.0
 10
14.39962458493511
 20
17.2912325356587
 30
0.0
 10
14.39474653072728
 20
17.28884517367098
 30
0.0
 10
14.38946680669694
 20
17.28625683941959
 30
0.0
 10
14.38385858954141
 20
17.28354400925233
 30
0.0
 10
14.37799251017291
 20
17.28077856724573
 30
0.0
 10
14.37191852239441
 20
17.27801680226297
 30
0.0
 10
14.36567623775545
 20
17.27530210442183
 30
0.0
 10
14.35929112623095
 20
17.27266378314737
 30
0.0
 10
14.35277625347493
 20
17.27011945664424
 30
0.0
 10
14.34613580635077
 20
17.26767845208471
 30
0.0
 10
14.33936872696699
 20
17.26534484667037
 30
0.0
 10
14.33247155437615
 20
17.26311968577134
 30
0.0
 10
14.32544044023102
 20
17.26100245196169
 30
0.0
 10
14.31827242994623
 20
17.25899195089602
 30
0.0
 10
14.31096617958122
 20
17.25708685958858
 30
0.0
 10
14.30352232191181
 20
17.25528598557329
 30
0.0
 10
14.29594361667868
 20
17.25358845568869
 30
0.0
 10
14.28823487491977
 20
17.25199373850839
 30
0.0
 10
14.28040293544956
 20
17.25050198418555
 30
0.0
 10
14.27245596656063
 20
17.2491129545758
 30
0.0
 10
14.26440426253619
 20
17.24783001186506
 30
0.0
 10
14.25899764811096
 20
17.24704382248711
 30
0.0
 10
14.2562787362
 20
17.2466724988
 30
0.0
 11
14.4082112746
 21
17.2952803189
 31
0.0
 11
14.404218383
 21
17.2934306408
 31
0.0
 11
14.3997922686
 21
17.2913079018
 31
0.0
 11
14.3948856731
 21
17.2889126192
 31
0.0
 11
14.3895640236
 21
17.2863101328
 31
0.0
 11
14.3839301604
 21
17.2835899958
 31
0.0
 11
14.3780406655
 21
17.2808175784
 31
0.0
 11
14.371949779
 21
17.2780510675
 31
0.0
 11
14.3656974393
 21
17.2753339431
 31
0.0
 11
14.3593078947
 21
17.2726948881
 31
0.0
 11
14.3527924146
 21
17.2701507354
 31
0.0
 11
14.3461536097
 21
17.2677102052
 31
0.0
 11
14.3393892406
 21
17.2653769942
 31
0.0
 11
14.3324950517
 21
17.2631519558
 31
0.0
 11
14.3254666374
 21
17.2610344879
 31
0.0
 11
14.3183007494
 21
17.2590234143
 31
0.0
 11
14.3109959161
 21
17.2571174664
 31
0.0
 11
14.3035526613
 21
17.2553155145
 31
0.0
 11
14.2959737175
 21
17.2536167482
 31
0.0
 11
14.2882640425
 21
17.2520207784
 31
0.0
 11
14.2804303299
 21
17.2505276154
 31
0.0
 11
14.2724815039
 21
17.2491378267
 31
0.0
 11
14.2644262305
 21
17.2478521623
 31
0.0
 11
14.2562787362
 21
17.2466724988
 31
0.0
  0
LINE
  5
790
330
1F
100
AcDbEntity
  8
0
  6
Continuous
 62
     7
100
AcDbLine
 10
14.4280471147
 20
17.3041783876
 30
0.0
 11
14.4082112746
 21
17.2952803189
 31
0.0
  0
LINE
  5
791
330
1F
100
AcDbEntity
  8
0
  6
Continuous
 62
     7
100
AcDbLine
 10
14.4367590513
 20
10.6617602132
 30
0.0
 11
14.4204238557
 21
10.6673519803
 31
0.0
  0
SPLINE
  5
792
330
1F
100
AcDbEntity
  8
0
  6
Continuous
 62
     7
100
AcDbSpline
210
0.0
220
0.0
230
1.0
 70
     8
 71
     3
 72
    29
 73
    25
 74
    23
 42
0.0000000001
 43
0.0000000001
 44
0.0000000001
 12
-0.904036799618783
 22
0.4274546349439064
 32
0.0
 13
-0.3633189080642036
 23
0.9316648383635795
 33
0.0
 40
0.0
 40
0.0
 40
0.0
 40
0.0
 40
0.0030525838654274
 40
0.0063439549816305
 40
0.0099330908087763
 40
0.0138685007718842
 40
0.0181769127502794
 40
0.022873985572286
 40
0.0280175206445941
 40
0.033614513981436
 40
0.0396385938813065
 40
0.0460500208893792
 40
0.0527897711058626
 40
0.0598121850053811
 40
0.0670337904738278
 40
0.0743295262579908
 40
0.0816651297161486
 40
0.0890513862698427
 40
0.0964831024527555
 40
0.1039593283286029
 40
0.1114764089403263
 40
0.119038059110445
 40
0.1266158964367511
 40
0.1340411707792234
 40
0.1340411707792234
 40
0.1340411707792234
 40
0.1340411707792234
 10
14.2263485303
 20
10.5398735999
 30
0.0
 10
14.22542864758391
 20
10.54030854694061
 30
0.0
 10
14.22357434310593
 20
10.54133000585321
 30
0.0
 10
14.22072106454505
 20
10.54300999845036
 30
0.0
 10
14.21771837764647
 20
10.54500930885645
 30
0.0
 10
14.21454320292616
 20
10.54735165864477
 30
0.0
 10
14.21120178610723
 20
10.55008262772973
 30
0.0
 10
14.2076982523299
 20
10.55324265836913
 30
0.0
 10
14.2040409279543
 20
10.55686512995255
 30
0.0
 10
14.20024645040199
 20
10.5609698508169
 30
0.0
 10
14.19634830746477
 20
10.56554727975439
 30
0.0
 10
14.19238618310656
 20
10.57056453158346
 30
0.0
 10
14.18839523770078
 20
10.57597808033377
 30
0.0
 10
14.18441291716373
 20
10.58172942992781
 30
0.0
 10
14.1804811118346
 20
10.58773799649929
 30
0.0
 10
14.17664235196383
 20
10.5939295732214
 30
0.0
 10
14.17292699673717
 20
10.60025967607126
 30
0.0
 10
14.16933857967215
 20
10.60671444934924
 30
0.0
 10
14.16587608412193
 20
10.61329062744135
 30
0.0
 10
14.16254052719074
 20
10.61998081511018
 30
0.0
 10
14.15933123879989
 20
10.62678039527525
 30
0.0
 10
14.15625263981928
 20
10.63367717558288
 30
0.0
 10
14.15332501306744
 20
10.64060623098446
 30
0.0
 10
14.15147744272206
 20
10.64525381112664
 30
0.0
 10
14.1505781952
 20
10.6475597668
 30
0.0
 11
14.2263485303
 21
10.5398735999
 31
0.0
 11
14.2236515495
 21
10.541303482
 31
0.0
 11
14.2208217633
 21
10.5429843847
 31
0.0
 11
14.2178304039
 21
10.5449677316
 31
0.0
 11
14.2146623173
 21
10.5473024005
 31
0.0
 11
14.2113239677
 21
10.5500259709
 31
0.0
 11
14.2078328078
 21
10.5531683101
 31
0.0
 11
14.2041743966
 21
10.5567838295
 31
0.0
 11
14.2003705189
 21
10.5608895388
 31
0.0
 11
14.1964598996
 21
10.565471743
 31
0.0
 11
14.1924815193
 21
10.5704995543
 31
0.0
 11
14.1884777248
 21
10.575921165
 31
0.0
 11
14.1844757989
 21
10.5816916837
 31
0.0
 11
14.1805193368
 21
10.5877330406
 31
0.0
 11
14.1766745241
 21
10.593933458
 31
0.0
 11
14.172960274
 21
10.6002592326
 31
0.0
 11
14.1693705003
 21
10.6067144871
 31
0.0
 11
14.1659073247
 21
10.6132899582
 31
0.0
 11
14.1625706683
 21
10.6199803003
 31
0.0
 11
14.1593615881
 21
10.6267779694
 31
0.0
 11
14.1562780204
 21
10.6336823277
 31
0.0
 11
14.1533304706
 21
10.6406634142
 31
0.0
 11
14.1505781952
 21
10.6475597668
 31
0.0
  0
SPLINE
  5
793
330
1F
100
AcDbEntity
  8
0
  6
Continuous
 62
     7
100
AcDbSpline
210
0.0
220
0.0
230
1.0
 70
     8
 71
     3
 72
    31
 73
    27
 74
    25
 42
0.0000000001
 43
0.0000000001
 44
0.0000000001
 12
-0.8147194558334664
 22
0.5798553339294386
 32
0.0
 13
-0.9349685930197722
 23
0.3547305034341252
 33
0.0
 40
0.0
 40
0.0
 40
0.0
 40
0.0
 40
0.0024759805611043
 40
0.0052327137912956
 40
0.0082837191332985
 40
0.0116068167036577
 40
0.0151176321465185
 40
0.0187272597448783
 40
0.0223766746830854
 40
0.0260106292680758
 40
0.0295867092879628
 40
0.0330746331486741
 40
0.0364549253891554
 40
0.0397163637776376
 40
0.0428537057264036
 40
0.0458659101984554
 40
0.0487549215381124
 40
0.0515249066362632
 40
0.0541817792261887
 40
0.0567329816563663
 40
0.0591874330592282
 40
0.0615554247753982
 40
0.0638485433648488
 40
0.0660796506019916
 40
0.0682627681966366
 40
0.0704128547350417
 40
0.0704128547350417
 40
0.0704128547350417
 40
0.0704128547350417
 10
14.2877869744
 20
10.5056302605
 30
0.0
 10
14.28711456455487
 20
10.50610883067835
 30
0.0
 10
14.2856866571922
 20
10.50711075821485
 30
0.0
 10
14.28339207301447
 20
10.50864708168872
 30
0.0
 10
14.28083815579172
 20
10.51030285263408
 30
0.0
 10
14.27804984565846
 20
10.5120586251878
 30
0.0
 10
14.27508422635034
 20
10.51388183368438
 30
0.0
 10
14.27200904387236
 20
10.51573421500602
 30
0.0
 10
14.26888430562104
 20
10.51758364570106
 30
0.0
 10
14.26575656855234
 20
10.51940587598432
 30
0.0
 10
14.26266389755487
 20
10.52118121005515
 30
0.0
 10
14.25963377566898
 20
10.52289552895716
 30
0.0
 10
14.25668444002069
 20
10.52453951133328
 30
0.0
 10
14.25382672714314
 20
10.52610770315239
 30
0.0
 10
14.25106607304487
 20
10.52759756779106
 30
0.0
 10
14.24840413507967
 20
10.52900878779618
 30
0.0
 10
14.24583997134741
 20
10.53034282301605
 30
0.0
 10
14.24337084021555
 20
10.53160270222425
 30
0.0
 10
14.24099265959119
 20
10.53279289013609
 30
0.0
 10
14.23870036807452
 20
10.53391953486905
 30
0.0
 10
14.23648776103634
 20
10.53498984388473
 30
0.0
 10
14.23434854665572
 20
10.53601435402652
 30
0.0
 10
14.23227277557155
 20
10.53699861844787
 30
0.0
 10
14.23025975904191
 20
10.53797245876749
 30
0.0
 10
14.22827174041623
 20
10.53888380570213
 30
0.0
 10
14.22701861809523
 20
10.53961936613993
 30
0.0
 10
14.2263485303
 20
10.5398735999
 30
0.0
 11
14.2877869744
 21
10.5056302605
 31
0.0
 11
14.2857584442
 21
10.5070499594
 31
0.0
 11
14.283470049
 21
10.5085871079
 31
0.0
 11
14.2809107926
 21
10.5102480836
 31
0.0
 11
14.2780997431
 21
10.5120203641
 31
0.0
 11
14.2751095694
 21
10.5138601158
 31
0.0
 11
14.2720180326
 21
10.5157233956
 31
0.0
 11
14.2688777453
 21
10.5175826495
 31
0.0
 11
14.2657379398
 21
10.5194121979
 31
0.0
 11
14.2626365436
 21
10.5211925602
 31
0.0
 11
14.2596007136
 21
10.5229099271
 31
0.0
 11
14.2566479959
 21
10.5245554768
 31
0.0
 11
14.2537886069
 21
10.5261241944
 31
0.0
 11
14.2510274995
 21
10.5276138925
 31
0.0
 11
14.2483660067
 21
10.5290245065
 31
0.0
 11
14.2458029929
 21
10.5303576782
 31
0.0
 11
14.2433355979
 21
10.5316165584
 31
0.0
 11
14.2409597155
 21
10.5328057408
 31
0.0
 11
14.2386702366
 21
10.5339313163
 31
0.0
 11
14.236461106
 21
10.5350009301
 31
0.0
 11
14.2343253906
 21
10.5360237226
 31
0.0
 11
14.2322553252
 21
10.5370102428
 31
0.0
 11
14.2302422763
 21
10.5379722582
 31
0.0
 11
14.2282767633
 21
10.5389223956
 31
0.0
 11
14.2263485303
 21
10.5398735999
 31
0.0
  0
SPLINE
  5
79A
330
1F
100
AcDbEntity
  8
0
  6
Continuous
 62
     7
100
AcDbSpline
210
0.0
220
0.0
230
1.0
 70
     8
 71
     3
 72
    10
 73
     6
 74
     4
 42
0.0000000001
 43
0.0000000001
 44
0.0000000001
 12
-0.9318882803513313
 22
0.3627454106447645
 32
0.0
 13
-0.9649275731536157
 23
0.2625162443885592
 33
0.0
 40
0.0
 40
0.0
 40
0.0
 40
0.0
 40
0.0029030967765121
 40
0.0058253541605968
 40
0.0087690493296598
 40
0.0087690493296598
 40
0.0087690493296598
 40
0.0087690493296598
 10
15.2134428726
 20
9.9595853042
 30
0.0
 10
15.21254108531241
 20
9.959936332544113
 30
0.0
 10
15.21071956902784
 20
9.960610461879987
 30
0.0
 10
15.20794296906041
 20
9.961525786598874
 30
0.0
 10
15.20606517154519
 20
9.962072619933197
 30
0.0
 10
15.205118354
 20
9.962330209199999
 30
0.0
 11
15.2134428726
 21
9.9595853042
 31
0.0
 11
15.2107198474
 21
9.9605918352
 31
0.0
 11
15.2079446884
 21
9.961507302699999
 31
0.0
 11
15.205118354
 21
9.962330209199999
 31
0.0
  0
LINE
  5
79B
330
1F
100
AcDbEntity
  8
0
  6
Continuous
 62
     7
100
AcDbLine
 10
15.3191796408
 20
9.9179894767
 30
0.0
 11
15.2134428726
 21
9.9595853042
 31
0.0
  0
LINE
  5
79C
330
1F
100
AcDbEntity
  8
0
  6
Continuous
 62
     7
100
AcDbLine
 10
15.3257270361
 20
9.9153452561
 30
0.0
 11
15.3191796408
 21
9.9179894767
 31
0.0
  0
LINE
  5
79D
330
1F
100
AcDbEntity
  8
0
  6
Continuous
 62
     7
100
AcDbLine
 10
15.4195364812
 20
10.0435642751
 30
0.0
 11
15.3562412842
 21
10.1330083372
 31
0.0
  0
LINE
  5
79E
330
1F
100
AcDbEntity
  8
0
  6
Continuous
 62
     7
100
AcDbLine
 10
15.4192993906
 20
18.2279966486
 30
0.0
 11
15.3562380111
 21
18.1174705137
 31
0.0
  0
LINE
  5
79F
330
1F
100
AcDbEntity
  8
0
  6
Continuous
 62
     7
100
AcDbLine
 10
15.2989632914
 20
18.3550557184
 30
0.0
 11
15.2964531531
 21
18.3537048527
 31
0.0
  0
LINE
  5
7A0
330
1F
100
AcDbEntity
  8
0
  6
Continuous
 62
     7
100
AcDbLine
 10
15.2964531531
 20
18.3537048527
 30
0.0
 11
15.1833373732
 21
18.2931805547
 31
0.0
  0
LINE
  5
7A1
330
1F
100
AcDbEntity
  8
0
  6
Continuous
 62
     7
100
AcDbLine
 10
15.1833373732
 20
18.2931805547
 30
0.0
 11
15.180075286
 21
18.2914995785
 31
0.0
  0
SPLINE
  5
7A6
330
1F
100
AcDbEntity
  8
0
  6
Continuous
 62
     7
100
AcDbSpline
210
0.0
220
0.0
230
1.0
 70
     8
 71
     3
 72
    19
 73
    15
 74
    13
 42
0.0000000001
 43
0.0000000001
 44
0.0000000001
 12
-0.520454833355168
 22
0.8538892003282654
 32
0.0
 13
-0.6236403418366257
 23
0.7817114071279098
 33
0.0
 40
0.0
 40
0.0
 40
0.0
 40
0.0
 40
0.0098395651066923
 40
0.0187370775678439
 40
0.0269116941981174
 40
0.0345590680821235
 40
0.0418911484755441
 40
0.0491616043313132
 40
0.0566320160917089
 40
0.0645434733024018
 40
0.0731190186800478
 40
0.0825149434581178
 40
0.0927825471736982
 40
0.1039600053880589
 40
0.1039600053880589
 40
0.1039600053880589
 40
0.1039600053880589
 10
11.8167394466
 20
15.6138186908
 30
0.0
 10
11.81503243019403
 20
15.61661932359351
 30
0.0
 10
11.81176387087448
 20
15.62194173746902
 30
0.0
 10
11.80694687923277
 20
15.62950957078137
 30
0.0
 10
11.80246528745725
 20
15.63642413785745
 30
0.0
 10
11.7982117720907
 20
15.64286440735839
 30
0.0
 10
11.79407129397709
 20
15.64901781065688
 30
0.0
 10
11.78990689387561
 20
15.65508364646861
 30
0.0
 10
11.78557647611786
 20
15.6612693685259
 30
0.0
 10
11.7809412532413
 20
15.66777238002647
 30
0.0
 10
11.7758720626044
 20
15.67475394318141
 30
0.0
 10
11.77025766920172
 20
15.68230948605097
 30
0.0
 10
11.76403255093328
 20
15.69049138893382
 30
0.0
 10
11.75958859168722
 20
15.69609097807038
 30
0.0
 10
11.7572650204
 20
15.6990034936
 30
0.0
 11
11.8167394466
 21
15.6138186908
 31
0.0
 11
11.8115760301
 21
15.6221946189
 31
0.0
 11
11.8068067963
 21
15.6297059528
 31
0.0
 11
11.8023595333
 21
15.6365649767
 31
0.0
 11
11.7981445405
 21
15.6429458985
 31
0.0
 11
11.7940503439
 21
15.6490284109
 31
0.0
 11
11.7899356414
 21
15.6550224706
 31
0.0
 11
11.7856524137
 21
15.6611430108
 31
0.0
 11
11.78106073
 21
15.6675856497
 31
0.0
 11
11.7760205986
 21
15.6745237369
 31
0.0
 11
11.7704173734
 21
15.6820661019
 31
0.0
 11
11.7641897547
 21
15.6902294622
 31
0.0
 11
11.7572650204
 21
15.6990034936
 31
0.0
  0
SPLINE
  5
7A9
330
1F
100
AcDbEntity
  8
0
  6
Continuous
 62
     7
100
AcDbSpline
210
0.0
220
0.0
230
1.0
 70
     8
 71
     3
 72
    23
 73
    19
 74
    17
 42
0.0000000001
 43
0.0000000001
 44
0.0000000001
 12
0.8946467441898027
 22
-0.446774219388928
 32
0.0
 13
0.3709322483325989
 23
-0.9286599308395528
 33
0.0
 40
0.0
 40
0.0
 40
0.0
 40
0.0
 40
0.0113089523661266
 40
0.0231367280655006
 40
0.0354445531763654
 40
0.0481894659319924
 40
0.0613239448324969
 40
0.0747910655246663
 40
0.088529709285616
 40
0.1024772352949541
 40
0.1165697029296065
 40
0.1307399893966875
 40
0.1449195916864519
 40
0.1590399601169177
 40
0.1730337876225249
 40
0.1868366974171364
 40
0.2003854731340878
 40
0.2136182667732622
 40
0.2136182667732622
 40
0.2136182667732622
 40
0.2136182667732622
 10
14.2712974561
 20
17.4539296318
 30
0.0
 10
14.27466996190485
 20
17.45224544901151
 30
0.0
 10
14.28145483558109
 20
17.44856613442058
 30
0.0
 10
14.29149351017628
 20
17.44232476895282
 30
0.0
 10
14.30157013215972
 20
17.43527260737871
 30
0.0
 10
14.31161991466181
 20
17.42745202848844
 30
0.0
 10
14.32157643581109
 20
17.41890755904223
 30
0.0
 10
14.33138031001772
 20
17.40969809306212
 30
0.0
 10
14.34097007548544
 20
17.39988359166733
 30
0.0
 10
14.35028363344707
 20
17.38952469301564
 30
0.0
 10
14.35925799611596
 20
17.3786832963956
 30
0.0
 10
14.36784041358275
 20
17.36743177050964
 30
0.0
 10
14.37597763909896
 20
17.35584283875299
 30
0.0
 10
14.38361645609245
 20
17.34398925637545
 30
0.0
 10
14.39070380006638
 20
17.33194329668309
 30
0.0
 10
14.39719956677813
 20
17.31978369624135
 30
0.0
 10
14.40306435383893
 20
17.30758850628128
 30
0.0
 10
14.4065744724679
 20
17.29937631637526
 30
0.0
 10
14.4082106291
 20
17.2952800613
 30
0.0
 11
14.2712974561
 21
17.4539296318
 31
0.0
 11
14.2812472513
 21
17.4485543198
 31
0.0
 11
14.291299596
 21
17.4423216122
 31
0.0
 11
14.3013899291
 21
17.4352740781
 31
0.0
 11
14.3114538467
 21
17.4274542083
 31
0.0
 11
14.3214272972
 21
17.418907582
 31
0.0
 11
14.3312476307
 21
17.409692139
 31
0.0
 11
14.3408525496
 21
17.3998689081
 31
0.0
 11
14.3501797562
 21
17.3894989178
 31
0.0
 11
14.3591683907
 21
17.3786452505
 31
0.0
 11
14.3677633437
 21
17.3673792041
 31
0.0
 11
14.3759109434
 21
17.3557741302
 31
0.0
 11
14.3835575182
 21
17.3439033805
 31
0.0
 11
14.3906517476
 21
17.331841079
 31
0.0
 11
14.3971517188
 21
17.3196644336
 31
0.0
 11
14.4030178704
 21
17.3074514246
 31
0.0
 11
14.4082106291
 21
17.2952800613
 31
0.0
  0
SPLINE
  5
7AA
330
1F
100
AcDbEntity
  8
0
  6
Continuous
 62
     7
100
AcDbSpline
210
0.0
220
0.0
230
1.0
 70
     8
 71
     3
 72
    19
 73
    15
 74
    13
 42
0.0000000001
 43
0.0000000001
 44
0.0000000001
 12
0.9569918060692069
 22
-0.2901149481091889
 32
0.0
 13
0.2572795445537022
 23
-0.9663370198612074
 33
0.0
 40
0.0
 40
0.0
 40
0.0
 40
0.0
 40
0.0268254210450422
 40
0.040505580503218
 40
0.0543315362733528
 40
0.0682807802936893
 40
0.0823272958571654
 40
0.110584253419831
 40
0.1388832976800201
 40
0.152981544345683
 40
0.1670019693535997
 40
0.1809174036101684
 40
0.1947036569197318
 40
0.2217833460948933
 40
0.2217833460948933
 40
0.2217833460948933
 40
0.2217833460948933
 10
14.2805168846
 20
17.4577166952
 30
0.0
 10
14.28907412064482
 20
17.45512254332183
 30
0.0
 10
14.30173607683215
 20
17.45028061647624
 30
0.0
 10
14.31794803992053
 20
17.44219121500023
 30
0.0
 10
14.32989982624546
 20
17.43523480938431
 30
0.0
 10
14.34148572187632
 20
17.42746525368965
 30
0.0
 10
14.35638928850954
 20
17.4160699218062
 30
0.0
 10
14.37374336486606
 20
17.40008141233338
 30
0.0
 10
14.38903551917366
 20
17.38208865458046
 30
0.0
 10
14.39986628882351
 20
17.36670278523179
 30
0.0
 10
14.40721674283763
 20
17.35476349911107
 30
0.0
 10
14.41375400046059
 20
17.34247683785988
 30
0.0
 10
14.42129612441256
 20
17.32583848923201
 30
0.0
 10
14.42572177626745
 20
17.31289969234543
 30
0.0
 10
14.4280441263
 20
17.3041769903
 30
0.0
 11
14.2805168846
 21
17.4577166952
 31
0.0
 11
14.3055928396
 21
17.4481878078
 31
0.0
 11
14.3178359221
 21
17.4420842274
 31
0.0
 11
14.3297866882
 21
17.4351318003
 31
0.0
 11
14.3413747367
 21
17.4273665868
 31
0.0
 11
14.3525351125
 21
17.4188371899
 31
0.0
 11
14.3733184708
 21
17.3996927999
 31
0.0
 11
14.3916470337
 21
17.3781312673
 31
0.0
 11
14.3997603139
 21
17.3666015126
 31
0.0
 11
14.4071071558
 21
17.3546601462
 31
0.0
 11
14.413641366
 21
17.3423742434
 31
0.0
 11
14.4193292855
 21
17.3298160448
 31
0.0
 11
14.4280441263
 21
17.3041769903
 31
0.0
  0
SPLINE
  5
7AF
330
1F
100
AcDbEntity
  8
0
  6
Continuous
 62
     7
100
AcDbSpline
210
0.0
220
0.0
230
1.0
 70
     8
 71
     3
 72
    22
 73
    18
 74
    16
 42
0.0000000001
 43
0.0000000001
 44
0.0000000001
 12
0.9914084166153617
 22
0.1308027196361814
 32
0.0
 13
-0.145021535983595
 23
-0.9894284987309386
 33
0.0
 40
0.0
 40
0.0
 40
0.0
 40
0.0
 40
0.0200867829052864
 40
0.037836547117512
 40
0.0533823054837986
 40
0.067064611470501
 40
0.0793069011780799
 40
0.0905599276779817
 40
0.1012567593877016
 40
0.1117702413237258
 40
0.1224600094169022
 40
0.1336925790078788
 40
0.1459045776590864
 40
0.1595680322885373
 40
0.1751364468942742
 40
0.192986665714897
 40
0.2132877189713732
 40
0.2132877189713732
 40
0.2132877189713732
 40
0.2132877189713732
 10
15.6499422964
 20
18.7010143592
 30
0.0
 10
15.65658036494501
 20
18.70189016114425
 30
0.0
 10
15.66916507386561
 20
18.70301190279374
 30
0.0
 10
15.68699044848576
 20
18.70279576438984
 30
0.0
 10
15.702565021002
 20
18.70085402706327
 30
0.0
 10
15.7160089965679
 20
18.69748524293278
 30
0.0
 10
15.72757492778026
 20
18.69293562441284
 30
0.0
 10
15.73755318967641
 20
18.68735444250152
 30
0.0
 10
15.74619969238393
 20
18.68078889485804
 30
0.0
 10
15.75369955460256
 20
18.6732008484355
 30
0.0
 10
15.76015804217294
 20
18.66448552642936
 30
0.0
 10
15.76561296456155
 20
18.65445970554453
 30
0.0
 10
15.77001898524838
 20
18.64286320261363
 30
0.0
 10
15.77322680137458
 20
18.62938887123135
 30
0.0
 10
15.77498176261413
 20
18.61375673952825
 30
0.0
 10
15.7749663496153
 20
18.59581684686171
 30
0.0
 10
15.77365778410844
 20
18.58314401941541
 30
0.0
 10
15.7726764208
 20
18.5764485392
 30
0.0
 11
15.6499422964
 21
18.7010143592
 31
0.0
 11
15.6699563733
 21
18.7027218642
 31
0.0
 11
15.6877038038
 21
18.7024340444
 31
0.0
 11
15.7031220597
 21
18.7004470899
 31
0.0
 11
15.7163813469
 21
18.6970711752
 31
0.0
 11
15.7277597645
 21
18.6925539559
 31
0.0
 11
15.7375684935
 21
18.6870385737
 31
0.0
 11
15.746079988
 21
18.6805596332
 31
0.0
 11
15.7534704975
 21
18.6730820887
 31
0.0
 11
15.7598450649
 21
18.6645009447
 31
0.0
 11
15.7652354064
 21
18.6546462586
 31
0.0
 11
15.7696084213
 21
18.6432440811
 31
0.0
 11
15.7728230829
 21
18.6299641736
 31
0.0
 11
15.7746242876
 21
18.6145003062
 31
0.0
 11
15.7746829887
 21
18.5966501839
 31
0.0
 11
15.7726764208
 21
18.5764485392
 31
0.0
  0
SPLINE
  5
7B0
330
1F
100
AcDbEntity
  8
0
  6
Continuous
 62
     7
100
AcDbSpline
210
0.0
220
0.0
230
1.0
 70
     8
 71
     3
 72
    19
 73
    15
 74
    13
 42
0.0000000001
 43
0.0000000001
 44
0.0000000001
 12
0.6135451548234229
 22
0.7896596374341937
 32
0.0
 13
0.5061704002255972
 23
0.8624334907315805
 33
0.0
 40
0.0
 40
0.0
 40
0.0
 40
0.0
 40
0.0114430876166409
 40
0.0219442027974109
 40
0.0315452068781042
 40
0.0402956325392884
 40
0.0483545997840294
 40
0.055951580539141
 40
0.063334030417435
 40
0.0707685199056347
 40
0.0785161908015307
 40
0.0867986356430178
 40
0.0958198966917011
 40
0.1058057851101172
 40
0.1058057851101172
 40
0.1058057851101172
 40
0.1058057851101172
 10
11.7639325049
 20
12.1880685467
 30
0.0
 10
11.76627278855447
 20
12.19108059483949
 30
0.0
 10
11.77074700486878
 20
12.19686790220393
 30
0.0
 10
11.77699508412415
 20
12.20532605581055
 30
0.0
 10
11.78262118437891
 20
12.21312645081226
 30
0.0
 10
11.78769021985377
 20
12.22032428924097
 30
0.0
 10
11.79231455476626
 20
12.22701777432066
 30
0.0
 10
11.79662293525904
 20
12.23337495602276
 30
0.0
 10
11.80075547156423
 20
12.23959944590894
 30
0.0
 10
11.804856537607
 20
12.24590470384812
 30
0.0
 10
11.8090635583272
 20
12.2524985686395
 30
0.0
 10
11.8134927914129
 20
12.25957764313063
 30
0.0
 10
11.81825054207795
 20
12.26733105022803
 30
0.0
 10
11.82147788258754
 20
12.27278344286442
 30
0.0
 10
11.8231627363
 20
12.2756541644
 30
0.0
 11
11.7639325049
 21
12.1880685467
 31
0.0
 11
11.7709043168
 21
12.1971425807
 31
0.0
 11
11.777156512
 21
12.2055796107
 31
0.0
 11
11.7827716644
 21
12.2133673795
 31
0.0
 11
11.7878117239
 21
12.2205205431
 31
0.0
 11
11.7923918679
 21
12.2271514732
 31
0.0
 11
11.7966529019
 21
12.2334409649
 31
0.0
 11
11.8007362179
 21
12.2395913386
 31
0.0
 11
11.8047906782
 21
12.2458229504
 31
0.0
 11
11.8089583676
 21
12.2523541654
 31
0.0
 11
11.8133524002
 21
12.2593749467
 31
0.0
 11
11.8180628975
 21
12.2670687342
 31
0.0
 11
11.8231627363
 21
12.2756541644
 31
0.0
  0
SPLINE
  5
7B4
330
1F
100
AcDbEntity
  8
0
  6
Continuous
 62
     7
100
AcDbSpline
210
0.0
220
0.0
230
1.0
 70
     8
 71
     3
 72
    18
 73
    14
 74
    12
 42
0.0000000001
 43
0.0000000001
 44
0.0000000001
 12
-0.2032580051480369
 22
-0.9791252133119854
 32
0.0
 13
-0.9587052630024505
 23
-0.2844015096503571
 33
0.0
 40
0.0
 40
0.0
 40
0.0
 40
0.0
 40
0.0277965952497053
 40
0.0559201213614966
 40
0.070062746808437
 40
0.0842264387339757
 40
0.112511946713955
 40
0.1266050384455981
 40
0.1406331574247887
 40
0.168400734343326
 40
0.1821215163013226
 40
0.1957109526238046
 40
0.2224371206185772
 40
0.2224371206185772
 40
0.2224371206185772
 40
0.2224371206185772
 10
14.436759132
 20
10.6617601635
 30
0.0
 10
14.43487583849988
 20
10.65268804774893
 30
0.0
 10
14.4298185292594
 20
10.63467959901124
 30
0.0
 10
14.42057705444609
 20
10.61315682186307
 30
0.0
 10
14.41149294497446
 20
10.59667187872583
 30
0.0
 10
14.4013325692188
 20
10.58076595183616
 30
0.0
 10
14.38966355793441
 20
10.56588494188032
 30
0.0
 10
14.3766544733395
 20
10.5522940049947
 30
0.0
 10
14.36290989409181
 20
10.53970288671709
 30
0.0
 10
14.34804542538985
 20
10.52856888985436
 30
0.0
 10
14.33227978663875
 20
10.51913566611908
 30
0.0
 10
14.31620884536468
 20
10.51098000515455
 30
0.0
 10
14.30359276590549
 20
10.50617333777496
 30
0.0
 10
14.2950519266
 20
10.5036396836
 30
0.0
 11
14.436759132
 21
10.6617601635
 31
0.0
 11
14.4292751762
 21
10.6349900101
 31
0.0
 11
14.4181887977
 21
10.6091438318
 31
0.0
 11
14.4113652096
 21
10.5967562372
 31
0.0
 11
14.4037411327
 21
10.5848195869
 31
0.0
 11
14.3862766923
 21
10.5625695693
 31
0.0
 11
14.3765314468
 21
10.5523889296
 31
0.0
 11
14.3661860593
 21
10.5429146972
 31
0.0
 11
14.3439407064
 21
10.5262959547
 31
0.0
 11
14.3321652147
 21
10.5192533946
 31
0.0
 11
14.3200447286
 21
10.5131079413
 31
0.0
 11
14.2950519266
 21
10.5036396836
 31
0.0
  0
SPLINE
  5
7B9
330
1F
100
AcDbEntity
  8
0
  6
Continuous
 62
     7
100
AcDbSpline
210
0.0
220
0.0
230
1.0
 70
     8
 71
     3
 72
    21
 73
    17
 74
    15
 42
0.0000000001
 43
0.0000000001
 44
0.0000000001
 12
0.1400152198552846
 22
-0.9901493514661696
 32
0.0
 13
-0.9982634574238067
 23
-0.0589072964263962
 33
0.0
 40
0.0
 40
0.0
 40
0.0
 40
0.0
 40
0.0158099969276025
 40
0.0304201314383876
 40
0.0440760869671386
 40
0.05680927236954
 40
0.068800339979975
 40
0.0802613895261529
 40
0.0914386621321155
 40
0.1026120908125242
 40
0.1140572683332221
 40
0.1260152699112638
 40
0.1386931970469825
 40
0.1522608501811565
 40
0.1668418917817828
 40
0.1824942469501367
 40
0.1824942469501367
 40
0.1824942469501367
 40
0.1824942469501367
 10
15.7726762279
 20
9.7534014769
 30
0.0
 10
15.77341410796524
 20
9.748183390831817
 30
0.0
 10
15.77442520074893
 20
9.738077898964377
 30
0.0
 10
15.77449998613031
 20
9.723362703747092
 30
0.0
 10
15.77313025006177
 20
9.709736681942377
 30
0.0
 10
15.77037541450991
 20
9.69721137845253
 30
0.0
 10
15.76631379074721
 20
9.685817930473117
 30
0.0
 10
15.76100682175598
 20
9.675526805264771
 30
0.0
 10
15.75448574927286
 20
9.666289448253058
 30
0.0
 10
15.74674046123463
 20
9.658058719192302
 30
0.0
 10
15.73772896978336
 20
9.650815880826172
 30
0.0
 10
15.72740320737429
 20
9.644583044654755
 30
0.0
 10
15.71573057287262
 20
9.63941436324756
 30
0.0
 10
15.70270393052451
 20
9.635379945699645
 30
0.0
 10
15.68835599033129
 20
9.632552139561644
 30
0.0
 10
15.67831257539572
 20
9.631547484775225
 30
0.0
 10
15.673104184
 20
9.6312401388
 30
0.0
 11
15.7726762279
 21
9.7534014769
 31
0.0
 11
15.7742059163
 21
9.7376656561
 31
0.0
 11
15.7742365
 21
9.7230555536
 31
0.0
 11
15.7728282798
 21
9.709472400899999
 31
0.0
 11
15.770056773
 21
9.6970444984
 31
0.0
 11
15.7660028939
 21
9.685759474399999
 31
0.0
 11
15.7607334802
 21
9.6755816094
 31
0.0
 11
15.7542820251
 21
9.666454169999999
 31
0.0
 11
15.7466291741
 21
9.658312955099999
 31
0.0
 11
15.7377195707
 21
9.651128871599999
 31
0.0
 11
15.7274968911
 21
9.644924790399999
 31
0.0
 11
15.7159195311
 21
9.6397581114
 31
0.0
 11
15.7029716983
 21
9.635704121099999
 31
0.0
 11
15.6886743949
 21
9.632841623999999
 31
0.0
 11
15.673104184
 21
9.6312401388
 31
0.0
  0
SPLINE
  5
7C2
330
1F
100
AcDbEntity
  8
0
  6
Continuous
 62
     7
100
AcDbSpline
210
0.0
220
0.0
230
1.0
 70
     8
 71
     3
 72
    12
 73
     8
 74
     6
 42
0.0000000001
 43
0.0000000001
 44
0.0000000001
 12
-0.9999999999999896
 22
-0.0000001432114866
 32
0.0
 13
-0.9914621579300883
 23
0.1303947444976712
 33
0.0
 40
0.0
 40
0.0
 40
0.0
 40
0.0
 40
0.4545928215595444
 40
0.9118984688597604
 40
1.373257145945894
 40
1.837569744341138
 40
2.301491366517748
 40
2.301491366517748
 40
2.301491366517748
 40
2.301491366517748
 10
9.172000974599999
 20
12.020860998
 30
0.0
 10
9.020470034080153
 20
12.02086097629903
 30
0.0
 10
8.716489937247636
 20
12.02468623334151
 30
0.0
 10
8.259019415092513
 20
12.04204134526502
 30
0.0
 10
7.798910691599754
 20
12.07143144021336
 30
0.0
 10
7.337547207002573
 20
12.113196430001
 30
0.0
 10
7.030213601711216
 20
12.14937823920311
 30
0.0
 10
6.8768933575
 20
12.169542553
 30
0.0
 11
9.172000974599999
 21
12.020860998
 31
0.0
 11
8.717444232
 21
12.0265882286
 31
0.0
 11
8.2604683112
 21
12.0439509145
 31
0.0
 11
7.8000500401
 21
12.0733931386
 31
0.0
 11
7.337630729499999
 21
12.1152807288
 31
0.0
 11
6.8768933575
 21
12.169542553
 31
0.0
  0
SPLINE
  5
7C3
330
1F
100
AcDbEntity
  8
0
  6
Continuous
 62
     7
100
AcDbSpline
210
0.0
220
0.0
230
1.0
 70
     8
 71
     3
 72
    11
 73
     7
 74
     5
 42
0.0000000001
 43
0.0000000001
 44
0.0000000001
 12
-0.991460084713044
 22
0.1304105073251513
 32
0.0
 13
-0.9999812387936676
 23
0.0061255253392606
 33
0.0
 40
0.0
 40
0.0
 40
0.0
 40
0.0
 40
0.0717097115452533
 40
0.1452140849563718
 40
0.2204928401295706
 40
0.2975793583197404
 40
0.2975793583197404
 40
0.2975793583197404
 40
0.2975793583197404
 10
6.8768933575
 20
12.169542553
 30
0.0
 10
6.853194251938865
 20
12.17265978628758
 30
0.0
 10
6.805071711637525
 20
12.17800214368528
 30
0.0
 10
6.731773651766127
 20
12.18357466642487
 30
0.0
 10
6.656550906874919
 20
12.18698768893584
 30
0.0
 10
6.605764421184698
 20
12.1879111491265
 30
0.0
 10
6.580069397199999
 20
12.1880685476
 30
0.0
 11
6.8768933575
 21
12.169542553
 31
0.0
 11
6.805629688099999
 21
12.1775282999
 31
0.0
 11
6.7323414351
 21
12.1831607845
 31
0.0
 11
6.6571423753
 21
12.1866237869
 31
0.0
 11
6.580069397199999
 21
12.1880685476
 31
0.0
  0
SPLINE
  5
7C4
330
1F
100
AcDbEntity
  8
0
  6
Continuous
 62
     7
100
AcDbSpline
210
0.0
220
0.0
230
1.0
 70
     8
 71
     3
 72
    35
 73
    31
 74
    29
 42
0.0000000001
 43
0.0000000001
 44
0.0000000001
 12
0.8397851512568966
 22
0.5429188703005555
 32
0.0
 13
0.8409529840942475
 23
0.5411081948584592
 33
0.0
 40
0.0
 40
0.0
 40
0.0
 40
0.0
 40
0.0267195883581385
 40
0.0555243111888205
 40
0.0865976319293907
 40
0.1201003368499208
 40
0.1562424713076266
 40
0.1952592933543598
 40
0.2374028914843525
 40
0.2829252372845077
 40
0.3321399753963542
 40
0.3853807559492243
 40
0.443006565265865
 40
0.5054324486080047
 40
0.5731156131209772
 40
0.6465656824594057
 40
0.7263645242270805
 40
0.8131688099091784
 40
0.9077222604579738
 40
1.010890023848967
 40
1.123670785105841
 40
1.247231839721263
 40
1.382963315733233
 40
1.53253916731039
 40
1.698007105760508
 40
1.881934072811554
 40
2.087620094132045
 40
2.320190546492576
 40
2.583941824184429
 40
2.840641994784285
 40
2.840641994784285
 40
2.840641994784285
 40
2.840641994784285
 10
4.193423910699999
 20
10.6475597339
 30
0.0
 10
4.20090348188362
 20
10.65239525680876
 30
0.0
 10
4.216445707139092
 20
10.66244459203172
 30
0.0
 10
4.24068705674397
 20
10.67811608981442
 30
0.0
 10
4.26682669864979
 20
10.6950159132149
 30
0.0
 10
4.295020733449851
 20
10.71324292428934
 30
0.0
 10
4.325438475969013
 20
10.73290734541501
 30
0.0
 10
4.358275351420064
 20
10.75413506790819
 30
0.0
 10
4.393738327305527
 20
10.77705987075096
 30
0.0
 10
4.432056402778828
 20
10.80182958107502
 30
0.0
 10
4.473481401890011
 20
10.82860679653713
 30
0.0
 10
4.518295136908721
 20
10.85757343242895
 30
0.0
 10
4.566807832437646
 20
10.88892971237475
 30
0.0
 10
4.619364337827445
 20
10.9228981622362
 30
0.0
 10
4.676351717957126
 20
10.95972849507732
 30
0.0
 10
4.73820379744095
 20
10.99970051921339
 30
0.0
 10
4.805410316298373
 20
11.04313001727271
 30
0.0
 10
4.878526649532116
 20
11.09037497537144
 30
0.0
 10
4.958187609500663
 20
11.14184443027615
 30
0.0
 10
5.045123935089869
 20
11.19800902401902
 30
0.0
 10
5.14018519266761
 20
11.25941565621788
 30
0.0
 10
5.244368263484311
 20
11.3267056790313
 30
0.0
 10
5.358859567498184
 20
11.4006418572598
 30
0.0
 10
5.485092726644551
 20
11.48214512704793
 30
0.0
 10
5.624831917272597
 20
11.57234764301315
 30
0.0
 10
5.780298269551776
 20
11.67267308973046
 30
0.0
 10
5.954577473544402
 20
11.78509741981941
 30
0.0
 10
6.151244107555027
 20
11.91190217320054
 30
0.0
 10
6.362243015535433
 20
12.04785851906515
 30
0.0
 10
6.508111805705516
 20
12.14176769228895
 30
0.0
 10
6.580069397199999
 20
12.1880685476
 30
0.0
 11
4.193423910699999
 21
10.6475597339
 31
0.0
 11
4.2158622136
 21
10.6620669378
 31
0.0
 11
4.240051930299999
 21
10.677705661
 31
0.0
 11
4.2661467214
 21
10.6945761423
 31
0.0
 11
4.294281890299999
 21
10.7127652464
 31
0.0
 11
4.3246338041
 21
10.7323870509
 31
0.0
 11
4.357400102799999
 21
10.7535691677
 31
0.0
 11
4.3927925474
 21
10.7764483663
 31
0.0
 11
4.4310228222
 21
10.8011613195
 31
0.0
 11
4.4723544213
 21
10.8278781562
 31
0.0
 11
4.517067662799999
 21
10.85677983
 31
0.0
 11
4.5654641709
 21
10.8880610049
 31
0.0
 11
4.6178926851
 21
10.9219467218
 31
0.0
 11
4.674737399299999
 21
10.9586848386
 31
0.0
 11
4.736426587
 21
10.9985515767
 31
0.0
 11
4.803449271199999
 21
11.0418622561
 31
0.0
 11
4.876357398299999
 21
11.0889726479
 31
0.0
 11
4.955776155499999
 21
11.1402855704
 31
0.0
 11
5.042432890799999
 21
11.1962694755
 31
0.0
 11
5.1371673503
 21
11.2574649189
 31
0.0
 11
5.2409612334
 21
11.3245034455
 31
0.0
 11
5.354983881999999
 21
11.3981367884
 31
0.0
 11
5.4806437379
 21
11.4792696177
 31
0.0
 11
5.6196642449
 21
11.5690077773
 31
0.0
 11
5.7742066544
 21
11.6687362731
 31
0.0
 11
5.947050740699999
 21
11.7802336327
 31
0.0
 11
6.1425147298
 21
11.9062607896
 31
0.0
 11
6.364228205399999
 21
12.0491169103
 31
0.0
 11
6.580069397199999
 21
12.1880685476
 31
0.0
  0
SPLINE
  5
7C6
330
1F
100
AcDbEntity
  8
0
  6
Continuous
 62
     7
100
AcDbSpline
210
0.0
220
0.0
230
1.0
 70
     8
 71
     3
 72
    35
 73
    31
 74
    29
 42
0.0000000001
 43
0.0000000001
 44
0.0000000001
 12
0.8289994245240009
 22
-0.5592494560917119
 32
0.0
 13
0.8282462261666829
 23
-0.5603643358036341
 33
0.0
 40
0.0
 40
0.0
 40
0.0
 40
0.0
 40
0.0263484570020153
 40
0.0547885941109179
 40
0.085510775659778
 40
0.1187038737386486
 40
0.1545808006056612
 40
0.1933727840095923
 40
0.2353344880785973
 40
0.280746168493383
 40
0.3299170438642251
 40
0.3831890201854278
 40
0.440941394240675
 40
0.5035960947649284
 40
0.5716241934607508
 40
0.6455537479229198
 40
0.725979381076563
 40
0.8135741847288201
 40
0.9091046880893564
 40
1.013449926153938
 40
1.127626178552406
 40
1.252819724105802
 40
1.390431115411845
 40
1.542136885665333
 40
1.709975793551281
 40
1.896479798270487
 40
2.104872951925243
 40
2.339369146220955
 40
2.607841793279531
 40
2.893057736954604
 40
2.893057736954604
 40
2.893057736954604
 40
2.893057736954604
 10
4.129619481099999
 20
17.23279678
 30
0.0
 10
4.136900432997254
 20
17.22788499325092
 30
0.0
 10
4.152041468165965
 20
17.21767317250233
 30
0.0
 10
4.175671200567502
 20
17.20173295614828
 30
0.0
 10
4.201192988660845
 20
17.1845177561625
 30
0.0
 10
4.228769467383929
 20
17.16591571066927
 30
0.0
 10
4.258575932112973
 20
17.14580936897096
 30
0.0
 10
4.290805305180217
 20
17.12406819500959
 30
0.0
 10
4.325669313260901
 20
17.1005493880683
 30
0.0
 10
4.363401152561715
 20
17.07509548719586
 30
0.0
 10
4.404258140333157
 20
17.04753278772826
 30
0.0
 10
4.448524938081238
 20
17.01766908641061
 30
0.0
 10
4.496517336543637
 20
16.9852911447908
 30
0.0
 10
4.548586793928533
 20
16.95016160831275
 30
0.0
 10
4.605125845113029
 20
16.91201534520269
 30
0.0
 10
4.666574705252955
 20
16.87055497011241
 30
0.0
 10
4.733429362293044
 20
16.82544536067638
 30
0.0
 10
4.806251632724289
 20
16.77630683716225
 30
0.0
 10
4.885681833644369
 20
16.72270656462669
 30
0.0
 10
4.972454992880784
 20
16.66414754939778
 30
0.0
 10
5.06742195962009
 20
16.60005429867836
 30
0.0
 10
5.171577460202221
 20
16.52975375148114
 30
0.0
 10
5.286098335543574
 20
16.45244926802854
 30
0.0
 10
5.412396506907755
 20
16.3671845695365
 30
0.0
 10
5.552195807803231
 20
16.27279137938702
 30
0.0
 10
5.707646565650327
 20
16.16781125525825
 30
0.0
 10
5.881498328437733
 20
16.05037755036554
 30
0.0
 10
6.077973236993588
 20
15.9176228119742
 30
0.0
 10
6.295638774222922
 20
15.77049071367384
 30
0.0
 10
6.448519476236183
 20
15.66709369831269
 30
0.0
 10
6.527262485899999
 20
15.6138187507
 30
0.0
 11
4.129619481099999
 21
17.23279678
 31
0.0
 11
4.151463203099999
 21
17.218062704
 31
0.0
 11
4.175040682499999
 21
17.202158495
 31
0.0
 11
4.2005101063
 21
17.1849782479
 31
0.0
 11
4.2280278186
 21
17.166415994
 31
0.0
 11
4.2577703594
 21
17.1463527154
 31
0.0
 11
4.2899293682
 21
17.1246590267
 31
0.0
 11
4.324715927599999
 21
17.101192457
 31
0.0
 11
4.362362319499999
 21
17.0757961995
 31
0.0
 11
4.403124825999999
 21
17.048297235
 31
0.0
 11
4.447286811099999
 21
17.0185042403
 31
0.0
 11
4.4951626167
 21
16.9862049532
 31
0.0
 11
4.547101902199999
 21
16.9511632335
 31
0.0
 11
4.603495035299999
 21
16.9131154116
 31
0.0
 11
4.664779584499999
 21
16.8717658886
 31
0.0
 11
4.731448248699999
 21
16.8267817616
 31
0.0
 11
4.8040587086
 21
16.777786142
 31
0.0
 11
4.883246012799999
 21
16.7243497506
 31
0.0
 11
4.9697383538
 21
16.6659802067
 31
0.0
 11
5.064377530899999
 21
16.6021081254
 31
0.0
 11
5.168146037499999
 21
16.5320687016
 31
0.0
 11
5.282203665299999
 21
16.4550768023
 31
0.0
 11
5.407938506399999
 21
16.3701922309
 31
0.0
 11
5.547038206799999
 21
16.2762711345
 31
0.0
 11
5.701598140899999
 21
16.1718921589
 31
0.0
 11
5.8742855899
 21
16.055244178
 31
0.0
 11
6.0685852865
 21
15.9239578762
 31
0.0
 11
6.2910087673
 21
15.773607095
 31
0.0
 11
6.527262485899999
 21
15.6138187507
 31
0.0
  0
SPLINE
  5
7C7
330
1F
100
AcDbEntity
  8
0
  6
Continuous
 62
     7
100
AcDbSpline
210
0.0
220
0.0
230
1.0
 70
     8
 71
     3
 72
    23
 73
    19
 74
    17
 42
0.0000000001
 43
0.0000000001
 44
0.0000000001
 12
0.9718845132405672
 22
-0.2354580491789264
 32
0.0
 13
0.8290350658267289
 23
-0.5591966198303341
 33
0.0
 40
0.0
 40
0.0
 40
0.0
 40
0.0
 40
0.0025124504297796
 40
0.0051871124086041
 40
0.0080253595805432
 40
0.0110169292108787
 40
0.0141328948601388
 40
0.0173323816755108
 40
0.0205589618696332
 40
0.0237149888048238
 40
0.0267383432724305
 40
0.0296305881035999
 40
0.0323961885683459
 40
0.0350370162648844
 40
0.0375572750950729
 40
0.0399588616604464
 40
0.0422522259245864
 40
0.0443942049976757
 40
0.0443942049976757
 40
0.0443942049976757
 40
0.0443942049976757
 10
4.0877232112
 20
17.2466725019
 30
0.0
 10
4.088537148420996
 20
17.24647530967438
 30
0.0
 10
4.09021966649316
 20
17.24607680964668
 30
0.0
 10
4.092827617486406
 20
17.24548103022275
 30
0.0
 10
4.09559456973638
 20
17.24486438697055
 30
0.0
 10
4.098506115572203
 20
17.24422035394065
 30
0.0
 10
4.101532701912669
 20
17.24353886447292
 30
0.0
 10
4.104628312359404
 20
17.24280774766309
 30
0.0
 10
4.107723179239208
 20
17.24201693083287
 30
0.0
 10
4.110740191841523
 20
17.2411623444193
 30
0.0
 10
4.113626121592476
 20
17.24025807783541
 30
0.0
 10
4.116361025113747
 20
17.23931116966195
 30
0.0
 10
4.118945319922206
 20
17.23832314163622
 30
0.0
 10
4.121379990368101
 20
17.23729517372096
 30
0.0
 10
4.123664952565512
 20
17.23622888359581
 30
0.0
 10
4.125802411022675
 20
17.23512477199409
 30
0.0
 10
4.127780291680517
 20
17.23399114677591
 30
0.0
 10
4.129027555846047
 20
17.23319604248581
 30
0.0
 10
4.129619481099999
 20
17.23279678
 30
0.0
 11
4.0877232112
 21
17.2466725019
 31
0.0
 11
4.090167779299999
 21
17.2460924209
 31
0.0
 11
4.0927749625
 21
17.245495418
 31
0.0
 11
4.095544842599999
 21
17.2448762159
 31
0.0
 11
4.098465230499999
 21
17.2442275069
 31
0.0
 11
4.101504349099999
 21
17.2435397569
 31
0.0
 11
4.1046172385
 21
17.2428004089
 31
0.0
 11
4.107742330999999
 21
17.2419975287
 31
0.0
 11
4.1107785107
 21
17.2411360655
 31
0.0
 11
4.1136630572
 21
17.2402304918
 31
0.0
 11
4.116395560499999
 21
17.2392825963
 31
0.0
 11
4.118978145899999
 21
17.2382932538
 31
0.0
 11
4.1214102508
 21
17.2372642559
 31
0.0
 11
4.1236932023
 21
17.2361966244
 31
0.0
 11
4.125825933599999
 21
17.235092507
 31
0.0
 11
4.127814500999999
 21
17.2339500888
 31
0.0
 11
4.129619481099999
 21
17.23279678
 31
0.0
  0
SPLINE
  5
7C9
330
1F
100
AcDbEntity
  8
0
  6
Continuous
 62
     7
100
AcDbSpline
210
0.0
220
0.0
230
1.0
 70
     8
 71
     3
 72
    29
 73
    25
 74
    23
 42
0.0000000001
 43
0.0000000001
 44
0.0000000001
 12
0.9794743169106117
 22
0.2015690018641022
 32
0.0
 13
0.8388785942198612
 23
0.5443185686339477
 33
0.0
 40
0.0
 40
0.0
 40
0.0
 40
0.0
 40
0.0023564041240444
 40
0.0048101630194527
 40
0.0073830872225897
 40
0.0100846583953891
 40
0.0129055714981646
 40
0.0158273394481862
 40
0.0188586107230145
 40
0.0219782271929123
 40
0.0251523488133855
 40
0.0283485010844805
 40
0.0315330091586245
 40
0.034685366992675
 40
0.0377730572072292
 40
0.0407466103128658
 40
0.0435938405110287
 40
0.0463222073171897
 40
0.0489330324581149
 40
0.0514295472047116
 40
0.0538144020719377
 40
0.0560928768818272
 40
0.0582613641373906
 40
0.0602809538553947
 40
0.0602809538553947
 40
0.0602809538553947
 40
0.0602809538553947
 10
4.0812048009
 20
10.7124342774
 30
0.0
 10
4.081974146673254
 20
10.71259260340909
 30
0.0
 10
4.083546096177068
 20
10.7129086824266
 30
0.0
 10
4.085963004165669
 20
10.71337275133626
 30
0.0
 10
4.088496819444497
 20
10.71383764724056
 30
0.0
 10
4.091154386312555
 20
10.71430580526605
 30
0.0
 10
4.09392917299017
 20
10.71477850892572
 30
0.0
 10
4.09681444505054
 20
10.71525685940795
 30
0.0
 10
4.099798956507187
 20
10.7157453115241
 30
0.0
 10
4.102866045969186
 20
10.71625002203509
 30
0.0
 10
4.105985055341069
 20
10.71677761635811
 30
0.0
 10
4.109120735741917
 20
10.71733588434023
 30
0.0
 10
4.112241694759074
 20
10.71793422663595
 30
0.0
 10
4.115316104453667
 20
10.71858117762459
 30
0.0
 10
4.118306271596456
 20
10.7192834716077
 30
0.0
 10
4.121178305784864
 20
10.72003944486525
 30
0.0
 10
4.123913266137936
 20
10.72084138926249
 30
0.0
 10
4.126508052188416
 20
10.72168748030815
 30
0.0
 10
4.128964427371522
 20
10.72257673502074
 30
0.0
 10
4.131282366417032
 20
10.72350777897507
 30
0.0
 10
4.13346281147588
 20
10.72447959460992
 30
0.0
 10
4.135504349622539
 20
10.72549013620571
 30
0.0
 10
4.137393178846316
 20
10.72653013124302
 30
0.0
 10
4.138583846305486
 20
10.72726018870516
 30
0.0
 10
4.1391485765
 20
10.7276266221
 30
0.0
 11
4.0812048009
 21
10.7124342774
 31
0.0
 11
4.0835149271
 21
10.7128989895
 31
0.0
 11
4.0859246012
 21
10.7133620267
 31
0.0
 11
4.088455163999999
 21
10.71382699
 31
0.0
 11
4.0911156314
 21
10.7142964578
 31
0.0
 11
4.093896370899999
 21
10.7147708401
 31
0.0
 11
4.0967785954
 21
10.715249912
 31
0.0
 11
4.099769825
 21
10.7157409833
 31
0.0
 11
4.102847742099999
 21
10.7162493466
 31
0.0
 11
4.1059770438
 21
10.7167808717
 31
0.0
 11
4.109123284299999
 21
10.7173435084
 31
0.0
 11
4.112250345499999
 21
10.7179456545
 31
0.0
 11
4.115334533499999
 21
10.7185976854
 31
0.0
 11
4.1183399398
 21
10.7193057559
 31
0.0
 11
4.1212152592
 21
10.7200637509
 31
0.0
 11
4.123947005399999
 21
10.720866423
 31
0.0
 11
4.1265404603
 21
10.7217137583
 31
0.0
 11
4.128994784199999
 21
10.7226040965
 31
0.0
 11
4.131310728899999
 21
10.7235362907
 31
0.0
 11
4.133488244099999
 21
10.7245088956
 31
0.0
 11
4.135529353499999
 21
10.7255214764
 31
0.0
 11
4.137427920899999
 21
10.7265692258
 31
0.0
 11
4.1391485765
 21
10.7276266221
 31
0.0
  0
SPLINE
  5
7CA
330
1F
100
AcDbEntity
  8
0
  6
Continuous
 62
     7
100
AcDbSpline
210
0.0
220
0.0
230
1.0
 70
     8
 71
     3
 72
    35
 73
    31
 74
    29
 42
0.0000000001
 43
0.0000000001
 44
0.0000000001
 12
0.8388599171668607
 22
0.5443473517624642
 32
0.0
 13
0.8376613556011786
 23
0.5461899425405012
 33
0.0
 40
0.0
 40
0.0
 40
0.0
 40
0.0
 40
0.0267202346657899
 40
0.0555253997419127
 40
0.0865992792282416
 40
0.1201026473079245
 40
0.1562455760605328
 40
0.1952633396833368
 40
0.2374080511819292
 40
0.2829316750215173
 40
0.3321479209096128
 40
0.385390448712802
 40
0.4430182576729641
 40
0.5054464642399357
 40
0.5731322976011616
 40
0.6465854214505742
 40
0.7263877841033445
 40
0.8131961137267349
 40
0.9077541809807724
 40
1.010927281272877
 40
1.123714176758429
 40
1.247282293602431
 40
1.383021962557939
 40
1.532607353590779
 40
1.698086446178517
 40
1.88202653974576
 40
2.087724978475018
 40
2.320321022783941
 40
2.584244001195496
 40
2.840570780476092
 40
2.840570780476092
 40
2.840570780476092
 40
2.840570780476092
 10
4.1391485765
 20
10.7276266221
 30
0.0
 10
4.146620087779474
 20
10.73247498509293
 30
0.0
 10
4.162146746140693
 20
10.74254902182309
 30
0.0
 10
4.1863614027638
 20
10.7582627412717
 30
0.0
 10
4.212473282209264
 20
10.77520644792963
 30
0.0
 10
4.240636484971325
 20
10.79348229723606
 30
0.0
 10
4.27102085769806
 20
10.8131997093958
 30
0.0
 10
4.303821209923675
 20
10.83448556757009
 30
0.0
 10
4.339244268109864
 20
10.85747404344963
 30
0.0
 10
4.377518597496336
 20
10.88231368463751
 30
0.0
 10
4.418895573192193
 20
10.90916782340665
 30
0.0
 10
4.463656465596546
 20
10.93821926542165
 30
0.0
 10
4.512110873039603
 20
10.96966925874194
 30
0.0
 10
4.564602906694939
 20
11.00374153397275
 30
0.0
 10
4.621518757285704
 20
11.0406872354837
 30
0.0
 10
4.683291201967024
 20
11.08078787629229
 30
0.0
 10
4.750408718947566
 20
11.12436129589465
 30
0.0
 10
4.823425139956585
 20
11.17176797774135
 30
0.0
 10
4.9029733825099
 20
11.22342003961155
 30
0.0
 10
4.989781810516534
 20
11.27979195834061
 30
0.0
 10
5.084696985651804
 20
11.34143549017187
 30
0.0
 10
5.188711910802712
 20
11.40899822658638
 30
0.0
 10
5.303007920065221
 20
11.48325112089964
 30
0.0
 10
5.429011796866594
 20
11.56512608784251
 30
0.0
 10
5.568478267118049
 20
11.65577038798073
 30
0.0
 10
5.723614111755544
 20
11.75662859822868
 30
0.0
 10
5.897487382743231
 20
11.86971098893627
 30
0.0
 10
6.093681890943619
 20
11.9973732207449
 30
0.0
 10
6.303979866637471
 20
12.13430372892578
 30
0.0
 10
6.449267524163643
 20
12.22898641575105
 30
0.0
 10
6.5208392033
 20
12.2756541187
 30
0.0
 11
4.1391485765
 21
10.7276266221
 31
0.0
 11
4.1615635493
 21
10.7421710346
 31
0.0
 11
4.1857271113
 21
10.7578509519
 31
0.0
 11
4.2117938691
 21
10.774765742
 31
0.0
 11
4.239898402899999
 21
10.7930033639
 31
0.0
 11
4.270216960399999
 21
10.8126781287
 31
0.0
 11
4.3029468273
 21
10.833918225
 31
0.0
 11
4.3382994283
 21
10.8568609866
 31
0.0
 11
4.376486040999999
 21
10.8816437011
 31
0.0
 11
4.417769720599999
 21
10.9084372947
 31
0.0
 11
4.4624302329
 21
10.9374235916
 31
0.0
 11
4.510768570099999
 21
10.9687982553
 31
0.0
 11
4.5631327595
 21
11.0027875572
 31
0.0
 11
4.6199061061
 21
11.0396407681
 31
0.0
 11
4.6815158373
 21
11.0796357981
 31
0.0
 11
4.7484497342
 21
11.123090033
 31
0.0
 11
4.821258200299999
 21
11.1703617302
 31
0.0
 11
4.900564513199999
 21
11.2218567476
 31
0.0
 11
4.987093698599999
 21
11.2780473936
 31
0.0
 11
5.0816824786
 21
11.3394790344
 31
0.0
 11
5.185308693199999
 21
11.4067894136
 31
0.0
 11
5.299136642199999
 21
11.4807384214
 31
0.0
 11
5.424567958099999
 21
11.5622416373
 31
0.0
 11
5.563316690199999
 21
11.652419902
 31
0.0
 11
5.7175307125
 21
11.7526795317
 31
0.0
 11
5.889967345399999
 21
11.8648287864
 31
0.0
 11
6.084923331699999
 21
11.991687303
 31
0.0
 11
6.3060921059
 21
12.1357001908
 31
0.0
 11
6.5208392033
 21
12.2756541187
 31
0.0
  0
SPLINE
  5
7CB
330
1F
100
AcDbEntity
  8
0
  6
Continuous
 62
     7
100
AcDbSpline
210
0.0
220
0.0
230
1.0
 70
     8
 71
     3
 72
    11
 73
     7
 74
     5
 42
0.0000000001
 43
0.0000000001
 44
0.0000000001
 12
0.1782596586452933
 22
0.9839834826355895
 32
0.0
 13
-0.0456113393120739
 23
0.9989592612945529
 33
0.0
 40
0.0
 40
0.0
 40
0.0
 40
0.0
 40
0.0421265026555294
 40
0.0858636777290479
 40
0.1312938224340244
 40
0.1784591250433255
 40
0.1784591250433255
 40
0.1784591250433255
 40
0.1784591250433255
 10
6.5208392033
 20
12.2756541187
 30
0.0
 10
6.523342355294431
 20
12.28947137963141
 30
0.0
 10
6.527875821552274
 20
12.31774139173966
 30
0.0
 10
6.532793804816783
 20
12.36124729848548
 30
0.0
 10
6.53541917338346
 20
12.40664033216885
 30
0.0
 10
6.535190899173689
 20
12.43753635281556
 30
0.0
 10
6.534473808299999
 20
12.4532417581
 30
0.0
 11
6.5208392033
 21
12.2756541187
 31
0.0
 11
6.527473719499999
 21
12.317254905
 31
0.0
 11
6.532339922
 21
12.36072053
 31
0.0
 11
6.534901580499999
 21
12.4060783954
 31
0.0
 11
6.534473808299999
 21
12.4532417581
 31
0.0
  0
SPLINE
  5
7CC
330
1F
100
AcDbEntity
  8
0
  6
Continuous
 62
     7
100
AcDbSpline
210
0.0
220
0.0
230
1.0
 70
     8
 71
     3
 72
    12
 73
     8
 74
     6
 42
0.0000000001
 43
0.0000000001
 44
0.0000000001
 12
-0.0456133315304687
 22
0.9989591703301449
 32
0.0
 13
0.0496954774289091
 23
0.9987644164281748
 33
0.0
 40
0.0
 40
0.0
 40
0.0
 40
0.0
 40
0.5977110086673
 40
1.193706570017319
 40
1.78902097175798
 40
2.385033200221624
 40
2.982787142174717
 40
2.982787142174717
 40
2.982787142174717
 40
2.982787142174717
 10
6.534473808299999
 20
12.4532417581
 30
0.0
 10
6.525385944834082
 20
12.65227138920516
 30
0.0
 10
6.511069791576646
 20
13.04994498523688
 30
0.0
 10
6.500995993548489
 20
13.64623410718968
 30
0.0
 10
6.502212317520777
 20
14.24204336861106
 30
0.0
 10
6.514721303725029
 20
14.83830625083444
 30
0.0
 10
6.53066266472321
 20
15.23593790696586
 30
0.0
 10
6.5405645539
 20
15.4349430293
 30
0.0
 11
6.534473808299999
 21
12.4532417581
 31
0.0
 11
6.5129533068
 21
13.0505652198
 31
0.0
 11
6.502874025099999
 21
13.6464755463
 31
0.0
 11
6.504089353
 21
14.2417887075
 31
0.0
 11
6.516602270799999
 21
14.8376695709
 31
0.0
 11
6.5405645539
 21
15.4349430293
 31
0.0
  0
SPLINE
  5
7CD
330
1F
100
AcDbEntity
  8
0
  6
Continuous
 62
     7
100
AcDbSpline
210
0.0
220
0.0
230
1.0
 70
     8
 71
     3
 72
    11
 73
     7
 74
     5
 42
0.0000000001
 43
0.0000000001
 44
0.0000000001
 12
0.049693427712357
 22
0.9987645184137234
 32
0.0
 13
-0.1771825183772455
 23
0.984178009905473
 33
0.0
 40
0.0
 40
0.0
 40
0.0
 40
0.0
 40
0.0476362191391482
 40
0.09339139879928
 40
0.1373931111139715
 40
0.1797303186716644
 40
0.1797303186716644
 40
0.1797303186716644
 40
0.1797303186716644
 10
6.5405645539
 20
15.4349430293
 30
0.0
 10
6.541353622904094
 20
15.45080215112252
 30
0.0
 10
6.541690271134313
 20
15.48196390499676
 30
0.0
 10
6.539155754673092
 20
15.52771695553299
 30
0.0
 10
6.534285063734758
 20
15.57149714098699
 30
0.0
 10
6.52976295691871
 20
15.59992963447364
 30
0.0
 10
6.527262485899999
 20
15.6138187507
 30
0.0
 11
6.5405645539
 21
15.4349430293
 31
0.0
 11
6.541161238399999
 21
15.4825755113
 31
0.0
 11
6.538693637499999
 21
15.528264103
 31
0.0
 11
6.533876026199999
 21
15.5720012875
 31
0.0
 11
6.527262485899999
 21
15.6138187507
 31
0.0
  0
SPLINE
  5
7CF
330
1F
100
AcDbEntity
  8
0
  6
Continuous
 62
     7
100
AcDbSpline
210
0.0
220
0.0
230
1.0
 70
     8
 71
     3
 72
    35
 73
    31
 74
    29
 42
0.0000000001
 43
0.0000000001
 44
0.0000000001
 12
0.8296747767836784
 22
-0.5582470463593637
 32
0.0
 13
0.8305272232862382
 23
-0.5569780349174028
 33
0.0
 40
0.0
 40
0.0
 40
0.0
 40
0.0
 40
0.0263473878403248
 40
0.0547863712116211
 40
0.0855072634743022
 40
0.1186989447668929
 40
0.1545743040541434
 40
0.193364555522169
 40
0.2353243423223498
 40
0.2807338979483732
 40
0.3299024153049657
 40
0.3831717710424857
 40
0.4409212265445723
 40
0.5035726707941607
 40
0.5715971279555801
 40
0.6455225994482569
 40
0.7259436413681792
 40
0.8135332651164446
 40
0.9090579022573496
 40
1.013396468307715
 40
1.127565095313315
 40
1.252749876583806
 40
1.390351132640338
 40
1.542045082341224
 40
1.709870108753944
 40
1.896357627010745
 40
2.104731195383535
 40
2.339241312223817
 40
2.60742791032592
 40
2.892820903317485
 40
2.892820903317485
 40
2.892820903317485
 40
2.892820903317485
 10
4.185856324999999
 20
17.3127519028
 30
0.0
 10
4.193142912708418
 20
17.30784911898628
 30
0.0
 10
4.208293445154317
 20
17.29765272101047
 30
0.0
 10
4.231940932634195
 20
17.28174095341228
 30
0.0
 10
4.257480643078141
 20
17.2645546578958
 30
0.0
 10
4.285077286531257
 20
17.24598509207572
 30
0.0
 10
4.314905562052452
 20
17.22591393736519
 30
0.0
 10
4.347158891986152
 20
17.20421143436277
 30
0.0
 10
4.38204913565867
 20
17.18073501309438
 30
0.0
 10
4.419809797821596
 20
17.15532771166816
 30
0.0
 10
4.460698497918548
 20
17.12781632004894
 30
0.0
 10
4.505000266572375
 20
17.09800923682783
 30
0.0
 10
4.553031319822678
 20
17.06569391717818
 30
0.0
 10
4.605143617778016
 20
17.03063382472267
 30
0.0
 10
4.661730289458037
 20
16.99256479518163
 30
0.0
 10
4.723232260628482
 20
16.95119059973518
 30
0.0
 10
4.790146375011405
 20
16.90617750763851
 30
0.0
 10
4.863035491557286
 20
16.85714753263025
 30
0.0
 10
4.942541211861282
 20
16.80366992393162
 30
0.0
 10
5.029400165283744
 20
16.74525028272631
 30
0.0
 10
5.124465228936442
 20
16.68131639644836
 30
0.0
 10
5.228733738488656
 20
16.61119941458896
 30
0.0
 10
5.34338595447708
 20
16.53410821020344
 30
0.0
 10
5.469838389283056
 20
16.44909386987202
 30
0.0
 10
5.609821191184384
 20
16.3549982273519
 30
0.0
 10
5.765493723474038
 20
16.25037709756655
 30
0.0
 10
5.939629234518942
 20
16.13337779642956
 30
0.0
 10
6.136390009923172
 20
16.0012214374888
 30
0.0
 10
6.354494206130574
 20
15.85479723056004
 30
0.0
 10
6.507727968661788
 20
15.75198937023854
 30
0.0
 10
6.586736851999999
 20
15.6990034941
 30
0.0
 11
4.185856324999999
 21
17.3127519028
 31
0.0
 11
4.207715253699999
 21
17.2980423113
 31
0.0
 11
4.2313097694
 21
17.2821654538
 31
0.0
 11
4.256797410399999
 21
17.2650145536
 31
0.0
 11
4.284335111599999
 21
17.2464845045
 31
0.0
 11
4.31409947
 21
17.2264564149
 31
0.0
 11
4.346282368599999
 21
17.2048012851
 31
0.0
 11
4.381095115799999
 21
17.1813770169
 31
0.0
 11
4.4187702681
 21
17.1560272508
 31
0.0
 11
4.459564420399999
 21
17.1285794779
 31
0.0
 11
4.503761301299999
 21
17.0988429687
 31
0.0
 11
4.551675677299999
 21
17.0666061546
 31
0.0
 11
4.6036577084
 21
17.0316337096
 31
0.0
 11
4.660098354699999
 21
16.9936629285
 31
0.0
 11
4.721435892799999
 21
16.952399364
 31
0.0
 11
4.7881638749
 21
16.9075114994
 31
0.0
 11
4.860841020799999
 21
16.8586241324
 31
0.0
 11
4.940103659
 21
16.8053100584
 31
0.0
 11
5.026681578199999
 21
16.7470794799
 31
0.0
 11
5.1214185983
 21
16.6833662755
 31
0.0
 11
5.2252998115
 21
16.6135098298
 31
0.0
 11
5.3394884204
 21
16.5367304884
 31
0.0
 11
5.4653770773
 21
16.4520953867
 31
0.0
 11
5.6046597339
 21
16.3584707048
 31
0.0
 11
5.759440683
 21
16.2544493019
 31
0.0
 11
5.932400572399999
 21
16.1382407796
 31
0.0
 11
6.127075714
 21
16.0074868728
 31
0.0
 11
6.349739451699999
 21
15.858004729
 31
0.0
 11
6.586736851999999
 21
15.6990034941
 31
0.0
  0
SPLINE
  5
7D0
330
1F
100
AcDbEntity
  8
0
  6
Continuous
 62
     7
100
AcDbSpline
210
0.0
220
0.0
230
1.0
 70
     8
 71
     3
 72
    11
 73
     7
 74
     5
 42
0.0000000001
 43
0.0000000001
 44
0.0000000001
 12
0.9999992117911913
 22
0.0012555544575163
 32
0.0
 13
0.9914165073299187
 23
0.1307413821012522
 33
0.0
 40
0.0
 40
0.0
 40
0.0
 40
0.0
 40
0.0764849201005064
 40
0.1513383336597837
 40
0.2245947991618891
 40
0.2962297634254292
 40
0.2962297634254292
 40
0.2962297634254292
 40
0.2962297634254292
 10
6.586736851999999
 20
15.6990034941
 30
0.0
 10
6.612231805271472
 20
15.69903550442745
 30
0.0
 10
6.662680050507236
 20
15.69973279332928
 30
0.0
 10
6.737489674014081
 20
15.70288464606472
 30
0.0
 10
6.810550847480509
 20
15.70829505222606
 30
0.0
 10
6.858570287375712
 20
15.71360157105513
 30
0.0
 10
6.8822436494
 20
15.7167234558
 30
0.0
 11
6.586736851999999
 21
15.6990034941
 31
0.0
 11
6.6632138447
 21
15.7001046709
 31
0.0
 11
6.737998701399999
 21
15.7033075961
 31
0.0
 11
6.811050515899999
 21
15.7087795369
 31
0.0
 11
6.8822436494
 21
15.7167234558
 31
0.0
  0
SPLINE
  5
7D1
330
1F
100
AcDbEntity
  8
0
  6
Continuous
 62
     7
100
AcDbSpline
210
0.0
220
0.0
230
1.0
 70
     8
 71
     3
 72
    12
 73
     8
 74
     6
 42
0.0000000001
 43
0.0000000001
 44
0.0000000001
 12
0.9914183673288443
 22
0.1307272768897479
 32
0.0
 13
0.9999999999999873
 23
-0.0000001591785648
 33
0.0
 40
0.0
 40
0.0
 40
0.0
 40
0.0
 40
0.4612625067319191
 40
0.9236646106479504
 40
1.384599240653064
 40
1.841720292049415
 40
2.296163433773588
 40
2.296163433773588
 40
2.296163433773588
 40
2.296163433773588
 10
6.8822436494
 20
15.7167234558
 30
0.0
 10
7.034678356511389
 20
15.73682331961213
 30
0.0
 10
7.340485589984226
 20
15.77293902159537
 30
0.0
 10
7.800174925099303
 20
15.81473272060207
 30
0.0
 10
8.259436325903759
 20
15.84422058973764
 30
0.0
 10
8.716651106580389
 20
15.86166111570669
 30
0.0
 10
9.020519927358609
 20
15.86550641941254
 30
0.0
 10
9.172000974599999
 20
15.8655063953
 30
0.0
 11
6.8822436494
 21
15.7167234558
 31
0.0
 11
7.340320519499999
 21
15.7708407469
 31
0.0
 11
7.800820992
 21
15.8127337121
 31
0.0
 11
8.2608064334
 21
15.8422993482
 31
0.0
 11
8.7175943018
 21
15.8597492454
 31
0.0
 11
9.172000974599999
 21
15.8655063953
 31
0.0
  0
SPLINE
  5
7D2
330
1F
100
AcDbEntity
  8
0
  6
Continuous
 62
     7
100
AcDbSpline
210
0.0
220
0.0
230
1.0
 70
     8
 71
     3
 72
    15
 73
    11
 74
     9
 42
0.0000000001
 43
0.0000000001
 44
0.0000000001
 12
-0.9999999999999992
 22
0.0000000409866187
 32
0.0
 13
-0.9839948963712902
 23
0.1781966439505913
 33
0.0
 40
0.0
 40
0.0
 40
0.0
 40
0.0
 40
0.6421024475218223
 40
1.284467160312902
 40
1.926975386501845
 40
2.569521941695844
 40
3.212332716096415
 40
3.855612288562991
 40
4.499261840853423
 40
5.143141993463395
 40
5.143141993463395
 40
5.143141993463395
 40
5.143141993463395
 10
9.172000974599999
 20
10.0462062288
 30
0.0
 10
8.957966825426058
 20
10.04620623757253
 30
0.0
 10
8.529795672594199
 20
10.05099657062296
 30
0.0
 10
7.887781128978645
 20
10.07254449427344
 30
0.0
 10
7.246257860665477
 20
10.1084525429538
 30
0.0
 10
6.605550958089544
 20
10.15871510879573
 30
0.0
 10
5.965874672472031
 20
10.2233415397193
 30
0.0
 10
5.327440649529039
 20
10.30232482255605
 30
0.0
 10
4.690587353995117
 20
10.39564581733932
 30
0.0
 10
4.267405764280993
 20
10.46738463063283
 30
0.0
 10
4.056214169599999
 20
10.5056303914
 30
0.0
 11
9.172000974599999
 21
10.0462062288
 31
0.0
 11
8.529938689799999
 21
10.0533878408
 31
0.0
 11
7.887935453699999
 21
10.0749347449
 31
0.0
 11
7.246431390399999
 21
10.1108423693
 31
0.0
 11
6.605853108099999
 21
10.1610971187
 31
0.0
 11
5.966297896899999
 21
10.2257099929
 31
0.0
 11
5.327885218699999
 21
10.3046901212
 31
0.0
 11
4.691036776599999
 21
10.3980111154
 31
0.0
 11
4.056214169599999
 21
10.5056303914
 31
0.0
  0
SPLINE
  5
7D3
330
1F
100
AcDbEntity
  8
0
  6
Continuous
 62
     7
100
AcDbSpline
210
0.0
220
0.0
230
1.0
 70
     8
 71
     3
 72
    14
 73
    10
 74
     8
 42
0.0000000001
 43
0.0000000001
 44
0.0000000001
 12
0.9159922405823063
 22
0.4011959810279835
 32
0.0
 13
0.9890544766850688
 23
0.1475508120927333
 33
0.0
 40
0.0
 40
0.0
 40
0.0
 40
0.0
 40
0.0011630926085478
 40
0.0022777594711664
 40
0.0033611566568071
 40
0.0044242965034613
 40
0.0054750060313095
 40
0.0065177613574823
 40
0.0075536866296075
 40
0.0075536866296075
 40
0.0075536866296075
 40
0.0075536866296075
 10
4.0489499959
 20
10.5036395935
 30
0.0
 10
4.049305123834836
 20
10.50379513619337
 30
0.0
 10
4.050008667008496
 20
10.50408164991347
 30
0.0
 10
4.051065869039403
 20
10.5044536731589
 30
0.0
 10
4.052106240716311
 20
10.50476992371203
 30
0.0
 10
4.053137398023882
 20
10.50504018306932
 30
0.0
 10
4.054164098953328
 20
10.50527131479519
 30
0.0
 10
4.055188629518431
 20
10.5054682211026
 30
0.0
 10
4.055872640757364
 20
10.50557944086161
 30
0.0
 10
4.056214169599999
 20
10.5056303914
 30
0.0
 11
4.0489499959
 21
10.5036395935
 31
0.0
 11
4.050026986099999
 21
10.5040787706
 31
0.0
 11
4.0510782365
 21
10.5044493847
 31
0.0
 11
4.052114616699999
 21
10.5047650832
 31
0.0
 11
4.053142872399999
 21
10.5050351879
 31
0.0
 11
4.054167812
 21
10.5052664655
 31
0.0
 11
4.055191739399999
 21
10.5054637251
 31
0.0
 11
4.056214169599999
 21
10.5056303914
 31
0.0
  0
SPLINE
  5
7D4
330
1F
100
AcDbEntity
  8
0
  6
Continuous
 62
     7
100
AcDbSpline
210
0.0
220
0.0
230
1.0
 70
     8
 71
     3
 72
    29
 73
    25
 74
    23
 42
0.0000000001
 43
0.0000000001
 44
0.0000000001
 12
0.8599745055649218
 22
0.5103369962861488
 32
0.0
 13
0.9156946946867481
 23
0.4018746398101564
 33
0.0
 40
0.0
 40
0.0
 40
0.0
 40
0.0
 40
0.0640757700017112
 40
0.1241893835265109
 40
0.2334499040868811
 40
0.3297585870677169
 40
0.4147526736805602
 40
0.5562681668266948
 40
0.6671722431842586
 40
0.7543700101631767
 40
0.8231092402734166
 40
0.877411796494375
 40
0.9203825592731325
 40
0.9544582694049987
 40
0.9814421317076458
 40
1.002891559170136
 40
1.019919834707126
 40
1.033454531784757
 40
1.044124517751212
 40
1.048552159822293
 40
1.052433794197474
 40
1.054182852590906
 40
1.055826155699415
 40
1.058892938158825
 40
1.058892938158825
 40
1.058892938158825
 40
1.058892938158825
 10
3.1388832402
 20
9.9623307778
 30
0.0
 10
3.157251083075304
 20
9.973230856465798
 30
0.0
 10
3.192849577652937
 20
9.994359372615406
 30
0.0
 10
3.259761983392252
 20
10.03408541721908
 30
0.0
 10
3.335904750852372
 20
10.07931062094947
 30
0.0
 10
3.419166604778874
 20
10.12879035877896
 30
0.0
 10
3.511659607169706
 20
10.18378231021358
 30
0.0
 10
3.608318857326232
 20
10.24128678793504
 30
0.0
 10
3.705591093598437
 20
10.29919758778096
 30
0.0
 10
3.782007271876755
 20
10.34471836329949
 30
0.0
 10
3.842206806031657
 20
10.38059595618806
 30
0.0
 10
3.889737780075766
 20
10.40893404453395
 30
0.0
 10
3.927341103951107
 20
10.43136041240912
 30
0.0
 10
3.957121920039498
 20
10.44912503922922
 30
0.0
 10
3.980740345057502
 20
10.46321705790653
 30
0.0
 10
3.999477398913968
 20
10.47439999260667
 30
0.0
 10
4.014364904801667
 20
10.48328536403751
 30
0.0
 10
4.026169693230318
 20
10.49032478943937
 30
0.0
 10
4.034365007033438
 20
10.49521626115239
 30
0.0
 10
4.039791052710981
 20
10.49846927845374
 30
0.0
 10
4.042667580755804
 20
10.50019154114534
 30
0.0
 10
4.044751169178433
 20
10.5014318524807
 30
0.0
 10
4.046616918690697
 20
10.50250574146801
 30
0.0
 10
4.048013698090719
 20
10.50322927170125
 30
0.0
 10
4.048949776899999
 20
10.5036400924
 30
0.0
 11
3.1388832402
 21
9.9623307778
 31
0.0
 11
3.1939845707
 21
9.995034717599999
 31
0.0
 11
3.2456746152
 21
10.0257232469
 31
0.0
 11
3.3396143598
 21
10.0815191763
 31
0.0
 11
3.4224069978
 21
10.1307202079
 31
0.0
 11
3.495463775899999
 21
10.1741563902
 31
0.0
 11
3.617083866399999
 21
10.2465109919
 31
0.0
 11
3.7123782684
 21
10.3032445014
 31
0.0
 11
3.787291571499999
 21
10.3478701396
 31
0.0
 11
3.8463394853
 21
10.3830614117
 31
0.0
 11
3.892981452499999
 21
10.4108695851
 31
0.0
 11
3.929887268899999
 21
10.4328797457
 31
0.0
 11
3.959151768599999
 21
10.4503366377
 31
0.0
 11
3.982324248299999
 21
10.4641628812
 31
0.0
 11
4.0007428656
 21
10.4751552638
 31
0.0
 11
4.015365488499999
 21
10.4838811487
 31
0.0
 11
4.026989323099999
 21
10.490814726
 31
0.0
 11
4.0361492201
 21
10.4962869182
 31
0.0
 11
4.039947367699999
 21
10.4985624597
 31
0.0
 11
4.0432786925
 21
10.5005547851
 31
0.0
 11
4.0447836359
 21
10.5014460486
 31
0.0
 11
4.046210153799999
 21
10.5022618254
 31
0.0
 11
4.048949776899999
 21
10.5036400924
 31
0.0
  0
SPLINE
  5
7D7
330
1F
100
AcDbEntity
  8
0
  6
Continuous
 62
     7
100
AcDbSpline
210
0.0
220
0.0
230
1.0
 70
     8
 71
     3
 72
    17
 73
    13
 74
    11
 42
0.0000000001
 43
0.0000000001
 44
0.0000000001
 12
-0.1178937870278336
 22
0.9930262106209665
 32
0.0
 13
0.1208250926822661
 23
0.9926738119736622
 33
0.0
 40
0.0
 40
0.0
 40
0.0
 40
0.0
 40
0.6592774548488861
 40
1.323306271796618
 40
1.991057397315783
 40
2.661279728488187
 40
3.332339673150058
 40
4.003077932619543
 40
4.672359932737084
 40
5.338623698138249
 40
6.000754363951552
 40
6.657925989010667
 40
6.657925989010667
 40
6.657925989010667
 40
6.657925989010667
 10
3.907242898799999
 20
10.661760308
 30
0.0
 10
3.88133466018193
 20
10.8799869055788
 30
0.0
 10
3.834670304931288
 20
11.31866494921768
 30
0.0
 10
3.78037346665415
 20
11.98018663531521
 30
0.0
 10
3.741690178911981
 20
12.64646276063127
 30
0.0
 10
3.718775585184123
 20
13.31581109204476
 30
0.0
 10
3.711722067685653
 20
13.98651037994867
 30
0.0
 10
3.720567778408166
 20
14.65687499655868
 30
0.0
 10
3.745258232013906
 20
15.32524319133259
 30
0.0
 10
3.785687441932185
 20
15.98997125552046
 30
0.0
 10
3.841697864294356
 20
16.64951321505822
 30
0.0
 10
3.889487443798025
 20
17.08672773404388
 30
0.0
 10
3.9159550513
 20
17.3041800881
 30
0.0
 11
3.907242898799999
 21
10.661760308
 31
0.0
 11
3.8374632309
 21
11.3173345299
 31
0.0
 11
3.783106468
 21
11.979134811
 31
0.0
 11
3.7443761788
 21
12.6457617909
 31
0.0
 11
3.7214308945
 21
13.3155912372
 31
0.0
 11
3.714373663699999
 21
13.986614072
 31
0.0
 11
3.7232291892
 21
14.6572938707
 31
0.0
 11
3.747955598899999
 21
15.3261189602
 31
0.0
 11
3.788434635899999
 21
15.9911519313
 31
0.0
 11
3.844501075999999
 21
16.6509045917
 31
0.0
 11
3.9159550513
 21
17.3041800881
 31
0.0
  0
SPLINE
  5
7D8
330
1F
100
AcDbEntity
  8
0
  6
Continuous
 62
     7
100
AcDbSpline
210
0.0
220
0.0
230
1.0
 70
     8
 71
     3
 72
    58
 73
    54
 74
    52
 42
0.0000000001
 43
0.0000000001
 44
0.0000000001
 12
0.750738351041483
 22
-0.6605996732329765
 32
0.0
 13
0.6232167143207752
 23
-0.7820491845090162
 33
0.0
 40
0.0
 40
0.0
 40
0.0
 40
0.0
 40
0.0980006690515005
 40
0.1877219009670736
 40
0.2700243838969021
 40
0.3455665575225982
 40
0.4149673025529993
 40
0.4787735139415254
 40
0.5374791116786632
 40
0.5915282280302654
 40
0.6413216295628227
 40
0.6872213814847424
 40
0.7295551257864191
 40
0.768619818889709
 40
0.8046850083881253
 40
0.8379957080048168
 40
0.8687749306833179
 40
0.8972259226027439
 40
0.9235341411055097
 40
0.947869006335442
 40
0.9703854572954389
 40
0.9912253204175456
 40
1.010518525662219
 40
1.02838423710009
 40
1.044931845117866
 40
1.060261851887118
 40
1.074466668655784
 40
1.087631311026817
 40
1.09983399196017
 40
1.11114676031354
 40
1.12163605280951
 40
1.131363172577724
 40
1.140384628893429
 40
1.14875256302116
 40
1.1565151400509
 40
1.163716901516415
 40
1.170399005482053
 40
1.176599235836478
 40
1.182352626327892
 40
1.187691845900492
 40
1.192646317874235
 40
1.197242664943492
 40
1.201504900113143
 40
1.205455305220984
 40
1.209114248999779
 40
1.212499153267991
 40
1.215624818362201
 40
1.218501985512082
 40
1.22113361709495
 40
1.223523759487738
 40
1.225719893759604
 40
1.227755298620655
 40
1.229643444931698
 40
1.229643444931698
 40
1.229643444931698
 40
1.229643444931698
 10
2.9910660865
 20
18.1144503202
 30
0.0
 10
3.015590373394895
 20
18.09287058354932
 30
0.0
 10
3.062573226338272
 20
18.0515412591731
 30
0.0
 10
3.130175694474124
 20
17.99211593035229
 30
0.0
 10
3.192173083261514
 20
17.93765311408309
 30
0.0
 10
3.249097101854316
 20
17.88767825477661
 30
0.0
 10
3.301401261161871
 20
17.84178626233857
 30
0.0
 10
3.349498476234979
 20
17.7996089245031
 30
0.0
 10
3.393758344481639
 20
17.76081697569473
 30
0.0
 10
3.434514262276654
 20
17.72511374386002
 30
0.0
 10
3.47206693340492
 20
17.69223193571871
 30
0.0
 10
3.506688167747016
 20
17.66193020130255
 30
0.0
 10
3.538624012302648
 20
17.6339902941439
 30
0.0
 10
3.5680975419628
 20
17.6082145448892
 30
0.0
 10
3.595311304786977
 20
17.5844236502583
 30
0.0
 10
3.62044946995848
 20
17.56245473187924
 30
0.0
 10
3.643679719011379
 20
17.54215962948705
 30
0.0
 10
3.665154915543623
 20
17.5234033949927
 30
0.0
 10
3.685014582310287
 20
17.50606296194894
 30
0.0
 10
3.703386211160787
 20
17.49002596713364
 30
0.0
 10
3.720386422601185
 20
17.47518970871036
 30
0.0
 10
3.736121992646112
 20
17.4614602237906
 30
0.0
 10
3.750690774860044
 20
17.44875146157488
 30
0.0
 10
3.764182529810884
 20
17.43698454118552
 30
0.0
 10
3.776679672254745
 20
17.42608708283287
 30
0.0
 10
3.788257936558407
 20
17.41599261424704
 30
0.0
 10
3.798986967641572
 20
17.40664004228584
 30
0.0
 10
3.8089308399974
 20
17.39797319039201
 30
0.0
 10
3.818148537559165
 20
17.38994037166067
 30
0.0
 10
3.826694397463892
 20
17.38249399318538
 30
0.0
 10
3.834618526795966
 20
17.37559018746784
 30
0.0
 10
3.841967143777511
 20
17.36918850872933
 30
0.0
 10
3.848782887819759
 20
17.363251657478
 30
0.0
 10
3.855105108623528
 20
17.35774522502534
 30
0.0
 10
3.860970158184727
 20
17.35263743479978
 30
0.0
 10
3.866411637367797
 20
17.34789892577307
 30
0.0
 10
3.871460544604965
 20
17.34350261766145
 30
0.0
 10
3.876145495575721
 20
17.3394235198719
 30
0.0
 10
3.880492977732822
 20
17.33563850673635
 30
0.0
 10
3.884527381524102
 20
17.3321262881226
 30
0.0
 10
3.888270987250275
 20
17.32886741994945
 30
0.0
 10
3.89174390235906
 20
17.32584435654134
 30
0.0
 10
3.894964443889971
 20
17.32304112089304
 30
0.0
 10
3.897949352175972
 20
17.32044310029955
 30
0.0
 10
3.900713736547717
 20
17.31803715280822
 30
0.0
 10
3.903270747071495
 20
17.31581169003177
 30
0.0
 10
3.905631381339676
 20
17.31375751840505
 30
0.0
 10
3.907802120794814
 20
17.31186766391093
 30
0.0
 10
3.909789640276693
 20
17.31014061501612
 30
0.0
 10
3.911631040858669
 20
17.30859200851978
 30
0.0
 10
3.913272113499586
 20
17.30711471079763
 30
0.0
 10
3.914707975945711
 20
17.30566389021189
 30
0.0
 10
3.915562809853291
 20
17.30467229586093
 30
0.0
 10
3.9159550513
 20
17.3041800881
 30
0.0
 11
2.9910660865
 21
18.1144503202
 31
0.0
 11
3.0646493804
 21
18.049722969
 31
0.0
 11
3.132036348699999
 21
17.9904870343
 31
0.0
 11
3.193868969599999
 21
17.9361692132
 31
0.0
 11
3.250638027299999
 21
17.8863305326
 31
0.0
 11
3.302805217399999
 21
17.8405588417
 31
0.0
 11
3.3507786927
 21
17.7984901089
 31
0.0
 11
3.3949272648
 21
17.7597957839
 31
0.0
 11
3.435582727899999
 21
17.7241806144
 31
0.0
 11
3.473044623699999
 21
17.6913783401
 31
0.0
 11
3.507583695
 21
17.6611485571
 31
0.0
 11
3.539445056199999
 21
17.6332738451
 31
0.0
 11
3.5688509643
 21
17.6075572587
 31
0.0
 11
3.596003249399999
 21
17.5838201294
 31
0.0
 11
3.6210854479
 21
17.5619001379
 31
0.0
 11
3.644264682999999
 21
17.5416496167
 31
0.0
 11
3.665693323799999
 21
17.5229340538
 31
0.0
 11
3.685510455
 21
17.5056307688
 31
0.0
 11
3.7038431792
 21
17.4896277413
 31
0.0
 11
3.720807774399999
 21
17.4748225708
 31
0.0
 11
3.736510712199999
 21
17.4611215621
 31
0.0
 11
3.7510495631
 21
17.4484389132
 31
0.0
 11
3.7645138391
 21
17.4366959614
 31
0.0
 11
3.7769857332
 21
17.4258205217
 31
0.0
 11
3.788540779899999
 21
17.415746297
 31
0.0
 11
3.799248449899999
 21
17.406412347
 31
0.0
 11
3.8091726691
 21
17.3977626255
 31
0.0
 11
3.8183722612
 21
17.3897455857
 31
0.0
 11
3.826901424999999
 21
17.382313756
 31
0.0
 11
3.834810147499999
 21
17.3754233739
 31
0.0
 11
3.842144561699999
 21
17.3690340682
 31
0.0
 11
3.848947200199999
 21
17.3631086329
 31
0.0
 11
3.8552573143
 21
17.3576127452
 31
0.0
 11
3.861111167599999
 21
17.352514706
 31
0.0
 11
3.866542300499999
 21
17.3477852067
 31
0.0
 11
3.8715817094
 21
17.3433971694
 31
0.0
 11
3.876257853099999
 21
17.3393257401
 31
0.0
 11
3.8805971222
 21
17.3355478775
 31
0.0
 11
3.8846241287
 21
17.3320420988
 31
0.0
 11
3.888361040999999
 21
17.3287890573
 31
0.0
 11
3.891827918999999
 21
17.3257712496
 31
0.0
 11
3.895042857299999
 21
17.3229728893
 31
0.0
 11
3.898022647499999
 21
17.3203793298
 31
0.0
 11
3.9007826404
 21
17.3179771831
 31
0.0
 11
3.903335966
 21
17.3157549983
 31
0.0
 11
3.905693778499999
 21
17.3137030474
 31
0.0
 11
3.907864171599999
 21
17.3118142688
 31
0.0
 11
3.909855226199999
 21
17.310093459
 31
0.0
 11
3.911671464299999
 21
17.3085397345
 31
0.0
 11
3.913296899
 21
17.3070629245
 31
0.0
 11
3.9147248329
 21
17.3056124495
 31
0.0
 11
3.9159550513
 21
17.3041800881
 31
0.0
  0
LINE
  5
7D9
330
1F
100
AcDbEntity
  8
0
  6
Continuous
 62
     7
100
AcDbLine
 10
2.987760177
 20
18.1174711411
 30
0.0
 11
2.9910660865
 21
18.1144503202
 31
0.0
  0
SPLINE
  5
7DB
330
1F
100
AcDbEntity
  8
0
  6
Continuous
 62
     7
100
AcDbSpline
210
0.0
220
0.0
230
1.0
 70
     8
 71
     3
 72
    10
 73
     6
 74
     4
 42
0.0000000001
 43
0.0000000001
 44
0.0000000001
 12
0.7964628701941614
 22
0.6046874369474518
 32
0.0
 13
0.8665391532991527
 23
0.4991091021005203
 33
0.0
 40
0.0
 40
0.0
 40
0.0
 40
0.0
 40
0.0036381546399539
 40
0.0072200567600272
 40
0.0107499513983755
 40
0.0107499513983755
 40
0.0107499513983755
 40
0.0107499513983755
 10
2.9877575517
 20
10.1330075986
 30
0.0
 10
2.988723436728916
 20
10.13374091406815
 30
0.0
 10
2.990668826673435
 20
10.13515912251486
 30
0.0
 10
2.993649543648944
 20
10.13714968619601
 30
0.0
 10
2.995676952696283
 20
10.13838005288551
 30
0.0
 10
2.996696549999999
 20
10.1389673204
 30
0.0
 11
2.9877575517
 21
10.1330075986
 31
0.0
 11
2.990698346599999
 21
10.1351495357
 31
0.0
 11
2.993678035099999
 21
10.1371373685
 31
0.0
 11
2.996696549999999
 21
10.1389673204
 31
0.0
  0
SPLINE
  5
7DC
330
1F
100
AcDbEntity
  8
0
  6
Continuous
 62
     7
100
AcDbSpline
210
0.0
220
0.0
230
1.0
 70
     8
 71
     3
 72
    31
 73
    27
 74
    25
 42
0.0000000001
 43
0.0000000001
 44
0.0000000001
 12
0.8665393087640914
 22
0.4991088321865791
 32
0.0
 13
0.7654594211291152
 23
0.6434841681072503
 33
0.0
 40
0.0
 40
0.0
 40
0.0
 40
0.0
 40
0.0635806570576669
 40
0.1232248410413939
 40
0.2316205842451545
 40
0.3271547176024065
 40
0.4114558346556998
 40
0.5517984087979489
 40
0.6617671410111346
 40
0.7482199832131719
 40
0.8163663433630723
 40
0.8701971887465724
 40
0.9127926662453532
 40
0.9733160700477798
 40
0.9945768613188997
 40
1.011454249522656
 40
1.024867429990634
 40
1.030475841808689
 40
1.035444741844441
 40
1.039836517370907
 40
1.041827074864845
 40
1.043685247873956
 40
1.045415891330342
 40
1.047030190314715
 40
1.048542804010607
 40
1.049973327664528
 40
1.049973327664528
 40
1.049973327664528
 40
1.049973327664528
 10
2.996696985399999
 20
10.1389665644
 30
0.0
 10
3.015062031605839
 20
10.14954445356457
 30
0.0
 10
3.050656771354597
 20
10.17004239965698
 30
0.0
 10
3.117569043975331
 20
10.2085605416397
 30
0.0
 10
3.193722493164463
 20
10.25237474203901
 30
0.0
 10
3.277014427148988
 20
10.3002625642978
 30
0.0
 10
3.369553251844835
 20
10.35343203621346
 30
0.0
 10
3.466284623937694
 20
10.40896266685379
 30
0.0
 10
3.563663205590791
 20
10.46480650112408
 30
0.0
 10
3.640182144187287
 20
10.50864948249938
 30
0.0
 10
3.700475637543664
 20
10.54317055145208
 30
0.0
 10
3.748089270140133
 20
10.57041562546447
 30
0.0
 10
3.793503227096532
 20
10.59638862290034
 30
0.0
 10
3.82949667704227
 20
10.61696516792155
 30
0.0
 10
3.858052931104258
 20
10.63327798209992
 30
0.0
 10
3.872974031399369
 20
10.64180108602665
 30
0.0
 10
3.883361400482386
 20
10.64774209248219
 30
0.0
 10
3.890305288762268
 20
10.65170841539539
 30
0.0
 10
3.894640306008652
 20
10.6541791872057
 30
0.0
 10
3.897930940045003
 20
10.65604692702769
 30
0.0
 10
3.900318973291505
 20
10.65740427952117
 30
0.0
 10
3.90193448938385
 20
10.65832565373357
 30
0.0
 10
3.903439183974283
 20
10.65918818593313
 30
0.0
 10
3.904827706699412
 20
10.6600216216316
 30
0.0
 10
3.906096639219486
 20
10.66085795563489
 30
0.0
 10
3.906878395397319
 20
10.66145287442553
 30
0.0
 10
3.907243397999999
 20
10.6617597142
 30
0.0
 11
2.996696985399999
 21
10.1389665644
 31
0.0
 11
3.0517947576
 21
10.1706956591
 31
0.0
 11
3.103486152699999
 21
10.2004518073
 31
0.0
 11
3.197441437799999
 21
10.2545077186
 31
0.0
 11
3.2802628826
 21
10.302124721
 31
0.0
 11
3.353357918499999
 21
10.3441222693
 31
0.0
 11
3.475071123599999
 21
10.413993106
 31
0.0
 11
3.570466909899999
 21
10.468699285
 31
0.0
 11
3.645479310499999
 21
10.5116787415
 31
0.0
 11
3.704618359699999
 21
10.5455387365
 31
0.0
 11
3.751340955599999
 21
10.5722737126
 31
0.0
 11
3.7883162493
 21
10.5934208722
 31
0.0
 11
3.8408609978
 21
10.6234563814
 31
0.0
 11
3.859321707299999
 21
10.6340026343
 31
0.0
 11
3.873975856499999
 21
10.6423753366
 31
0.0
 11
3.8856205932
 21
10.6490321765
 31
0.0
 11
3.890490851
 21
10.6518133403
 31
0.0
 11
3.894808216199999
 21
10.6542730812
 31
0.0
 11
3.898626731799999
 21
10.6564425583
 31
0.0
 11
3.900357089599999
 21
10.6574265202
 31
0.0
 11
3.901971069
 21
10.6583473228
 31
0.0
 11
3.9034698363
 21
10.6592126686
 31
0.0
 11
3.904850592099999
 21
10.6600490146
 31
0.0
 11
3.906109536199999
 21
10.6608875013
 31
0.0
 11
3.907243397999999
 21
10.6617597142
 31
0.0
  0
SPLINE
  5
7DE
330
1F
100
AcDbEntity
  8
0
  6
Continuous
 62
     7
100
AcDbSpline
210
0.0
220
0.0
230
1.0
 70
     8
 71
     3
 72
    58
 73
    54
 74
    52
 42
0.0000000001
 43
0.0000000001
 44
0.0000000001
 12
0.7351975115207106
 22
-0.6778529479568225
 32
0.0
 13
0.836901812776245
 23
-0.5473530449096224
 33
0.0
 40
0.0
 40
0.0
 40
0.0
 40
0.0
 40
0.0977548915465414
 40
0.187250053213622
 40
0.2693444062421898
 40
0.3446950215790254
 40
0.4139194308057335
 40
0.4775632998819776
 40
0.5361194071413456
 40
0.5900308342663479
 40
0.6396973813445939
 40
0.6854802259327711
 40
0.7277061960472616
 40
0.7666715022817573
 40
0.8026450089041462
 40
0.8358711045142927
 40
0.8665722292770697
 40
0.8949511055147237
 40
0.9211927111181537
 40
0.9454660268230309
 40
0.9679255897145392
 40
0.9887128578546413
 40
1.007957423234254
 40
1.025778140748899
 40
1.042284116779168
 40
1.057575592746506
 40
1.071744740529786
 40
1.084876356048122
 40
1.097048450013432
 40
1.108332885665588
 40
1.118795928475645
 40
1.128498724329311
 40
1.137497637409272
 40
1.145844675397642
 40
1.153587880244592
 40
1.16077167996559
 40
1.167437127738414
 40
1.173621911175181
 40
1.179360975217301
 40
1.184686905960294
 40
1.18962905201899
 40
1.194213968907468
 40
1.198465608885021
 40
1.202406197491689
 40
1.206056052212877
 40
1.209432550663185
 40
1.212550456066975
 40
1.21542048236735
 40
1.218045018532666
 40
1.220427950852055
 40
1.22262156538369
 40
1.224661273704968
 40
1.226564174970188
 40
1.226564174970188
 40
1.226564174970188
 40
1.226564174970188
 10
3.163926609399999
 20
18.2914997211
 30
0.0
 10
3.187882993734664
 20
18.26941190729599
 30
0.0
 10
3.233764263628922
 20
18.22709463179041
 30
0.0
 10
3.299735738076704
 20
18.16619736501798
 30
0.0
 10
3.36019867213859
 20
18.11034285859009
 30
0.0
 10
3.415679820882754
 20
18.05905327976422
 30
0.0
 10
3.466628823300012
 20
18.01192119393629
 30
0.0
 10
3.513454380986448
 20
17.96857555348127
 30
0.0
 10
3.556521962357428
 20
17.92868420347376
 30
0.0
 10
3.596160857171994
 20
17.89194747765465
 30
0.0
 10
3.632667744341699
 20
17.85809505380303
 30
0.0
 10
3.666310507805711
 20
17.82688254593752
 30
0.0
 10
3.69733138849399
 20
17.79808869565145
 30
0.0
 10
3.725949788384166
 20
17.77151286855054
 30
0.0
 10
3.752364726113023
 20
17.74697286228201
 30
0.0
 10
3.776756990509086
 20
17.72430297938687
 30
0.0
 10
3.799291035962889
 20
17.70335233176577
 30
0.0
 10
3.820116653538764
 20
17.683983343108
 30
0.0
 10
3.839370447499498
 20
17.66607042379436
 30
0.0
 10
3.857177143275574
 20
17.64949879592559
 30
0.0
 10
3.873650744097163
 20
17.63416345356673
 30
0.0
 10
3.888895553959978
 20
17.61996824077125
 30
0.0
 10
3.903007095689097
 20
17.60682502457764
 30
0.0
 10
3.91607293444524
 20
17.59465295037789
 30
0.0
 10
3.928173419956926
 20
17.58337777110874
 30
0.0
 10
3.939382345109367
 20
17.57293124976158
 30
0.0
 10
3.949767532598245
 20
17.56325062892395
 30
0.0
 10
3.959391347595357
 20
17.55427816407884
 30
0.0
 10
3.968311172594422
 20
17.54596069340915
 30
0.0
 10
3.97657984490542
 20
17.53824923786409
 30
0.0
 10
3.984246067517403
 20
17.53109862768169
 30
0.0
 10
3.991354744659846
 20
17.52446719471306
 30
0.0
 10
3.997947288371816
 20
17.51831649450414
 30
0.0
 10
4.00406190116977
 20
17.51261104546984
 30
0.0
 10
4.009733864079541
 20
17.50731806701689
 30
0.0
 10
4.014995776927637
 20
17.5024072574316
 30
0.0
 10
4.019877706688061
 20
17.49785065962771
 30
0.0
 10
4.024407401196401
 20
17.49362246449022
 30
0.0
 10
4.028610537656395
 20
17.48969878079059
 30
0.0
 10
4.032510755488768
 20
17.48605760781527
 30
0.0
 10
4.036129644167003
 20
17.48267884695417
 30
0.0
 10
4.039486686059013
 20
17.47954435991735
 30
0.0
 10
4.042599621499642
 20
17.47663762164631
 30
0.0
 10
4.045484675051143
 20
17.47394353098365
 30
0.0
 10
4.048156444028608
 20
17.47144845361945
 30
0.0
 10
4.050627779230998
 20
17.46914053482782
 30
0.0
 10
4.0529089448244
 20
17.4670098225822
 30
0.0
 10
4.055007361706178
 20
17.46505069887142
 30
0.0
 10
4.056925141275621
 20
17.46325698030305
 30
0.0
 10
4.058652686784213
 20
17.4615903810297
 30
0.0
 10
4.060289028179408
 20
17.46011064937026
 30
0.0
 10
4.0618800438807
 20
17.45882330182843
 30
0.0
 10
4.062954177827201
 20
17.45806401256723
 30
0.0
 10
4.063485025
 20
17.4577168263
 30
0.0
 11
3.163926609399999
 21
18.2914997211
 31
0.0
 11
3.2357833612
 21
18.2252228319
 31
0.0
 11
3.301544478099999
 21
18.1645197886
 31
0.0
 11
3.361846368999999
 21
18.1088137319
 31
0.0
 11
3.4171762803
 21
18.057663794
 31
0.0
 11
3.467991685299999
 21
18.0106551411
 31
0.0
 11
3.514696641
 21
17.9674210205
 31
0.0
 11
3.557655819299999
 21
17.9276299826
 31
0.0
 11
3.5971969315
 21
17.8909838038
 31
0.0
 11
3.6336155086
 21
17.857213208
 31
0.0
 11
3.667178382899999
 21
17.8260747699
 31
0.0
 11
3.698126877199999
 21
17.7973480706
 31
0.0
 11
3.7266795894
 21
17.7708332122
 31
0.0
 11
3.7530348326
 21
17.7463486388
 31
0.0
 11
3.777372774999999
 21
17.7237292226
 31
0.0
 11
3.799857323399999
 21
17.7028245785
 31
0.0
 11
3.8206377846
 21
17.6834975754
 31
0.0
 11
3.839850334299999
 21
17.6656230181
 31
0.0
 11
3.8576193171
 21
17.6490864796
 31
0.0
 11
3.8740584017
 21
17.6337832622
 31
0.0
 11
3.889271594999999
 21
17.6196174842
 31
0.0
 11
3.903354143299999
 21
17.6065012679
 31
0.0
 11
3.9163933698
 21
17.5943539824
 31
0.0
 11
3.9284694079
 21
17.5831015805
 31
0.0
 11
3.939655855999999
 21
17.5726760054
 31
0.0
 11
3.950020367
 21
17.5630146566
 31
0.0
 11
3.9596251617
 21
17.5540599235
 31
0.0
 11
3.968527466599999
 21
17.5457587887
 31
0.0
 11
3.976779984799999
 21
17.5380623979
 31
0.0
 11
3.984431302299999
 21
17.5309256896
 31
0.0
 11
3.991526240899999
 21
17.5243070724
 31
0.0
 11
3.9981061086
 21
17.5181681981
 31
0.0
 11
4.004209012699999
 21
17.512473674
 31
0.0
 11
4.0098701482
 21
17.5071907992
 31
0.0
 11
4.0151220566
 21
17.5022893263
 31
0.0
 11
4.0199948025
 21
17.4977413002
 31
0.0
 11
4.024515981799999
 21
17.4935210533
 31
0.0
 11
4.0287111782
 21
17.4896047817
 31
0.0
 11
4.032604244999999
 21
17.4859702846
 31
0.0
 11
4.0362166636
 21
17.4825975647
 31
0.0
 11
4.039567869399999
 21
17.4794685261
 31
0.0
 11
4.0426753909
 21
17.4765668451
 31
0.0
 11
4.0455554915
 21
17.4738773732
 31
0.0
 11
4.048223036999999
 21
17.4713862609
 31
0.0
 11
4.050690742099999
 21
17.4690816626
 31
0.0
 11
4.0529694087
 21
17.4669535149
 31
0.0
 11
4.055066877799999
 21
17.4649945166
 31
0.0
 11
4.056979077
 21
17.463196828
 31
0.0
 11
4.0587073114
 21
17.4615562268
 31
0.0
 11
4.0603406885
 21
17.4600919782
 31
0.0
 11
4.061929402399999
 21
17.4588127604
 31
0.0
 11
4.063485025
 21
17.4577168263
 31
0.0
  0
SPLINE
  5
7DF
330
1F
100
AcDbEntity
  8
0
  6
Continuous
 62
     7
100
AcDbSpline
210
0.0
220
0.0
230
1.0
 70
     8
 71
     3
 72
    15
 73
    11
 74
     9
 42
0.0000000001
 43
0.0000000001
 44
0.0000000001
 12
0.8363319515054399
 22
-0.5482233731711033
 32
0.0
 13
0.9734918144459973
 23
-0.2287218555508858
 33
0.0
 40
0.0
 40
0.0
 40
0.0
 40
0.0
 40
0.0013740407259318
 40
0.0026846742110944
 40
0.0039524292241357
 40
0.0051916994304981
 40
0.0064115684186275
 40
0.007619842594151
 40
0.0088209383522341
 40
0.010017252662195
 40
0.010017252662195
 40
0.010017252662195
 40
0.010017252662195
 10
4.063485025
 20
17.4577168263
 30
0.0
 10
4.063868076387255
 20
17.45746573255278
 30
0.0
 10
4.064631223414125
 20
17.45699718946551
 30
0.0
 10
4.065791448609836
 20
17.45637174602955
 30
0.0
 10
4.066941517271048
 20
17.45582581458036
 30
0.0
 10
4.068087793433931
 20
17.4553458482341
 30
0.0
 10
4.069234797163225
 20
17.45492200733448
 30
0.0
 10
4.070385300074148
 20
17.45454715541392
 30
0.0
 10
4.071540894059761
 20
17.45421594494689
 30
0.0
 10
4.072316111370582
 20
17.45402124314293
 30
0.0
 10
4.072704312099999
 20
17.4539300354
 30
0.0
 11
4.063485025
 21
17.4577168263
 31
0.0
 11
4.064655778499999
 21
17.4569975738
 31
0.0
 11
4.0658091669
 21
17.4563751147
 31
0.0
 11
4.066954149299999
 21
17.4558308555
 31
0.0
 11
4.068096999899999
 21
17.4553516028
 31
0.0
 11
4.069241030499999
 21
17.4549281948
 31
0.0
 11
4.0703896861
 21
17.4545533391
 31
0.0
 11
4.0715441498
 21
17.454221911
 31
0.0
 11
4.072704312099999
 21
17.4539300354
 31
0.0
  0
SPLINE
  5
7E0
330
1F
100
AcDbEntity
  8
0
  6
Continuous
 62
     7
100
AcDbSpline
210
0.0
220
0.0
230
1.0
 70
     8
 71
     3
 72
    14
 73
    10
 74
     8
 42
0.0000000001
 43
0.0000000001
 44
0.0000000001
 12
0.9886308437276712
 22
0.1503630766854443
 32
0.0
 13
0.9999999999999991
 23
0.0000000422020259
 33
0.0
 40
0.0
 40
0.0
 40
0.0
 40
0.0
 40
0.7183486872718365
 40
1.441828463805157
 40
2.170165918918677
 40
2.90281764018219
 40
3.639194068271686
 40
4.378149204348377
 40
5.118237701364669
 40
5.118237701364669
 40
5.118237701364669
 40
5.118237701364669
 10
4.072704312099999
 20
17.4539300354
 30
0.0
 10
4.309431535029406
 20
17.48993440831705
 30
0.0
 10
4.785392761244699
 20
17.55694483852012
 30
0.0
 10
5.503806105819196
 20
17.64210398935681
 30
0.0
 10
6.228647933646259
 20
17.71210353413718
 30
0.0
 10
6.959116273727506
 20
17.76677298127797
 30
0.0
 10
7.694123881901531
 20
17.80595689039842
 30
0.0
 10
8.432274134193338
 20
17.82952767470296
 30
0.0
 10
8.925304808927903
 20
17.83477240278892
 30
0.0
 10
9.172000974599999
 20
17.8347724132
 30
0.0
 11
4.072704312099999
 21
17.4539300354
 31
0.0
 11
4.7840322411
 21
17.5541169304
 31
0.0
 11
5.5024775311
 21
17.6393187633
 31
0.0
 11
6.227439002099999
 21
17.7093638494
 31
0.0
 11
6.958045157299999
 21
17.7640739093
 31
0.0
 11
7.693376129399999
 21
17.8032989691
 31
0.0
 11
8.431954383
 21
17.826896775
 31
0.0
 11
9.172000974599999
 21
17.8347724132
 31
0.0
  0
SPLINE
  5
7E1
330
1F
100
AcDbEntity
  8
0
  6
Continuous
 62
     7
100
AcDbSpline
210
0.0
220
0.0
230
1.0
 70
     8
 71
     3
 72
    19
 73
    15
 74
    13
 42
0.0000000001
 43
0.0000000001
 44
0.0000000001
 12
-0.9999999999812125
 22
-0.0000061298380086
 32
0.0
 13
-0.5859744909384379
 23
-0.8103294983952135
 33
0.0
 40
0.0
 40
0.0
 40
0.0
 40
0.0
 40
0.0652756163655009
 40
0.1308741118689005
 40
0.1972816490305251
 40
0.2646234767418709
 40
0.3325261449505743
 40
0.3998062060679377
 40
0.466123169249009
 40
0.5316716111350855
 40
0.5964754816728933
 40
0.660803740253204
 40
0.7247502353576589
 40
0.7885363353291324
 40
0.7885363353291324
 40
0.7885363353291324
 40
0.7885363353291324
 10
9.172000974599999
 20
14.7997447909
 30
0.0
 10
9.150242435811907
 20
14.79974465752368
 30
0.0
 10
9.106596076489353
 20
14.79792768591137
 30
0.0
 10
9.04127550605019
 20
14.78973417212841
 30
0.0
 10
8.976180552676639
 20
14.77600679967153
 30
0.0
 10
8.911711567635441
 20
14.75671350728018
 30
0.0
 10
8.848779870202557
 20
14.73207159838518
 30
0.0
 10
8.788358807186543
 20
14.70257128165536
 30
0.0
 10
8.731129232751442
 20
14.66880420096992
 30
0.0
 10
8.677344957443219
 20
14.63121124990825
 30
0.0
 10
8.627066376439524
 20
14.59008837834327
 30
0.0
 10
8.580377939312722
 20
14.5457031594324
 30
0.0
 10
8.537328155063292
 20
14.49824380992472
 30
0.0
 10
8.511095423253244
 20
14.46464951259816
 30
0.0
 10
8.498636414099999
 20
14.4474202598
 30
0.0
 11
9.172000974599999
 21
14.7997447909
 31
0.0
 11
9.106781752999999
 21
14.7970320016
 31
0.0
 11
9.041692147899999
 21
14.7888768854
 31
0.0
 11
8.976711011
 21
14.7751870045
 31
0.0
 11
8.912191578699999
 21
14.755895436
 31
0.0
 11
8.848957471
 21
14.7311523567
 31
0.0
 11
8.7884929076
 21
14.7016456931
 31
0.0
 11
8.731371967299999
 21
14.6679538872
 31
0.0
 11
8.677642803899999
 21
14.6304069135
 31
0.0
 11
8.6274785659
 21
14.5893814231
 31
0.0
 11
8.58085546
 21
14.5450597484
 31
0.0
 11
8.5378932329
 21
14.4976951912
 31
0.0
 11
8.498636414099999
 21
14.4474202598
 31
0.0
  0
SPLINE
  5
7E2
330
1F
100
AcDbEntity
  8
0
  6
Continuous
 62
     7
100
AcDbSpline
210
0.0
220
0.0
230
1.0
 70
     8
 71
     3
 72
     9
 73
     5
 74
     3
 42
0.0000000001
 43
0.0000000001
 44
0.0000000001
 12
-0.5859695175055678
 22
-0.8103330948161332
 32
0.0
 13
-0.5622561263596911
 23
-0.8269631481335762
 33
0.0
 40
0.0
 40
0.0
 40
0.0
 40
0.0
 40
0.0233757557246044
 40
0.0467499004592812
 40
0.0467499004592812
 40
0.0467499004592812
 40
0.0467499004592812
 10
8.498636414099999
 20
14.4474202598
 30
0.0
 10
8.494070587332242
 20
14.44110621030667
 30
0.0
 10
8.485030996560158
 20
14.42841194992296
 30
0.0
 10
8.476176117625163
 20
14.41558816933824
 30
0.0
 10
8.4717953656
 20
14.4091449839
 30
0.0
 11
8.498636414099999
 21
14.4474202598
 31
0.0
 11
8.4850768662
 21
14.4283791302
 31
0.0
 11
8.4717953656
 21
14.4091449839
 31
0.0
  0
SPLINE
  5
7E3
330
1F
100
AcDbEntity
  8
0
  6
Continuous
 62
     7
100
AcDbSpline
210
0.0
220
0.0
230
1.0
 70
     8
 71
     3
 72
    23
 73
    19
 74
    17
 42
0.0000000001
 43
0.0000000001
 44
0.0000000001
 12
-0.5622528418367009
 22
-0.8269653812866375
 32
0.0
 13
0.5603912374911393
 23
-0.8282280247269767
 33
0.0
 40
0.0
 40
0.0
 40
0.0
 40
0.0
 40
0.0610729350924045
 40
0.1223971848332224
 40
0.1839588850247252
 40
0.2457055864890583
 40
0.3076497943461384
 40
0.3697030809806264
 40
0.431837383269132
 40
0.4939926470010713
 40
0.5561480117219239
 40
0.6182878450275817
 40
0.6803432043469916
 40
0.7422863738716617
 40
0.8040276771033624
 40
0.8655798838727108
 40
0.9268959689567992
 40
0.9879599491463764
 40
0.9879599491463764
 40
0.9879599491463764
 40
0.9879599491463764
 10
8.4717953656
 20
14.4091449839
 30
0.0
 10
8.460349221828328
 20
14.392309916215
 30
0.0
 10
8.438627347949742
 20
14.35772381906405
 30
0.0
 10
8.409867084905204
 20
14.30350790404836
 30
0.0
 10
8.385078314256009
 20
14.24711469181083
 30
0.0
 10
8.364467529704585
 20
14.18884474056634
 30
0.0
 10
8.348218057488534
 20
14.12904021162234
 30
0.0
 10
8.336480913438002
 20
14.06805679165872
 30
0.0
 10
8.329367651311528
 20
14.00629150538768
 30
0.0
 10
8.326945653055783
 20
13.94413088837253
 30
0.0
 10
8.329234784829527
 20
13.88196339467657
 30
0.0
 10
8.336216168957257
 20
13.82018047447848
 30
0.0
 10
8.347822978307789
 20
13.75916989696501
 30
0.0
 10
8.363943190111513
 20
13.69933192648786
 30
0.0
 10
8.384425622904627
 20
13.6410224006106
 30
0.0
 10
8.409087502705832
 20
13.58458201781904
 30
0.0
 10
8.437723313921303
 20
13.53031034153909
 30
0.0
 10
8.459364619158476
 20
13.49568053899812
 30
0.0
 10
8.4707711923
 20
13.4788222391
 30
0.0
 11
8.4717953656
 21
14.4091449839
 31
0.0
 11
8.439315849199999
 21
14.3574247324
 31
0.0
 11
8.4105799429
 21
14.3032499108
 31
0.0
 11
8.3858101182
 21
14.2468912494
 31
0.0
 11
8.3652223352
 21
14.1886778632
 31
0.0
 11
8.348983422799999
 21
14.1289000863
 31
0.0
 11
8.337257624599999
 21
14.0679647432
 31
0.0
 11
8.3301506699
 21
14.0062382277
 31
0.0
 11
8.3277309186
 21
13.9441300832
 31
0.0
 11
8.3300178048
 21
13.8820168035
 31
0.0
 11
8.336993255199999
 21
13.8202697228
 31
0.0
 11
8.348588771199999
 21
13.759307344
 31
0.0
 11
8.3646985772
 21
13.6994957197
 31
0.0
 11
8.3851581093
 21
13.6412428565
 31
0.0
 11
8.4098004231
 21
13.5848386853
 31
0.0
 11
8.438412320799999
 21
13.5306074987
 31
0.0
 11
8.4707711923
 21
13.4788222391
 31
0.0
  0
SPLINE
  5
7E4
330
1F
100
AcDbEntity
  8
0
  6
Continuous
 62
     7
100
AcDbSpline
210
0.0
220
0.0
230
1.0
 70
     8
 71
     3
 72
     9
 73
     5
 74
     3
 42
0.0000000001
 43
0.0000000001
 44
0.0000000001
 12
0.5603953184714162
 22
-0.8282252634611671
 32
0.0
 13
0.5840690191307694
 23
-0.8117039983218148
 33
0.0
 40
0.0
 40
0.0
 40
0.0
 40
0.0
 40
0.0233125282162438
 40
0.0466229805498085
 40
0.0466229805498085
 40
0.0466229805498085
 40
0.0466229805498085
 10
8.4707711923
 20
13.4788222391
 30
0.0
 10
8.475125936191373
 20
13.47238623082538
 30
0.0
 10
8.483927675542304
 20
13.4595772249338
 30
0.0
 10
8.49291337235668
 20
13.44689658195395
 30
0.0
 10
8.4974516767
 20
13.4405895195
 30
0.0
 11
8.4707711923
 21
13.4788222391
 31
0.0
 11
8.483974060899999
 21
13.4596087482
 31
0.0
 11
8.4974516767
 21
13.4405895195
 31
0.0
  0
SPLINE
  5
7E5
330
1F
100
AcDbEntity
  8
0
  6
Continuous
 62
     7
100
AcDbSpline
210
0.0
220
0.0
230
1.0
 70
     8
 71
     3
 72
    19
 73
    15
 74
    13
 42
0.0000000001
 43
0.0000000001
 44
0.0000000001
 12
0.5840745678285636
 22
-0.8117000056768983
 32
0.0
 13
0.9999999999823403
 23
-0.0000059430032194
 33
0.0
 40
0.0
 40
0.0
 40
0.0
 40
0.0
 40
0.0639459868556477
 40
0.1280558980611604
 40
0.192552834595513
 40
0.2575226260284983
 40
0.3232418040485286
 40
0.389726685903232
 40
0.4571595820693158
 40
0.5252275733537203
 40
0.5927615427232153
 40
0.6593494349952281
 40
0.7251037451830561
 40
0.7905598947726047
 40
0.7905598947726047
 40
0.7905598947726047
 40
0.7905598947726047
 10
8.4974516767
 20
13.4405895195
 30
0.0
 10
8.509901418245695
 20
13.42328786686875
 30
0.0
 10
8.536124955752336
 20
13.38954934979888
 30
0.0
 10
8.579187246577747
 20
13.34187954116099
 30
0.0
 10
8.625913258087388
 20
13.29729239499717
 30
0.0
 10
8.676253412254347
 20
13.2559781677498
 30
0.0
 10
8.730119741179599
 20
13.21820831848635
 30
0.0
 10
8.787446623652995
 20
13.18428292608394
 30
0.0
 10
8.847980215080081
 20
13.15464282746437
 30
0.0
 10
8.911047107893226
 20
13.12987829688607
 30
0.0
 10
8.975673814856133
 20
13.11048462860747
 30
0.0
 10
9.040934322174864
 20
13.09668592067265
 30
0.0
 10
9.10642360166492
 20
13.0884494381664
 30
0.0
 10
9.150182258070534
 20
13.0866227320687
 30
0.0
 10
9.172000974599999
 20
13.0866226024
 30
0.0
 11
8.4974516767
 21
13.4405895195
 31
0.0
 11
8.5366935259
 21
13.3901002483
 31
0.0
 11
8.5796677533
 21
13.3425261325
 31
0.0
 11
8.6263301194
 21
13.2980011012
 31
0.0
 11
8.676553768299999
 21
13.2567863115
 31
0.0
 11
8.730366738
 21
13.2190613244
 31
0.0
 11
8.787588196099999
 21
13.1852095261
 31
0.0
 11
8.8481566303
 21
13.155567322
 31
0.0
 11
8.9115209348
 21
13.1307033651
 31
0.0
 11
8.9762098595
 21
13.1113080038
 31
0.0
 11
9.041360153099999
 21
13.0975462219
 31
0.0
 11
9.106601688799999
 21
13.0893504103
 31
0.0
 11
9.172000974599999
 21
13.0866226024
 31
0.0
  0
LINE
  5
CFB
330
1F
100
AcDbEntity
  8
0
370
     0
100
AcDbLine
 10
8.485077329178956
 20
14.42837979042162
 30
0.0
 11
6.555675965348776
 21
15.65733605707938
 31
0.0
  0
LINE
  5
CFC
330
1F
100
AcDbEntity
  8
0
370
     0
100
AcDbLine
 10
9.858924620121047
 20
14.42837979042162
 30
0.0
 11
11.78832598393194
 21
15.65733605713522
 31
0.0
  0
LINE
  5
CFD
330
1F
100
AcDbEntity
  8
0
370
     0
100
AcDbLine
 10
9.860028481895936
 20
13.45960959868812
 30
0.0
 11
11.79494986366121
 21
12.23091221868308
 31
0.0
  0
LINE
  5
CFE
330
1F
100
AcDbEntity
  8
0
370
     0
100
AcDbLine
 10
8.483973467387812
 20
13.4596095987114
 30
0.0
 11
6.549052085602301
 21
12.23091221868905
 31
0.0
  0
ENDSEC
  0
SECTION
  2
OBJECTS
  0
DICTIONARY
  5
C
330
0
100
AcDbDictionary
281
     1
  3
ACAD_COLOR
350
C3A
  3
ACAD_GROUP
350
D
  3
ACAD_LAYOUT
350
1A
  3
ACAD_MATERIAL
350
C39
  3
ACAD_MLINESTYLE
350
17
  3
ACAD_PLOTSETTINGS
350
19
  3
ACAD_PLOTSTYLENAME
350
E
  3
ACAD_TABLESTYLE
350
C3B
  3
AcDbVariableDictionary
350
D04
  3
AcmDictionary
350
C9A
  3
AMG
350
C40
  3
AMGSNAPSETTINGS
350
CED
  3
ASE_INDEX_DICTIONARY
350
D00
  0
DICTIONARY
  5
C3A
102
{ACAD_REACTORS
330
C
102
}
330
C
100
AcDbDictionary
281
     1
  0
DICTIONARY
  5
D
102
{ACAD_REACTORS
330
C
102
}
330
C
100
AcDbDictionary
281
     1
  0
DICTIONARY
  5
1A
102
{ACAD_REACTORS
330
C
102
}
330
C
100
AcDbDictionary
281
     1
  3
Layout1
350
1E
  3
Model
350
22
  0
DICTIONARY
  5
C39
102
{ACAD_REACTORS
330
C
102
}
330
C
100
AcDbDictionary
281
     1
  0
DICTIONARY
  5
17
102
{ACAD_REACTORS
330
C
102
}
330
C
100
AcDbDictionary
281
     1
  3
Standard
350
18
  0
DICTIONARY
  5
19
102
{ACAD_REACTORS
330
C
102
}
330
C
100
AcDbDictionary
281
     1
  0
ACDBDICTIONARYWDFLT
  5
E
102
{ACAD_REACTORS
330
C
102
}
330
C
100
AcDbDictionary
281
     1
  3
Normal
350
F
100
AcDbDictionaryWithDefault
340
F
  0
DICTIONARY
  5
C3B
102
{ACAD_REACTORS
330
C
102
}
330
C
100
AcDbDictionary
281
     1
  3
Standard
350
C3C
  0
DICTIONARY
  5
D04
102
{ACAD_REACTORS
330
C
102
}
330
C
100
AcDbDictionary
281
     1
  3
CTABLESTYLE
350
D05
  0
DICTIONARY
  5
C9A
102
{ACAD_REACTORS
330
C
102
}
330
C
100
AcDbDictionary
281
     1
  3
AcmStdDictionary
350
CA5
  3
AMDTSECTSYM_ARROWCOLOR
350
CC4
  0
DICTIONARY
  5
C40
102
{ACAD_REACTORS
330
C
102
}
330
C
100
AcDbDictionary
281
     1
  0
DICTIONARY
  5
CED
102
{ACAD_REACTORS
330
C
102
}
330
C
100
AcDbDictionary
281
     1
  0
DICTIONARY
  5
D00
102
{ACAD_REACTORS
330
C
102
}
330
C
100
AcDbDictionary
281
     1
  3
ASEBlockHierarchyIndexRecord
350
D02
1001
DCO15
1040
1629192527.641
  0
LAYOUT
  5
1E
102
{ACAD_REACTORS
330
1A
102
}
330
1A
100
AcDbPlotSettings
  1

  2

  4

  6

 40
0.0
 41
0.0
 42
0.0
 43
0.0
 44
0.0
 45
0.0
 46
0.0
 47
0.0
 48
0.0
 49
0.0
140
0.0
141
0.0
142
1.0
143
1.0
 70
     0
 72
     0
 73
     0
 74
     0
  7

 75
     0
147
1.0
 76
     0
 77
     2
 78
   300
148
0.0
149
0.0
100
AcDbLayout
  1
Layout1
 70
     0
 71
     1
 10
0.0
 20
0.0
 11
12.0
 21
9.0
 12
0.0
 22
0.0
 32
0.0
 14
1.000000000000000E+20
 24
1.000000000000000E+20
 34
1.000000000000000E+20
 15
-1.000000000000000E+20
 25
-1.000000000000000E+20
 35
-1.000000000000000E+20
146
0.0
 13
0.0
 23
0.0
 33
0.0
 16
1.0
 26
0.0
 36
0.0
 17
0.0
 27
1.0
 37
0.0
 76
     0
330
1B
  0
LAYOUT
  5
22
102
{ACAD_REACTORS
330
1A
102
}
330
1A
100
AcDbPlotSettings
  1

  2

  4

  6

 40
0.0
 41
0.0
 42
0.0
 43
0.0
 44
0.0
 45
0.0
 46
0.0
 47
0.0
 48
0.0
 49
0.0
140
0.0
141
0.0
142
1.0
143
1.0
 70
     0
 72
     0
 73
     0
 74
     0
  7

 75
     0
147
1.0
 76
     0
 77
     2
 78
   300
148
0.0
149
0.0
100
AcDbLayout
  1
Model
 70
     0
 71
     0
 10
0.0
 20
0.0
 11
0.0
 21
0.0
 12
0.0
 22
0.0
 32
0.0
 14
0.0
 24
0.0
 34
0.0
 15
0.0
 25
0.0
 35
0.0
146
0.0
 13
0.0
 23
0.0
 33
0.0
 16
0.0
 26
0.0
 36
0.0
 17
0.0
 27
0.0
 37
0.0
 76
     0
330
1F
  0
MLINESTYLE
  5
18
102
{ACAD_REACTORS
330
17
102
}
330
17
100
AcDbMlineStyle
  2
STANDARD
 70
     0
  3

 62
   256
 51
90.0
 52
90.0
 71
     2
 49
0.5
 62
   256
  6
BYLAYER
 49
-0.5
 62
   256
  6
BYLAYER
  0
ACDBPLACEHOLDER
  5
F
102
{ACAD_REACTORS
330
E
102
}
330
0
  0
TABLESTYLE
  5
C3C
102
{ACAD_REACTORS
330
C3B
102
}
330
C3B
100
AcDbTableStyle
  3
Standard
 70
     0
 71
     0
 40
0.06
 41
0.06
280
     0
281
     0
  7
STANDARD
140
0.18
170
     2
 62
     0
 63
     7
283
     0
274
    -2
284
     1
 64
     0
275
    -2
285
     1
 65
     0
276
    -2
286
     1
 66
     0
277
    -2
287
     1
 67
     0
278
    -2
288
     1
 68
     0
279
    -2
289
     1
 69
     0
  7
STANDARD
140
0.25
170
     5
 62
     0
 63
     7
283
     0
274
    -2
284
     1
 64
     0
275
    -2
285
     1
 65
     0
276
    -2
286
     1
 66
     0
277
    -2
287
     1
 67
     0
278
    -2
288
     1
 68
     0
279
    -2
289
     1
 69
     0
  7
STANDARD
140
0.18
170
     5
 62
     0
 63
     7
283
     0
274
    -2
284
     1
 64
     0
275
    -2
285
     1
 65
     0
276
    -2
286
     1
 66
     0
277
    -2
287
     1
 67
     0
278
    -2
288
     1
 68
     0
279
    -2
289
     1
 69
     0
  0
DICTIONARYVAR
  5
D05
102
{ACAD_REACTORS
330
D04
102
}
330
D04
100
DictionaryVariables
280
     0
  1
STANDARD
  0
DICTIONARY
  5
CA5
102
{ACAD_REACTORS
330
C9A
102
}
330
C9A
100
AcDbDictionary
281
     1
  0
XRECORD
  5
CC4
102
{ACAD_REACTORS
330
C9A
102
}
330
C9A
100
AcDbXrecord
280
     1
 90
-1023410169
  0
XRECORD
  5
D02
102
{ACAD_REACTORS
330
D00
102
}
330
D00
100
AcDbXrecord
280
     1
330
2BC
330
2BD
330
2CD
330
2CE
330
2D9
330
2DA
330
2E5
330
2E6
330
2F1
330
2F2
330
2FF
330
300
330
30B
330
30C
330
319
330
31A
330
325
330
326
330
333
330
334
330
33F
330
340
330
34E
330
34F
330
35A
330
35B
330
368
330
369
330
374
330
375
330
389
330
38A
330
396
330
397
  0
ENDSEC
  0
EOF
