  0
SECTION
  2
HEADER
  9
$ACADVER
  1
AC1018
  9
$ACADMAINTVER
 70
    76
  9
$DWGCODEPAGE
  3
ANSI_936
  9
$INSBASE
 10
0.0
 20
0.0
 30
0.0
  9
$EXTMIN
 10
1.817698702899999
 20
-8.5919014135
 30
0.0
  9
$EXTMAX
 10
16.5263032464
 20
-2.9669014135
 30
0.0
  9
$LIMMIN
 10
0.0
 20
0.0
  9
$LIMMAX
 10
34.0
 20
22.0
  9
$ORTHOMODE
 70
     0
  9
$REGENMODE
 70
     1
  9
$FILLMODE
 70
     1
  9
$QTEXTMODE
 70
     0
  9
$MIRRTEXT
 70
     1
  9
$LTSCALE
 40
1.87
  9
$ATTMODE
 70
     1
  9
$TEXTSIZE
 40
0.2
  9
$TRACEWID
 40
0.05
  9
$TEXTSTYLE
  7
STANDARD
  9
$CLAYER
  8
0
  9
$CELTYPE
  6
ByLayer
  9
$CECOLOR
 62
   256
  9
$CELTSCALE
 40
1.0
  9
$DISPSILH
 70
     0
  9
$DIMSCALE
 40
1.0
  9
$DIMASZ
 40
0.1875
  9
$DIMEXO
 40
0.2125
  9
$DIMDLI
 40
1.292
  9
$DIMRND
 40
0.0
  9
$DIMDLE
 40
0.0
  9
$DIMEXE
 40
0.612
  9
$DIMTP
 40
0.01
  9
$DIMTM
 40
0.01
  9
$DIMTXT
 40
0.15625
  9
$DIMCEN
 40
0.306
  9
$DIMTSZ
 40
0.0
  9
$DIMTOL
 70
     1
  9
$DIMLIM
 70
     0
  9
$DIMTIH
 70
     1
  9
$DIMTOH
 70
     1
  9
$DIMSE1
 70
     0
  9
$DIMSE2
 70
     0
  9
$DIMTAD
 70
     0
  9
$DIMZIN
 70
     0
  9
$DIMBLK
  1
_FILLED
  9
$DIMASO
 70
     1
  9
$DIMSHO
 70
     1
  9
$DIMPOST
  1

  9
$DIMAPOST
  1

  9
$DIMALT
 70
     0
  9
$DIMALTD
 70
     2
  9
$DIMALTF
 40
25.4
  9
$DIMLFAC
 40
1.0
  9
$DIMTOFL
 70
     0
  9
$DIMTVP
 40
0.0
  9
$DIMTIX
 70
     0
  9
$DIMSOXD
 70
     0
  9
$DIMSAH
 70
     0
  9
$DIMBLK1
  1

  9
$DIMBLK2
  1

  9
$DIMSTYLE
  2
STANDARD
  9
$DIMCLRD
 70
     0
  9
$DIMCLRE
 70
     0
  9
$DIMCLRT
 70
     0
  9
$DIMTFAC
 40
1.0
  9
$DIMGAP
 40
0.09
  9
$DIMJUST
 70
     0
  9
$DIMSD1
 70
     0
  9
$DIMSD2
 70
     0
  9
$DIMTOLJ
 70
     1
  9
$DIMTZIN
 70
     0
  9
$DIMALTZ
 70
     0
  9
$DIMALTTZ
 70
     0
  9
$DIMUPT
 70
     0
  9
$DIMDEC
 70
     4
  9
$DIMTDEC
 70
     4
  9
$DIMALTU
 70
     2
  9
$DIMALTTD
 70
     2
  9
$DIMTXSTY
  7
STANDARD
  9
$DIMAUNIT
 70
     0
  9
$DIMADEC
 70
     0
  9
$DIMALTRND
 40
0.0
  9
$DIMAZIN
 70
     0
  9
$DIMDSEP
 70
     0
  9
$DIMATFIT
 70
     3
  9
$DIMFRAC
 70
     0
  9
$DIMLDRBLK
  1

  9
$DIMLUNIT
 70
     2
  9
$DIMLWD
 70
     0
  9
$DIMLWE
 70
     0
  9
$DIMTMOVE
 70
     0
  9
$LUNITS
 70
     2
  9
$LUPREC
 70
     4
  9
$SKETCHINC
 40
0.1
  9
$FILLETRAD
 40
0.0
  9
$AUNITS
 70
     0
  9
$AUPREC
 70
     0
  9
$MENU
  1
acad
  9
$ELEVATION
 40
0.0
  9
$PELEVATION
 40
0.0
  9
$THICKNESS
 40
0.0
  9
$LIMCHECK
 70
     0
  9
$CHAMFERA
 40
0.0
  9
$CHAMFERB
 40
0.0
  9
$CHAMFERC
 40
0.0
  9
$CHAMFERD
 40
0.0
  9
$SKPOLY
 70
     0
  9
$TDCREATE
 40
2454659.593092396
  9
$TDUCREATE
 40
2454659.259759063
  9
$TDUPDATE
 40
2454659.604906285
  9
$TDUUPDATE
 40
2454659.271572952
  9
$TDINDWG
 40
0.0080199769
  9
$TDUSRTIMER
 40
0.0080199769
  9
$USRTIMER
 70
     1
  9
$ANGBASE
 50
0.0
  9
$ANGDIR
 70
     0
  9
$PDMODE
 70
     3
  9
$PDSIZE
 40
0.3125
  9
$PLINEWID
 40
0.0
  9
$SPLFRAME
 70
     0
  9
$SPLINETYPE
 70
     6
  9
$SPLINESEGS
 70
     8
  9
$HANDSEED
  5
D3E
  9
$SURFTAB1
 70
     6
  9
$SURFTAB2
 70
     6
  9
$SURFTYPE
 70
     6
  9
$SURFU
 70
     6
  9
$SURFV
 70
     6
  9
$UCSBASE
  2

  9
$UCSNAME
  2

  9
$UCSORG
 10
0.0
 20
0.0
 30
0.0
  9
$UCSXDIR
 10
1.0
 20
0.0
 30
0.0
  9
$UCSYDIR
 10
0.0
 20
1.0
 30
0.0
  9
$UCSORTHOREF
  2

  9
$UCSORTHOVIEW
 70
     0
  9
$UCSORGTOP
 10
0.0
 20
0.0
 30
0.0
  9
$UCSORGBOTTOM
 10
0.0
 20
0.0
 30
0.0
  9
$UCSORGLEFT
 10
0.0
 20
0.0
 30
0.0
  9
$UCSORGRIGHT
 10
0.0
 20
0.0
 30
0.0
  9
$UCSORGFRONT
 10
0.0
 20
0.0
 30
0.0
  9
$UCSORGBACK
 10
0.0
 20
0.0
 30
0.0
  9
$PUCSBASE
  2

  9
$PUCSNAME
  2

  9
$PUCSORG
 10
0.0
 20
0.0
 30
0.0
  9
$PUCSXDIR
 10
1.0
 20
0.0
 30
0.0
  9
$PUCSYDIR
 10
0.0
 20
1.0
 30
0.0
  9
$PUCSORTHOREF
  2

  9
$PUCSORTHOVIEW
 70
     0
  9
$PUCSORGTOP
 10
0.0
 20
0.0
 30
0.0
  9
$PUCSORGBOTTOM
 10
0.0
 20
0.0
 30
0.0
  9
$PUCSORGLEFT
 10
0.0
 20
0.0
 30
0.0
  9
$PUCSORGRIGHT
 10
0.0
 20
0.0
 30
0.0
  9
$PUCSORGFRONT
 10
0.0
 20
0.0
 30
0.0
  9
$PUCSORGBACK
 10
0.0
 20
0.0
 30
0.0
  9
$USERI1
 70
     0
  9
$USERI2
 70
     0
  9
$USERI3
 70
     0
  9
$USERI4
 70
     0
  9
$USERI5
 70
     0
  9
$USERR1
 40
0.0
  9
$USERR2
 40
0.0
  9
$USERR3
 40
0.0
  9
$USERR4
 40
0.0
  9
$USERR5
 40
0.0
  9
$WORLDVIEW
 70
     1
  9
$SHADEDGE
 70
     3
  9
$SHADEDIF
 70
    70
  9
$TILEMODE
 70
     1
  9
$MAXACTVP
 70
    16
  9
$PINSBASE
 10
0.0
 20
0.0
 30
0.0
  9
$PLIMCHECK
 70
     0
  9
$PEXTMIN
 10
1.000000000000000E+20
 20
1.000000000000000E+20
 30
1.000000000000000E+20
  9
$PEXTMAX
 10
-1.000000000000000E+20
 20
-1.000000000000000E+20
 30
-1.000000000000000E+20
  9
$PLIMMIN
 10
0.0
 20
0.0
  9
$PLIMMAX
 10
12.0
 20
9.0
  9
$UNITMODE
 70
     0
  9
$VISRETAIN
 70
     0
  9
$PLINEGEN
 70
     1
  9
$PSLTSCALE
 70
     0
  9
$TREEDEPTH
 70
  3020
  9
$CMLSTYLE
  2
Standard
  9
$CMLJUST
 70
     0
  9
$CMLSCALE
 40
1.0
  9
$PROXYGRAPHICS
 70
     0
  9
$MEASUREMENT
 70
     0
  9
$CELWEIGHT
370
     0
  9
$ENDCAPS
280
     0
  9
$JOINSTYLE
280
     0
  9
$LWDISPLAY
290
     0
  9
$INSUNITS
 70
     1
  9
$HYPERLINKBASE
  1

  9
$STYLESHEET
  1

  9
$XEDIT
290
     1
  9
$CEPSNTYPE
380
     0
  9
$PSTYLEMODE
290
     1
  9
$FINGERPRINTGUID
  2

  9
$VERSIONGUID
  2
{FEBCD90F-DBDD-4A20-BDD3-FFA4FF00A82B}
  9
$EXTNAMES
290
     1
  9
$PSVPSCALE
 40
0.0
  9
$OLESTARTUP
290
     0
  9
$SORTENTS
280
   127
  9
$INDEXCTL
280
     0
  9
$HIDETEXT
280
     0
  9
$XCLIPFRAME
290
     0
  9
$HALOGAP
280
     0
  9
$OBSCOLOR
 70
   257
  9
$OBSLTYPE
280
     0
  9
$INTERSECTIONDISPLAY
280
     0
  9
$INTERSECTIONCOLOR
 70
   257
  9
$DIMASSOC
280
     1
  9
$PROJECTNAME
  1

  0
ENDSEC
  0
SECTION
  2
CLASSES
  0
CLASS
  1
ACDBDICTIONARYWDFLT
  2
AcDbDictionaryWithDefault
  3
ObjectDBX Classes
 90
        0
 91
        1
280
     0
281
     0
  0
CLASS
  1
IMAGE
  2
AcDbRasterImage
  3
ISM
 90
      127
 91
        0
280
     0
281
     1
  0
CLASS
  1
DICTIONARYVAR
  2
AcDbDictionaryVar
  3
ObjectDBX Classes
 90
        0
 91
        1
280
     0
281
     0
  0
CLASS
  1
RASTERVARIABLES
  2
AcDbRasterVariables
  3
ISM
 90
        0
 91
        0
280
     0
281
     0
  0
CLASS
  1
IMAGEDEF
  2
AcDbRasterImageDef
  3
ISM
 90
        0
 91
        0
280
     0
281
     0
  0
CLASS
  1
IMAGEDEF_REACTOR
  2
AcDbRasterImageDefReactor
  3
ISM
 90
        1
 91
        0
280
     0
281
     0
  0
CLASS
  1
IDBUFFER
  2
AcDbIdBuffer
  3
ObjectDBX Classes
 90
        0
 91
        0
280
     0
281
     0
  0
CLASS
  1
SPATIAL_FILTER
  2
AcDbSpatialFilter
  3
ObjectDBX Classes
 90
        0
 91
        0
280
     0
281
     0
  0
CLASS
  1
SORTENTSTABLE
  2
AcDbSortentsTable
  3
ObjectDBX Classes
 90
        0
 91
        0
280
     0
281
     0
  0
CLASS
  1
LAYER_INDEX
  2
AcDbLayerIndex
  3
ObjectDBX Classes
 90
        0
 91
        0
280
     0
281
     0
  0
CLASS
  1
SPATIAL_INDEX
  2
AcDbSpatialIndex
  3
ObjectDBX Classes
 90
        0
 91
        0
280
     0
281
     0
  0
CLASS
  1
OBJECT_PTR
  2
CAseDLPNTableRecord
  3
ASE-LPNTableRecord
 90
        1
 91
        0
280
     0
281
     0
  0
CLASS
  1
PLOTSETTINGS
  2
AcDbPlotSettings
  3
ObjectDBX Classes
 90
        0
 91
        0
280
     0
281
     0
  0
CLASS
  1
WIPEOUT
  2
AcDbWipeout
  3
"WipeOut|Product Desc: Object Enabler for WipeOut entity^I^I^I^I^I^I|Company: Autodesk, Inc.^I^I^I^I^I^I|WEB Address: www.autodesk.com"
 90
      127
 91
        0
280
     0
281
     1
  0
CLASS
  1
WIPEOUTVARIABLES
  2
AcDbWipeoutVariables
  3
"WipeOut|Product Desc:     WipeOut Dbx Application|Company:          Autodesk, Inc.|WEB Address:      www.autodesk.com"
 90
        0
 91
        0
280
     0
281
     0
  0
CLASS
  1
RTEXT
  2
RText
  3
RText|AutoCAD Express Tool|expresstools@autodesk.com
 90
     1023
 91
        0
280
     0
281
     1
  0
CLASS
  1
ARCALIGNEDTEXT
  2
AcDbArcAlignedText
  3
ATEXT|AutoCAD Express Tool|expresstools@autodesk.com
 90
        0
 91
        0
280
     0
281
     1
  0
CLASS
  1
TABLESTYLE
  2
AcDbTableStyle
  3
ObjectDBX Classes
 90
     2047
 91
        1
280
     0
281
     0
  0
CLASS
  1
ACME_DOCUMENT
  2
AcMeDbDoc
  3
AcMeServices
 90
        0
 91
        2
280
     0
281
     0
  0
CLASS
  1
AMGSETTINGSOBJ
  2
AmgSettingsObj
  3
"AcadM|Product Description: AutoCAD Mechanical 2000|Company: Autodesk"
 90
        0
 91
        2
280
     0
281
     0
  0
CLASS
  1
ACMESCOPE
  2
AcMeScope
  3
AcMeServices
 90
        0
 91
        1
280
     0
281
     0
  0
CLASS
  1
ACMECOMMANDHISTORY
  2
AcMeCommandHistory
  3
AcMeServices
 90
        0
 91
        1
280
     0
281
     0
  0
CLASS
  1
ACIMSYSVARMAN
  2
AcImSysVarManager
  3
AcMeServices
 90
        0
 91
        5
280
     0
281
     0
  0
CLASS
  1
ACIMINTSYSVAR
  2
AcImIntSysVar
  3
AcMeServices
 90
        0
 91
       26
280
     0
281
     0
  0
CLASS
  1
ACMEDRAWINGMAN
  2
AcMeDrawingMan
  3
AcMeServices
 90
        0
 91
        1
280
     0
281
     0
  0
CLASS
  1
ACMEVIEW
  2
AcMeView
  3
AcMeServices
 90
        0
 91
        1
280
     0
281
     0
  0
CLASS
  1
ACDBENTITYCACHE
  2
AcMeEntityCache
  3
AcMeServices
 90
        0
 91
        1
280
     0
281
     0
  0
CLASS
  1
GSMANAGER
  2
AcMeGSManager
  3
AcMeServices
 90
        0
 91
        1
280
     0
281
     0
  0
CLASS
  1
AMDTINTERNALREACTOR
  2
AmdtInternalReactor
  3
AcMeServices
 90
        0
 91
        2
280
     0
281
     0
  0
CLASS
  1
ACMESTATEMGR
  2
AcMeStateMgr
  3
AcMeServices
 90
        0
 91
        1
280
     0
281
     0
  0
CLASS
  1
ACGREFMASTER
  2
AcGrefMaster
  3
AcAttribServices
 90
        0
 91
        1
280
     0
281
     0
  0
CLASS
  1
AM_DRAWING_MGR
  2
AcDmDwgMgr
  3
AcMechDwgViewMgmt
 90
        0
 91
        1
280
     0
281
     0
  0
CLASS
  1
AM_DWG_DOCUMENT
  2
AcDmDwgDocument
  3
AcMechDwgViewMgmt
 90
        0
 91
        1
280
     0
281
     0
  0
CLASS
  1
AM_DWG_SHEET
  2
AcDmSheet
  3
AcMechDwgViewMgmt
 90
        0
 91
        2
280
     0
281
     0
  0
CLASS
  1
AM_VIEWDIMPARMAP
  2
AcDmViewDimParMap
  3
AcMechDwgViewMgmt
 90
        0
 91
        2
280
     0
281
     0
  0
CLASS
  1
ACIMREALSYSVAR
  2
AcImRealSysVar
  3
AcMeServices
 90
        0
 91
        1
280
     0
281
     0
  0
CLASS
  1
AM_DWGMGR_NAME
  2
AcDmDwgMgrName
  3
AcMechDwgViewMgmt
 90
        0
 91
        1
280
     0
281
     0
  0
CLASS
  1
ACME_DATABASE
  2
AcMeDbDatabase
  3
AcMeServices
 90
        0
 91
        1
280
     0
281
     0
  0
CLASS
  1
ACRFINSADJUSTERMGR
  2
AcRfInsAdjusterMgr
  3
AcMeServices
 90
        0
 91
        1
280
     0
281
     0
  0
CLASS
  1
ACGREFACADMASTER
  2
AcGrefacadMaster
  3
AcGrefServices
 90
        0
 91
        1
280
     0
281
     0
  0
CLASS
  1
AMDTMENUSTATEMGR
  2
AmdtMenuStateMgr
  3
McadcomServices
 90
        0
 91
        1
280
     0
281
     0
  0
CLASS
  1
AMDTMCOMMENUSTATE
  2
AmdtMcomMenuState
  3
McadcomServices
 90
        0
 91
        1
280
     0
281
     0
  0
CLASS
  1
AMIMASTER
  2
AmiMaster
  3
AmiServices
 90
        0
 91
        1
280
     0
281
     0
  0
CLASS
  1
MAPIAMMOUDLE
  2
MApiAmModule
  3
MApiAmServices
 90
        0
 91
        1
280
     0
281
     0
  0
CLASS
  1
ACIMSTRSYSVAR
  2
AcImStrSysVar
  3
AcMeServices
 90
        0
 91
        5
280
     0
281
     0
  0
CLASS
  1
AMDTADMENUSTATE
  2
AmdtAdMenuState
  3
DesignerServices
 90
        0
 91
        1
280
     0
281
     0
  0
CLASS
  1
ADAPPL
  2
AcAdAppl
  3
DesignerServices
 90
        0
 91
        1
280
     0
281
     0
  0
CLASS
  1
DEPMGR
  2
AcAdDepMgr
  3
DesignerServices
 90
        0
 91
        1
280
     0
281
     0
  0
CLASS
  1
PARAMMGR
  2
AcAdParamMgr
  3
DesignerServices
 90
        0
 91
        1
280
     0
281
     0
  0
CLASS
  1
PARAMSCOPE
  2
AcAdParamScope
  3
DesignerServices
 90
        0
 91
        1
280
     0
281
     0
  0
CLASS
  1
NAMEDAPPL
  2
AcAdNamedAppl
  3
DesignerServices
 90
        0
 91
        1
280
     0
281
     0
  0
CLASS
  1
AMDTDMMENUSTATE
  2
AmdtDmMenuState
  3
AcMechDwgViewMgmt
 90
        0
 91
        1
280
     0
281
     0
  0
CLASS
  1
AMDTAMMENUSTATE
  2
AmdtAmMenuState
  3
DesignerAssemblies
 90
        0
 91
        1
280
     0
281
     0
  0
CLASS
  1
ACAMPROJECT
  2
AcAmProject
  3
DesignerAssemblies
 90
        0
 91
        1
280
     0
281
     0
  0
CLASS
  1
ACAMGRCOMPDEF
  2
AcAmGrCompDef
  3
DesignerAssemblies
 90
        0
 91
        1
280
     0
281
     0
  0
CLASS
  1
ACCMCONTEXT
  2
AcCmContext
  3
DesignerAssemblies
 90
        0
 91
        1
280
     0
281
     0
  0
CLASS
  1
ACAMCOMPDEF
  2
AcAmCompDef
  3
DesignerAssemblies
 90
        0
 91
        1
280
     0
281
     0
  0
CLASS
  1
ACAMCOMPDEFMGR
  2
AcAmCompDefMgr
  3
DesignerAssemblies
 90
        0
 91
        1
280
     0
281
     0
  0
CLASS
  1
AMCONTEXTMGR
  2
AcAmContextMgr
  3
DesignerAssemblies
 90
        0
 91
        1
280
     0
281
     0
  0
CLASS
  1
ACAMCONTEXTMODELER
  2
AcAmContextModeler
  3
DesignerAssemblies
 90
        0
 91
        1
280
     0
281
     0
  0
CLASS
  1
ACMDATADICTIONARY
  2
AcmDataDictionary
  3
"AcmSymBB|Product Description: AutoCAD Mechanical 2004 DX|Company: Autodesk"
 90
        0
 91
        1
280
     0
281
     0
  0
CLASS
  1
CATALOGSTATE
  2
AcAmCatalogState
  3
DesignerAssemblies
 90
        0
 91
        1
280
     0
281
     0
  0
CLASS
  1
ACAMGRCOMPDEFSET
  2
AcAmGrCompDefSet
  3
DesignerAssemblies
 90
        0
 91
        1
280
     0
281
     0
  0
CLASS
  1
AMDTBROWSERDBTAB
  2
AmdtBrowserDbTab
  3
McadcomServices
 90
        0
 91
        1
280
     0
281
     0
  0
CLASS
  1
CBROWSERAPPOBJECT
  2
CBrowserAppObject
  3
McadcomServices
 90
        0
 91
        3
280
     0
281
     0
  0
CLASS
  1
DM_PLACEHOLDER
  2
AcDmSelsetPlaceholder
  3
AcMechDwgViewMgmt
 90
        0
 91
        1
280
     0
281
     0
  0
CLASS
  1
ACMSTANDARDANSI
  2
AcmStandardANSI
  3
"Amdt_StdImp|Product Description: AutoCAD Mechanical 2004 DX|Company: Autodesk"
 90
        0
 91
        1
280
     0
281
     0
  0
CLASS
  1
AMGOBJPROPCFG
  2
AmgObjPropCfg
  3
"AmgLay|Product Description: AutoCAD Mechanical 2000|Company: Autodesk"
 90
        1
 91
        1
280
     0
281
     0
  0
CLASS
  1
ACMSURFSTANDARDANSI
  2
AcmSurfTextStdANSI
  3
"Amdt_StdImp|Product Description: AutoCAD Mechanical 2004 DX|Company: Autodesk"
 90
        0
 91
        1
280
     0
281
     0
  0
CLASS
  1
ACMFCFSTANDARDANSI
  2
AcmFCFStdANSI
  3
"Amdt_StdImp|Product Description: AutoCAD Mechanical 2004 DX|Company: Autodesk"
 90
        0
 91
        1
280
     0
281
     0
  0
CLASS
  1
ACMWELDSTANDARDANSI
  2
AcmWeldingStdANSI
  3
"Amdt_StdImp|Product Description: AutoCAD Mechanical 2004 DX|Company: Autodesk"
 90
        0
 91
        1
280
     0
281
     0
  0
CLASS
  1
ACMIDSTANDARDANSI
  2
AcmIdStdANSI
  3
"Amdt_StdImp|Product Description: AutoCAD Mechanical 2004 DX|Company: Autodesk"
 90
        0
 91
        1
280
     0
281
     0
  0
CLASS
  1
ACMDATUMSTANDARDANSI
  2
AcmDatumStdANSI
  3
"Amdt_StdImp|Product Description: AutoCAD Mechanical 2004 DX|Company: Autodesk"
 90
        0
 91
        1
280
     0
281
     0
  0
CLASS
  1
ACMBOMSTANDARDANSI
  2
AcmBOMStdANSI
  3
"Amdt_StdImp|Product Description: AutoCAD Mechanical 2004 DX|Company: Autodesk"
 90
        0
 91
        1
280
     0
281
     0
  0
CLASS
  1
ACMDETAILSTANDARDANSI
  2
AmdtDetailSymStdANSI
  3
"Amdt_StdImp|Product Description: AutoCAD Mechanical 2004 DX|Company: Autodesk"
 90
        0
 91
        1
280
     0
281
     0
  0
CLASS
  1
ACMSECTIONSTANDARDANSI
  2
AmdtSectionSymStdANSI
  3
"Amdt_StdImp|Product Description: AutoCAD Mechanical 2004 DX|Company: Autodesk"
 90
        0
 91
        1
280
     0
281
     0
  0
CLASS
  1
ACMCENTERLINESTANDARDANSI
  2
AmdtCenterLineStdANSI
  3
"Amdt_StdImp|Product Description: AutoCAD Mechanical 2004 DX|Company: Autodesk"
 90
        0
 91
        1
280
     0
281
     0
  0
CLASS
  1
ACMTHREADLINESTANDARDANSI
  2
AmdtThreadLineStdANSI
  3
"Amdt_StdImp|Product Description: AutoCAD Mechanical 2004 DX|Company: Autodesk"
 90
        0
 91
        1
280
     0
281
     0
  0
CLASS
  1
ACMNOTESTANDARDANSI
  2
AmdtNoteStdANSI
  3
"Amdt_StdImp|Product Description: AutoCAD Mechanical 2004 DX|Company: Autodesk"
 90
        0
 91
        1
280
     0
281
     0
  0
CLASS
  1
AMDTNOTETEMPLATEDB
  2
AmdtNoteTemplateDB
  3
AMDT_STDIMP_MODULE_NAME
 90
        0
 91
        6
280
     0
281
     0
  0
CLASS
  1
ACAMGLAYSTD
  2
AcAmgLayStd
  3
"AcAmgLayStd|Product Description: AutoCAD Mechanical 2000|Company: Autodesk"
 90
        0
 91
        1
280
     0
281
     0
  0
CLASS
  1
ACAMGDIMSTD
  2
AcAmgDimStd
  3
"AcAmgDimStd|Product Description: AutoCAD Mechanical 2000|Company: Autodesk"
 90
        0
 91
        1
280
     0
281
     0
  0
CLASS
  1
ACAMGHOLECHARTSTDANSI
  2
AcAmgHoleChartStdANSI
  3
ACMSYMBB_MODULE_NAME
 90
        0
 91
        1
280
     0
281
     0
  0
CLASS
  1
ACAMGTITLESTD
  2
AcAmgTitleStd
  3
"TITLEAPP"
 90
        0
 91
        1
280
     0
281
     0
  0
CLASS
  1
ACAMGFILTERDAT
  2
AcAmgFilterDat
  3
"AcadM|Product Description: AutoCAD Mechanical 2000|Company: Autodesk"
 90
        0
 91
        6
280
     0
281
     0
  0
ENDSEC
  0
SECTION
  2
TABLES
  0
TABLE
  2
VPORT
  5
8
330
0
100
AcDbSymbolTable
 70
     2
  0
VPORT
  5
D3D
330
8
100
AcDbSymbolTableRecord
100
AcDbViewportTableRecord
  2
*Active
 70
     0
 10
0.0
 20
0.0
 11
1.0
 21
1.0
 12
9.955189914572045
 22
-5.721995437072941
 13
0.0
 23
0.0
 14
1.0
 24
1.0
 15
0.0
 25
0.0
 16
0.0
 26
0.0
 36
1.0
 17
0.0
 27
0.0
 37
0.0
 40
14.50644987587675
 41
1.504492939666238
 42
50.0
 43
0.0
 44
0.0
 50
0.0
 51
0.0
 71
     0
 72
   100
 73
     1
 74
     1
 75
     0
 76
     0
 77
     0
 78
     0
281
     0
 65
     0
110
0.0
120
0.0
130
0.0
111
1.0
121
0.0
131
0.0
112
0.0
122
1.0
132
0.0
 79
     0
146
0.0
  0
ENDTAB
  0
TABLE
  2
LTYPE
  5
5
330
0
100
AcDbSymbolTable
 70
    19
  0
LTYPE
  5
14
330
5
100
AcDbSymbolTableRecord
100
AcDbLinetypeTableRecord
  2
ByBlock
 70
     0
  3

 72
    65
 73
     0
 40
0.0
  0
LTYPE
  5
15
330
5
100
AcDbSymbolTableRecord
100
AcDbLinetypeTableRecord
  2
ByLayer
 70
     0
  3

 72
    65
 73
     0
 40
0.0
  0
LTYPE
  5
16
330
5
100
AcDbSymbolTableRecord
100
AcDbLinetypeTableRecord
  2
CONTINUOUS
 70
     0
  3
Solid line
 72
    65
 73
     0
 40
0.0
  0
LTYPE
  5
1F5
330
5
100
AcDbSymbolTableRecord
100
AcDbLinetypeTableRecord
  2
CENTER
 70
     0
  3
____ _ ____ _ ____ _ ____ _ ____ _ ____ _ ____
 72
    65
 73
     4
 40
0.6
 49
0.375
 74
     0
 49
-0.075
 74
     0
 49
0.075
 74
     0
 49
-0.075
 74
     0
  0
LTYPE
  5
1F6
330
5
100
AcDbSymbolTableRecord
100
AcDbLinetypeTableRecord
  2
HIDDEN
 70
     0
  3
- - - - - - - - - - - - - - - - - - - -
 72
    65
 73
     2
 40
0.2
 49
0.1
 74
     0
 49
-0.1
 74
     0
  0
LTYPE
  5
1F7
330
5
100
AcDbSymbolTableRecord
100
AcDbLinetypeTableRecord
  2
PHANTOM
 70
     0
  3
_____ _ _ _____ _ _ _____ _ _ _____
 72
    65
 73
     6
 40
0.8
 49
0.45
 74
     0
 49
-0.05
 74
     0
 49
0.1
 74
     0
 49
-0.05
 74
     0
 49
0.1
 74
     0
 49
-0.05
 74
     0
  0
LTYPE
  5
1F8
330
5
100
AcDbSymbolTableRecord
100
AcDbLinetypeTableRecord
  2
DOT
 70
     0
  3
. . . . . . . . . . . . . . . . . . . .
 72
    65
 73
     2
 40
0.2
 49
0.1
 74
     0
 49
-0.1
 74
     0
  0
LTYPE
  5
1F9
330
5
100
AcDbSymbolTableRecord
100
AcDbLinetypeTableRecord
  2
DASHED
 70
     0
  3
- - - - - - - - - - - - - - - - - - - -
 72
    65
 73
     2
 40
0.2
 49
0.1
 74
     0
 49
-0.1
 74
     0
  0
LTYPE
  5
C74
330
5
100
AcDbSymbolTableRecord
100
AcDbLinetypeTableRecord
  2
PHANTOM2
 70
     0
  3
Phantom (.5x) ___ _ _ ___ _ _ ___ _ _ ___ _ _
 72
    65
 73
     6
 40
1.25
 49
0.625
 74
     0
 49
-0.125
 74
     0
 49
0.125
 74
     0
 49
-0.125
 74
     0
 49
0.125
 74
     0
 49
-0.125
 74
     0
  0
LTYPE
  5
CA8
330
5
100
AcDbSymbolTableRecord
100
AcDbLinetypeTableRecord
  2
AM_ISO02W050
 70
     0
  3
__ __ __ __ __ __ __ __ __ __ __ __ __ __ __
 72
    65
 73
     2
 40
7.5
 49
6.0
 74
     0
 49
-1.5
 74
     0
  0
LTYPE
  5
CA9
330
5
100
AcDbSymbolTableRecord
100
AcDbLinetypeTableRecord
  2
AM_ISO08W050
 70
     0
  3
____ . ____ . ____ . ____ . ____ . ____ . ____
 72
    65
 73
     4
 40
18.0
 49
12.0
 74
     0
 49
-1.5
 74
     0
 49
3.0
 74
     0
 49
-1.5
 74
     0
  0
LTYPE
  5
CAA
330
5
100
AcDbSymbolTableRecord
100
AcDbLinetypeTableRecord
  2
AM_ISO09W050
 70
     0
  3
_____ . . _____ . . _____ . . ____ .. ____
 72
    65
 73
     6
 40
22.5
 49
12.0
 74
     0
 49
-1.5
 74
     0
 49
3.0
 74
     0
 49
-1.5
 74
     0
 49
3.0
 74
     0
 49
-1.5
 74
     0
  0
LTYPE
  5
CAB
330
5
100
AcDbSymbolTableRecord
100
AcDbLinetypeTableRecord
  2
Amconstr
 70
     0
  3
_______________________
 72
    65
 73
     2
 40
9999.0
 49
9999.0
 74
     0
 49
0.0
 74
     0
  0
LTYPE
  5
CAC
330
5
100
AcDbSymbolTableRecord
100
AcDbLinetypeTableRecord
  2
AM_ISO08W050x2
 70
     0
  3
__ . __ . __ . __ . __ . __
 72
    65
 73
     4
 40
9.0
 49
6.0
 74
     0
 49
-0.75
 74
     0
 49
1.5
 74
     0
 49
-0.75
 74
     0
  0
LTYPE
  5
CAD
330
5
100
AcDbSymbolTableRecord
100
AcDbLinetypeTableRecord
  2
AM_ISO02W050x2
 70
     0
  3
 _ _ _ _ _ _ _ _ _ _ _ _
 72
    65
 73
     2
 40
3.75
 49
3.0
 74
     0
 49
-0.75
 74
     0
  0
LTYPE
  5
CB0
330
5
100
AcDbSymbolTableRecord
100
AcDbLinetypeTableRecord
  2
Amzigzag
 70
     0
  3
/\/-/\/-/\/-/\/-/\/-/\/
 72
    65
 73
     2
 40
11.0001
 49
0.0001
 74
     4
 75
   136
340
CAF
 46
0.04
 50
0.0
 44
0.0
 45
0.0
 49
-11.0
 74
     0
  0
LTYPE
  5
CB1
330
5
100
AcDbSymbolTableRecord
100
AcDbLinetypeTableRecord
  2
CENTER2
 70
     0
  3
Center (.5x) ___ _ ___ _ ___ _ ___ _ ___ _ ___
 72
    65
 73
     4
 40
1.125
 49
0.75
 74
     0
 49
-0.125
 74
     0
 49
0.125
 74
     0
 49
-0.125
 74
     0
  0
LTYPE
  5
CB2
330
5
100
AcDbSymbolTableRecord
100
AcDbLinetypeTableRecord
  2
HIDDEN2
 70
     0
  3
Hidden (.5x) _ _ _ _ _ _ _ _ _ _ _ _ _ _ _ _ _
 72
    65
 73
     2
 40
0.1875
 49
0.125
 74
     0
 49
-0.0625
 74
     0
  0
LTYPE
  5
CB3
330
5
100
AcDbSymbolTableRecord
100
AcDbLinetypeTableRecord
  2
Amzigzag2
 70
     0
  3
/\/-/\/-/\/-/\/-/\/-/\/
 72
    65
 73
     2
 40
0.4401
 49
0.0001
 74
     4
 75
   136
340
CAF
 46
0.0016
 50
0.0
 44
0.0
 45
0.0
 49
-0.4400000000000001
 74
     0
  0
LTYPE
  5
CC1
330
5
100
AcDbSymbolTableRecord
100
AcDbLinetypeTableRecord
  2
ACANSTGB
 70
     0
  3
__ . . __ . .
 72
    65
 73
     6
 40
0.35433070866
 49
0.15748031496
 74
     0
 49
-0.03937007874
 74
     0
 49
0.03937007874
 74
     0
 49
-0.03937007874
 74
     0
 49
0.03937007874
 74
     0
 49
-0.03937007874
 74
     0
  0
LTYPE
  5
CC2
330
5
100
AcDbSymbolTableRecord
100
AcDbLinetypeTableRecord
  2
ACANSTGL
 70
     0
  3
_ _ _ _ _
 72
    65
 73
     2
 40
0.11811023622
 49
0.07874015748
 74
     0
 49
-0.03937007874
 74
     0
  0
ENDTAB
  0
TABLE
  2
LAYER
  5
2
330
0
100
AcDbSymbolTable
 70
    19
  0
LAYER
  5
10
330
2
100
AcDbSymbolTableRecord
100
AcDbLayerTableRecord
  2
0
 70
     0
 62
     7
  6
CONTINUOUS
370
    -3
390
F
  0
LAYER
  5
1FA
330
2
100
AcDbSymbolTableRecord
100
AcDbLayerTableRecord
  2
DEFAULT_1
 70
     0
 62
     7
  6
CENTER
370
    -3
390
F
  0
LAYER
  5
1FB
330
2
100
AcDbSymbolTableRecord
100
AcDbLayerTableRecord
  2
DEFAULT_2
 70
     0
 62
     8
  6
HIDDEN
370
    -3
390
F
  0
LAYER
  5
1FC
330
2
100
AcDbSymbolTableRecord
100
AcDbLayerTableRecord
  2
DEFAULT_3
 70
     0
 62
     7
  6
PHANTOM
370
    -3
390
F
  0
LAYER
  5
1FD
330
2
100
AcDbSymbolTableRecord
100
AcDbLayerTableRecord
  2
_2D_DELETED_OBJS
 70
     0
 62
     7
  6
CONTINUOUS
370
    -3
390
F
  0
LAYER
  5
1FE
330
2
100
AcDbSymbolTableRecord
100
AcDbLayerTableRecord
  2
_BLACK_HOLE
 70
     0
 62
     7
  6
CONTINUOUS
370
    -3
390
F
  0
LAYER
  5
1FF
330
2
100
AcDbSymbolTableRecord
100
AcDbLayerTableRecord
  2
DATUMS
 70
     0
 62
     7
  6
CONTINUOUS
370
    -3
390
F
  0
LAYER
  5
200
330
2
100
AcDbSymbolTableRecord
100
AcDbLayerTableRecord
  2
DATUM_AXIS
 70
     0
 62
     7
  6
CONTINUOUS
370
    -3
390
F
  0
LAYER
  5
201
330
2
100
AcDbSymbolTableRecord
100
AcDbLayerTableRecord
  2
DATUM_CSYS
 70
     0
 62
     7
  6
CONTINUOUS
370
    -3
390
F
  0
LAYER
  5
202
330
2
100
AcDbSymbolTableRecord
100
AcDbLayerTableRecord
  2
DATUM_PLANE
 70
     0
 62
     7
  6
CONTINUOUS
370
    -3
390
F
  0
LAYER
  5
203
330
2
100
AcDbSymbolTableRecord
100
AcDbLayerTableRecord
  2
DATUM_POINT
 70
     0
 62
     7
  6
CONTINUOUS
370
    -3
390
F
  0
LAYER
  5
204
330
2
100
AcDbSymbolTableRecord
100
AcDbLayerTableRecord
  2
LOGO
 70
     0
 62
     7
  6
CONTINUOUS
370
    -3
390
F
  0
LAYER
  5
205
330
2
100
AcDbSymbolTableRecord
100
AcDbLayerTableRecord
  2
_CURVE
 70
     0
 62
     7
  6
CONTINUOUS
370
    -3
390
F
  0
LAYER
  5
206
330
2
100
AcDbSymbolTableRecord
100
AcDbLayerTableRecord
  2
_SURFACE
 70
     0
 62
     7
  6
CONTINUOUS
370
    -3
390
F
  0
LAYER
  5
207
330
2
100
AcDbSymbolTableRecord
100
AcDbLayerTableRecord
  2
__REF_CURVE
 70
     0
 62
     7
  6
CONTINUOUS
370
    -3
390
F
  0
LAYER
  5
208
330
2
100
AcDbSymbolTableRecord
100
AcDbLayerTableRecord
  2
__REF_SURFACE
 70
     0
 62
     7
  6
CONTINUOUS
370
    -3
390
F
  0
LAYER
  5
209
330
2
100
AcDbSymbolTableRecord
100
AcDbLayerTableRecord
  2
___GDT
 70
     0
 62
     7
  6
CONTINUOUS
370
    -3
390
F
  0
LAYER
  5
20A
330
2
100
AcDbSymbolTableRecord
100
AcDbLayerTableRecord
  2
___NOTE
 70
     0
 62
     7
  6
CONTINUOUS
370
    -3
390
F
  0
LAYER
  5
20B
330
2
100
AcDbSymbolTableRecord
100
AcDbLayerTableRecord
  2
___SYMBOL
 70
     0
 62
     7
  6
CONTINUOUS
370
    -3
390
F
  0
ENDTAB
  0
TABLE
  2
STYLE
  5
3
330
0
100
AcDbSymbolTable
 70
     7
  0
STYLE
  5
11
330
3
100
AcDbSymbolTableRecord
100
AcDbTextStyleTableRecord
  2
STANDARD
 70
     0
 40
0.0
 41
0.8
 50
0.0
 71
     0
 42
0.2
  3
txt
  4

  0
STYLE
  5
20C
330
3
100
AcDbSymbolTableRecord
100
AcDbTextStyleTableRecord
  2
TEXTSTYLE_1
 70
     0
 40
0.0
 41
0.925
 50
0.0
 71
     0
 42
0.2
  3
txt
  4

  0
STYLE
  5
20D
330
3
100
AcDbSymbolTableRecord
100
AcDbTextStyleTableRecord
  2
TEXTSTYLE_2
 70
     0
 40
0.0
 41
1.229999999999999
 50
0.0
 71
     0
 42
0.2
  3
txt
  4

  0
STYLE
  5
20E
330
3
100
AcDbSymbolTableRecord
100
AcDbTextStyleTableRecord
  2
TEXTSTYLE_3
 70
     0
 40
0.0
 41
0.8
 50
0.0
 71
     0
 42
0.2
  3
txt
  4

  0
STYLE
  5
CAF
330
3
100
AcDbSymbolTableRecord
100
AcDbTextStyleTableRecord
  2

 70
     1
 40
0.0
 41
1.0
 50
0.0
 71
     0
 42
0.2
  3
genltshp.shx
  4

  0
STYLE
  5
CB4
330
3
100
AcDbSymbolTableRecord
100
AcDbTextStyleTableRecord
  2
ACANSTS
 70
     0
 40
1.0
 41
1.0
 50
0.0
 71
     0
 42
0.2
  3
romans.shx
  4

  0
STYLE
  5
CC0
330
3
100
AcDbSymbolTableRecord
100
AcDbTextStyleTableRecord
  2
ACANSGDT
 70
     0
 40
0.0
 41
1.0
 50
0.0
 71
     0
 42
0.2
  3
AMGDT
  4

  0
ENDTAB
  0
TABLE
  2
VIEW
  5
6
330
0
100
AcDbSymbolTable
 70
     0
  0
ENDTAB
  0
TABLE
  2
UCS
  5
7
330
0
100
AcDbSymbolTable
 70
     0
  0
ENDTAB
  0
TABLE
  2
APPID
  5
9
330
0
100
AcDbSymbolTable
 70
    12
  0
APPID
  5
20F
330
9
100
AcDbSymbolTableRecord
100
AcDbRegAppTableRecord
  2
ACAD
 70
     0
  0
APPID
  5
C45
330
9
100
AcDbSymbolTableRecord
100
AcDbRegAppTableRecord
  2
MCAD_NO_VIS
 70
     0
  0
APPID
  5
C46
330
9
100
AcDbSymbolTableRecord
100
AcDbRegAppTableRecord
  2
ACAD_TEMP_GRAPHIC
 70
     0
  0
APPID
  5
C76
330
9
100
AcDbSymbolTableRecord
100
AcDbRegAppTableRecord
  2
AD_DRAW
 70
     0
  0
APPID
  5
C79
330
9
100
AcDbSymbolTableRecord
100
AcDbRegAppTableRecord
  2
ACATTRIBSERVICES
 70
     0
  0
APPID
  5
C99
330
9
100
AcDbSymbolTableRecord
100
AcDbRegAppTableRecord
  2
DESIGNERASSEMBLIES
 70
     0
  0
APPID
  5
C9F
330
9
100
AcDbSymbolTableRecord
100
AcDbRegAppTableRecord
  2
ACADM_DIM_EDIT
 70
     0
  0
APPID
  5
CA0
330
9
100
AcDbSymbolTableRecord
100
AcDbRegAppTableRecord
  2
AMDT_DM_ADJ
 70
     0
  0
APPID
  5
CCE
330
9
100
AcDbSymbolTableRecord
100
AcDbRegAppTableRecord
  2
ACAD_DSTYLE_DIMARC_LENGTH_SYMBOL
 70
     0
  0
APPID
  5
CCF
330
9
100
AcDbSymbolTableRecord
100
AcDbRegAppTableRecord
  2
ACAD_DSTYLE_DIMJOGGED_JOGANGLE_SYMBOL
 70
     0
  0
APPID
  5
CF5
330
9
100
AcDbSymbolTableRecord
100
AcDbRegAppTableRecord
  2
ACAD_EXEMPT_FROM_CAD_STANDARDS
 70
     0
  0
APPID
  5
D01
330
9
100
AcDbSymbolTableRecord
100
AcDbRegAppTableRecord
  2
DCO15
 70
     0
  0
ENDTAB
  0
TABLE
  2
DIMSTYLE
  5
A
330
0
100
AcDbSymbolTable
 70
    12
100
AcDbDimStyleTable
 71
     1
340
232
  0
DIMSTYLE
105
232
330
A
100
AcDbSymbolTableRecord
100
AcDbDimStyleTableRecord
  2
STANDARD
 70
     0
 41
0.1875
 47
0.01
 48
0.01
 71
     1
 78
     4
140
0.15625
271
     3
272
     3
284
     4
340
11
341
210
342
210
343
210
344
210
  0
DIMSTYLE
105
233
330
A
100
AcDbSymbolTableRecord
100
AcDbDimStyleTableRecord
  2
DIMSTYLE_1
 70
     0
 41
0.1875
 47
0.25
 48
0.25
 71
     1
 78
     4
140
0.15625
144
1.333333333299999
271
     2
272
     2
284
     4
340
11
341
210
342
210
343
210
344
210
  0
DIMSTYLE
105
234
330
A
100
AcDbSymbolTableRecord
100
AcDbDimStyleTableRecord
  2
DIMSTYLE_2
 70
     0
 41
0.1875
 47
0.12
 48
0.12
 71
     1
 78
     4
140
0.15625
144
1.333333333299999
271
     2
272
     2
284
     4
340
11
341
210
342
210
343
210
344
210
  0
DIMSTYLE
105
235
330
A
100
AcDbSymbolTableRecord
100
AcDbDimStyleTableRecord
  2
DIMSTYLE_3
 70
     0
 41
0.1875
 47
0.02
 48
0.02
 78
     4
140
0.15625
144
1.333333333299999
271
     2
272
     2
284
     4
340
11
341
210
342
210
343
210
344
210
  0
DIMSTYLE
105
236
330
A
100
AcDbSymbolTableRecord
100
AcDbDimStyleTableRecord
  2
DIMSTYLE_4
 70
     0
 41
0.1875
 48
0.13
 72
     1
 78
     4
140
0.15625
144
1.333333333299999
271
     2
272
     2
284
     4
340
11
341
210
342
210
343
210
344
210
  0
DIMSTYLE
105
237
330
A
100
AcDbSymbolTableRecord
100
AcDbDimStyleTableRecord
  2
DIMSTYLE_5
 70
     0
 41
0.1875
 78
     4
140
0.15625
144
1.333333333299999
271
     0
272
     0
284
     4
340
11
341
210
342
210
343
210
344
210
  0
DIMSTYLE
105
CCD
330
A
100
AcDbSymbolTableRecord
100
AcDbDimStyleTableRecord
  2
AM_ANSI
 70
     0
  4
mm
 41
0.1
 42
0.05
 43
0.5
 44
0.1
 47
0.1
 48
0.1
 78
     7
 79
     2
140
0.12
141
0.0
146
0.71
147
0.06
176
   256
177
   256
178
     2
274
     4
284
     7
340
11
371
    -1
372
    -1
1001
ACAD_DSTYLE_DIMARC_LENGTH_SYMBOL
1070
   379
1070
     1
1001
ACAD_DSTYLE_DIMJOGGED_JOGANGLE_SYMBOL
1070
   384
1040
0.7853981633974483
  0
DIMSTYLE
105
CD6
330
A
100
AcDbSymbolTableRecord
100
AcDbDimStyleTableRecord
  2
AM_ANSI$3
 70
     0
  4
mm
 41
0.1
 42
0.05
 43
0.5
 44
0.1
 47
0.1
 48
0.1
 78
     7
 79
     2
140
0.12
141
0.0
146
0.71
147
0.06
176
   256
177
   256
178
     2
274
     4
284
     7
288
     1
289
     0
340
11
371
    -1
372
    -1
1001
ACAD_DSTYLE_DIMARC_LENGTH_SYMBOL
1070
   379
1070
     1
1001
ACAD_DSTYLE_DIMJOGGED_JOGANGLE_SYMBOL
1070
   384
1040
0.7853981633974483
  0
DIMSTYLE
105
CD9
330
A
100
AcDbSymbolTableRecord
100
AcDbDimStyleTableRecord
  2
AM_ANSI$4
 70
     0
  4
mm
 41
0.1
 42
0.05
 43
0.5
 44
0.1
 47
0.1
 48
0.1
 78
     7
 79
     2
140
0.12
141
0.0
146
0.71
147
0.06
176
   256
177
   256
178
     2
274
     4
284
     7
288
     1
289
     0
340
11
371
    -1
372
    -1
1001
ACAD_DSTYLE_DIMARC_LENGTH_SYMBOL
1070
   379
1070
     1
1001
ACAD_DSTYLE_DIMJOGGED_JOGANGLE_SYMBOL
1070
   384
1040
0.7853981633974483
  0
DIMSTYLE
105
CDE
330
A
100
AcDbSymbolTableRecord
100
AcDbDimStyleTableRecord
  2
AM_ANSI$7
 70
     0
  4
mm
 41
0.1
 42
0.05
 43
0.5
 44
0.1
 47
0.1
 48
0.1
 78
     7
 79
     2
140
0.24
141
0.0
146
0.71
147
0.06
176
   256
177
   256
178
     2
274
     4
284
     7
340
11
371
    -1
372
    -1
1001
ACAD_DSTYLE_DIMARC_LENGTH_SYMBOL
1070
   379
1070
     1
1001
ACAD_DSTYLE_DIMJOGGED_JOGANGLE_SYMBOL
1070
   384
1040
0.7853981633974483
  0
DIMSTYLE
105
CE1
330
A
100
AcDbSymbolTableRecord
100
AcDbDimStyleTableRecord
  2
AM_ANSI$SF
 70
     0
  4
mm
 41
0.1
 42
0.05
 43
0.5
 44
0.1
 47
0.1
 48
0.1
 75
     1
 76
     1
 78
     7
 79
     2
140
0.12
141
0.0
146
0.71
147
0.06
176
   256
177
   256
178
     2
274
     4
284
     7
340
11
371
    -1
372
    -1
1001
ACAD_DSTYLE_DIMARC_LENGTH_SYMBOL
1070
   379
1070
     1
1001
ACAD_DSTYLE_DIMJOGGED_JOGANGLE_SYMBOL
1070
   384
1040
0.7853981633974483
  0
DIMSTYLE
105
CE8
330
A
100
AcDbSymbolTableRecord
100
AcDbDimStyleTableRecord
  2
AM_ANSI$SH
 70
     0
  4
mm
 41
0.1
 42
0.05
 43
0.5
 44
0.1
 47
0.1
 48
0.1
 75
     1
 76
     1
 78
     7
 79
     2
140
0.12
141
0.0
146
0.71
147
0.06
173
     1
176
   256
177
   256
178
     2
274
     4
284
     7
340
11
343
CE2
371
    -1
372
    -1
1001
ACAD_DSTYLE_DIMARC_LENGTH_SYMBOL
1070
   379
1070
     1
1001
ACAD_DSTYLE_DIMJOGGED_JOGANGLE_SYMBOL
1070
   384
1040
0.7853981633974483
  0
ENDTAB
  0
TABLE
  2
BLOCK_RECORD
  5
1
330
0
100
AcDbSymbolTable
 70
    18
  0
BLOCK_RECORD
  5
1F
330
1
100
AcDbSymbolTableRecord
100
AcDbBlockTableRecord
  2
*MODEL_SPACE
340
22
  0
BLOCK_RECORD
  5
1B
330
1
100
AcDbSymbolTableRecord
100
AcDbBlockTableRecord
  2
*PAPER_SPACE
340
1E
  0
BLOCK_RECORD
  5
211
330
1
100
AcDbSymbolTableRecord
100
AcDbBlockTableRecord
  2
KOHLER_BL0
340
0
  0
BLOCK_RECORD
  5
212
330
1
100
AcDbSymbolTableRecord
100
AcDbBlockTableRecord
  2
C_ARROW_BL1
340
0
  0
BLOCK_RECORD
  5
213
330
1
100
AcDbSymbolTableRecord
100
AcDbBlockTableRecord
  2
C_ARROW_BL2
340
0
  0
BLOCK_RECORD
  5
214
330
1
100
AcDbSymbolTableRecord
100
AcDbBlockTableRecord
  2
C_ARROW_BL3
340
0
  0
BLOCK_RECORD
  5
215
330
1
100
AcDbSymbolTableRecord
100
AcDbBlockTableRecord
  2
C_ARROW_BL4
340
0
  0
BLOCK_RECORD
  5
228
330
1
100
AcDbSymbolTableRecord
100
AcDbBlockTableRecord
  2
APPLICABLE_STANDARDS_BL5
340
0
  0
BLOCK_RECORD
  5
229
330
1
100
AcDbSymbolTableRecord
100
AcDbBlockTableRecord
  2
CHARACTERISTIC_BL6
340
0
  0
BLOCK_RECORD
  5
22A
330
1
100
AcDbSymbolTableRecord
100
AcDbBlockTableRecord
  2
CHARACTERISTIC_BL7
340
0
  0
BLOCK_RECORD
  5
22B
330
1
100
AcDbSymbolTableRecord
100
AcDbBlockTableRecord
  2
CHARACTERISTIC_BL8
340
0
  0
BLOCK_RECORD
  5
22C
330
1
100
AcDbSymbolTableRecord
100
AcDbBlockTableRecord
  2
REVISION_BL9
340
0
  0
BLOCK_RECORD
  5
22D
330
1
100
AcDbSymbolTableRecord
100
AcDbBlockTableRecord
  2
CHARACTERISTIC_BL10
340
0
  0
BLOCK_RECORD
  5
22E
330
1
100
AcDbSymbolTableRecord
100
AcDbBlockTableRecord
  2
CHARACTERISTIC_BL11
340
0
  0
BLOCK_RECORD
  5
22F
330
1
100
AcDbSymbolTableRecord
100
AcDbBlockTableRecord
  2
CHARACTERISTIC_BL12
340
0
  0
BLOCK_RECORD
  5
230
330
1
100
AcDbSymbolTableRecord
100
AcDbBlockTableRecord
  2
DELTA_BL13
340
0
  0
BLOCK_RECORD
  5
231
330
1
100
AcDbSymbolTableRecord
100
AcDbBlockTableRecord
  2
REVISION_BL14
340
0
  0
BLOCK_RECORD
  5
210
330
1
100
AcDbSymbolTableRecord
100
AcDbBlockTableRecord
  2
_FILLED
340
0
  0
BLOCK_RECORD
  5
CE2
330
1
100
AcDbSymbolTableRecord
100
AcDbBlockTableRecord
  2
GENAXEH
340
0
  0
ENDTAB
  0
ENDSEC
  0
SECTION
  2
BLOCKS
  0
BLOCK
  5
20
330
1F
100
AcDbEntity
  8
0
100
AcDbBlockBegin
  2
*MODEL_SPACE
 70
     0
 10
0.0
 20
0.0
 30
0.0
  3
*MODEL_SPACE
  1

  0
ENDBLK
  5
21
330
1F
100
AcDbEntity
  8
0
100
AcDbBlockEnd
  0
BLOCK
  5
1C
330
1B
100
AcDbEntity
 67
     1
  8
0
100
AcDbBlockBegin
  2
*PAPER_SPACE
 70
     0
 10
0.0
 20
0.0
 30
0.0
  3
*PAPER_SPACE
  1

  0
ENDBLK
  5
1D
330
1B
100
AcDbEntity
 67
     1
  8
0
100
AcDbBlockEnd
  0
BLOCK
  5
238
330
211
100
AcDbEntity
  8
0
  6
Continuous
 62
     2
100
AcDbBlockBegin
  2
KOHLER_BL0
 70
     0
 10
30.1873715
 20
2.174145999999999
 30
0.0
  3
KOHLER_BL0
  1

  0
ARC
  5
239
330
211
100
AcDbEntity
  8
0
  6
Continuous
 62
     2
100
AcDbCircle
 10
30.753184
 20
2.22961475
 30
0.0
 40
0.03065625
100
AcDbArc
 50
270.0
 51
90.0
  0
LINE
  5
23A
330
211
100
AcDbEntity
  8
0
  6
Continuous
 62
     2
100
AcDbLine
 10
29.503184
 20
2.033520999999999
 30
0.0
 11
29.503184
 21
2.314770999999999
 31
0.0
  0
LINE
  5
23B
330
211
100
AcDbEntity
  8
0
  6
Continuous
 62
     2
100
AcDbLine
 10
29.503184
 20
2.314770999999999
 30
0.0
 11
29.570184
 21
2.314770999999999
 31
0.0
  0
LINE
  5
23C
330
211
100
AcDbEntity
  8
0
  6
Continuous
 62
     2
100
AcDbLine
 10
29.503184
 20
2.033520999999999
 30
0.0
 11
29.570184
 21
2.033520999999999
 31
0.0
  0
LINE
  5
23D
330
211
100
AcDbEntity
  8
0
  6
Continuous
 62
     2
100
AcDbLine
 10
29.753184
 20
2.314770999999999
 30
0.0
 11
29.628184
 21
2.189770999999999
 31
0.0
  0
LINE
  5
23E
330
211
100
AcDbEntity
  8
0
  6
Continuous
 62
     2
100
AcDbLine
 10
29.628184
 20
2.189770999999999
 30
0.0
 11
29.753184
 21
2.033520999999999
 31
0.0
  0
CIRCLE
  5
23F
330
211
100
AcDbEntity
  8
0
  6
Continuous
 62
     2
100
AcDbCircle
 10
29.862559
 20
2.174145999999999
 30
0.0
 40
0.073625
  0
LINE
  5
240
330
211
100
AcDbEntity
  8
0
  6
Continuous
 62
     2
100
AcDbLine
 10
29.6673821352
 20
2.033520999999999
 30
0.0
 11
29.753184
 21
2.033520999999999
 31
0.0
  0
CIRCLE
  5
241
330
211
100
AcDbEntity
  8
0
  6
Continuous
 62
     2
100
AcDbCircle
 10
29.862559
 20
2.174145999999999
 30
0.0
 40
0.140625
  0
LINE
  5
242
330
211
100
AcDbEntity
  8
0
  6
Continuous
 62
     2
100
AcDbLine
 10
29.570184
 20
2.033520999999999
 30
0.0
 11
29.570184
 21
2.155018668999999
 31
0.0
  0
LINE
  5
243
330
211
100
AcDbEntity
  8
0
  6
Continuous
 62
     2
100
AcDbLine
 10
29.6584316913
 20
2.314770999999999
 30
0.0
 11
29.570184
 21
2.2265233087
 31
0.0
  0
LINE
  5
244
330
211
100
AcDbEntity
  8
0
  6
Continuous
 62
     2
100
AcDbLine
 10
29.570184
 20
2.155018668999999
 30
0.0
 11
29.6673821352
 21
2.033520999999999
 31
0.0
  0
LINE
  5
245
330
211
100
AcDbEntity
  8
0
  6
Continuous
 62
     2
100
AcDbLine
 10
29.6584316913
 20
2.314770999999999
 30
0.0
 11
29.753184
 21
2.314770999999999
 31
0.0
  0
LINE
  5
246
330
211
100
AcDbEntity
  8
0
  6
Continuous
 62
     2
100
AcDbLine
 10
29.570184
 20
2.314770999999999
 30
0.0
 11
29.570184
 21
2.2265233087
 31
0.0
  0
LINE
  5
247
330
211
100
AcDbEntity
  8
0
  6
Continuous
 62
     2
100
AcDbLine
 10
30.034434
 20
2.314770999999999
 30
0.0
 11
30.034434
 21
2.033520999999999
 31
0.0
  0
LINE
  5
248
330
211
100
AcDbEntity
  8
0
  6
Continuous
 62
     2
100
AcDbLine
 10
30.101434
 20
2.033520999999999
 30
0.0
 11
30.101434
 21
2.156270999999999
 31
0.0
  0
LINE
  5
249
330
211
100
AcDbEntity
  8
0
  6
Continuous
 62
     2
100
AcDbLine
 10
30.101434
 20
2.223270999999999
 30
0.0
 11
30.101434
 21
2.314770999999999
 31
0.0
  0
LINE
  5
24A
330
211
100
AcDbEntity
  8
0
  6
Continuous
 62
     2
100
AcDbLine
 10
30.179559
 20
2.033520999999999
 30
0.0
 11
30.179559
 21
2.156270999999999
 31
0.0
  0
LINE
  5
24B
330
211
100
AcDbEntity
  8
0
  6
Continuous
 62
     2
100
AcDbLine
 10
30.179559
 20
2.223270999999999
 30
0.0
 11
30.179559
 21
2.314770999999999
 31
0.0
  0
LINE
  5
24C
330
211
100
AcDbEntity
  8
0
  6
Continuous
 62
     2
100
AcDbLine
 10
30.246559
 20
2.314770999999999
 30
0.0
 11
30.246559
 21
2.033520999999999
 31
0.0
  0
LINE
  5
24D
330
211
100
AcDbEntity
  8
0
  6
Continuous
 62
     2
100
AcDbLine
 10
30.101434
 20
2.223270999999999
 30
0.0
 11
30.179559
 21
2.223270999999999
 31
0.0
  0
LINE
  5
24E
330
211
100
AcDbEntity
  8
0
  6
Continuous
 62
     2
100
AcDbLine
 10
30.101434
 20
2.156270999999999
 30
0.0
 11
30.179559
 21
2.156270999999999
 31
0.0
  0
LINE
  5
24F
330
211
100
AcDbEntity
  8
0
  6
Continuous
 62
     2
100
AcDbLine
 10
30.179559
 20
2.033520999999999
 30
0.0
 11
30.246559
 21
2.033520999999999
 31
0.0
  0
LINE
  5
250
330
211
100
AcDbEntity
  8
0
  6
Continuous
 62
     2
100
AcDbLine
 10
30.034434
 20
2.033520999999999
 30
0.0
 11
30.101434
 21
2.033520999999999
 31
0.0
  0
LINE
  5
251
330
211
100
AcDbEntity
  8
0
  6
Continuous
 62
     2
100
AcDbLine
 10
30.179559
 20
2.314770999999999
 30
0.0
 11
30.246559
 21
2.314770999999999
 31
0.0
  0
LINE
  5
252
330
211
100
AcDbEntity
  8
0
  6
Continuous
 62
     2
100
AcDbLine
 10
30.034434
 20
2.314770999999999
 30
0.0
 11
30.101434
 21
2.314770999999999
 31
0.0
  0
LINE
  5
253
330
211
100
AcDbEntity
  8
0
  6
Continuous
 62
     2
100
AcDbLine
 10
30.277809
 20
2.314770999999999
 30
0.0
 11
30.277809
 21
2.033520999999999
 31
0.0
  0
LINE
  5
254
330
211
100
AcDbEntity
  8
0
  6
Continuous
 62
     2
100
AcDbLine
 10
30.434059
 20
2.100521
 30
0.0
 11
30.434059
 21
2.033520999999999
 31
0.0
  0
LINE
  5
255
330
211
100
AcDbEntity
  8
0
  6
Continuous
 62
     2
100
AcDbLine
 10
30.277809
 20
2.033520999999999
 30
0.0
 11
30.434059
 21
2.033520999999999
 31
0.0
  0
LINE
  5
256
330
211
100
AcDbEntity
  8
0
  6
Continuous
 62
     2
100
AcDbLine
 10
30.344809
 20
2.100521
 30
0.0
 11
30.344809
 21
2.314770999999999
 31
0.0
  0
LINE
  5
257
330
211
100
AcDbEntity
  8
0
  6
Continuous
 62
     2
100
AcDbLine
 10
30.344809
 20
2.100521
 30
0.0
 11
30.434059
 21
2.100521
 31
0.0
  0
LINE
  5
258
330
211
100
AcDbEntity
  8
0
  6
Continuous
 62
     2
100
AcDbLine
 10
30.277809
 20
2.314770999999999
 30
0.0
 11
30.344809
 21
2.314770999999999
 31
0.0
  0
LINE
  5
259
330
211
100
AcDbEntity
  8
0
  6
Continuous
 62
     2
100
AcDbLine
 10
30.465309
 20
2.033520999999999
 30
0.0
 11
30.621559
 21
2.033520999999999
 31
0.0
  0
LINE
  5
25A
330
211
100
AcDbEntity
  8
0
  6
Continuous
 62
     2
100
AcDbLine
 10
30.621559
 20
2.100521
 30
0.0
 11
30.621559
 21
2.033520999999999
 31
0.0
  0
LINE
  5
25B
330
211
100
AcDbEntity
  8
0
  6
Continuous
 62
     2
100
AcDbLine
 10
30.532309
 20
2.100521
 30
0.0
 11
30.621559
 21
2.100521
 31
0.0
  0
LINE
  5
25C
330
211
100
AcDbEntity
  8
0
  6
Continuous
 62
     2
100
AcDbLine
 10
30.532309
 20
2.148458499999999
 30
0.0
 11
30.532309
 21
2.100521
 31
0.0
  0
LINE
  5
25D
330
211
100
AcDbEntity
  8
0
  6
Continuous
 62
     2
100
AcDbLine
 10
30.532309
 20
2.247771
 30
0.0
 11
30.621559
 21
2.247771
 31
0.0
  0
LINE
  5
25E
330
211
100
AcDbEntity
  8
0
  6
Continuous
 62
     2
100
AcDbLine
 10
30.465309
 20
2.314770999999999
 30
0.0
 11
30.465309
 21
2.033520999999999
 31
0.0
  0
LINE
  5
25F
330
211
100
AcDbEntity
  8
0
  6
Continuous
 62
     2
100
AcDbLine
 10
30.621559
 20
2.247771
 30
0.0
 11
30.621559
 21
2.314770999999999
 31
0.0
  0
LINE
  5
260
330
211
100
AcDbEntity
  8
0
  6
Continuous
 62
     2
100
AcDbLine
 10
30.465309
 20
2.314770999999999
 30
0.0
 11
30.621559
 21
2.314770999999999
 31
0.0
  0
LINE
  5
261
330
211
100
AcDbEntity
  8
0
  6
Continuous
 62
     2
100
AcDbLine
 10
30.532309
 20
2.199833499999999
 30
0.0
 11
30.621559
 21
2.199833499999999
 31
0.0
  0
LINE
  5
262
330
211
100
AcDbEntity
  8
0
  6
Continuous
 62
     2
100
AcDbLine
 10
30.621559
 20
2.199833499999999
 30
0.0
 11
30.621559
 21
2.148458499999999
 31
0.0
  0
LINE
  5
263
330
211
100
AcDbEntity
  8
0
  6
Continuous
 62
     2
100
AcDbLine
 10
30.532309
 20
2.148458499999999
 30
0.0
 11
30.621559
 21
2.148458499999999
 31
0.0
  0
LINE
  5
264
330
211
100
AcDbEntity
  8
0
  6
Continuous
 62
     2
100
AcDbLine
 10
30.532309
 20
2.199833499999999
 30
0.0
 11
30.532309
 21
2.247771
 31
0.0
  0
LINE
  5
265
330
211
100
AcDbEntity
  8
0
  6
Continuous
 62
     2
100
AcDbLine
 10
30.652809
 20
2.033520999999999
 30
0.0
 11
30.652809
 21
2.314770999999999
 31
0.0
  0
LINE
  5
266
330
211
100
AcDbEntity
  8
0
  6
Continuous
 62
     2
100
AcDbLine
 10
30.719809
 20
2.142895999999999
 30
0.0
 11
30.719809
 21
2.033520999999999
 31
0.0
  0
ARC
  5
267
330
211
100
AcDbEntity
  8
0
  6
Continuous
 62
     2
100
AcDbCircle
 10
30.7543715
 20
2.228833499999999
 30
0.0
 40
0.0859375
100
AcDbArc
 50
304.1679402531
 51
90.0
  0
LINE
  5
268
330
211
100
AcDbEntity
  8
0
  6
Continuous
 62
     2
100
AcDbLine
 10
30.7543715
 20
2.314770999999999
 30
0.0
 11
30.652809
 21
2.314770999999999
 31
0.0
  0
LINE
  5
269
330
211
100
AcDbEntity
  8
0
  6
Continuous
 62
     2
100
AcDbLine
 10
30.753184
 20
2.260270999999999
 30
0.0
 11
30.719809
 21
2.260270999999999
 31
0.0
  0
LINE
  5
26A
330
211
100
AcDbEntity
  8
0
  6
Continuous
 62
     2
100
AcDbLine
 10
30.8026357616
 20
2.1577292458
 30
0.0
 11
30.871559
 21
2.033520999999999
 31
0.0
  0
LINE
  5
26B
330
211
100
AcDbEntity
  8
0
  6
Continuous
 62
     2
100
AcDbLine
 10
30.7949350526
 20
2.033520999999999
 30
0.0
 11
30.7342427922
 21
2.142895999999999
 31
0.0
  0
LINE
  5
26C
330
211
100
AcDbEntity
  8
0
  6
Continuous
 62
     2
100
AcDbLine
 10
30.652809
 20
2.033520999999999
 30
0.0
 11
30.719809
 21
2.033520999999999
 31
0.0
  0
LINE
  5
26D
330
211
100
AcDbEntity
  8
0
  6
Continuous
 62
     2
100
AcDbLine
 10
30.7949350526
 20
2.033520999999999
 30
0.0
 11
30.871559
 21
2.033520999999999
 31
0.0
  0
LINE
  5
26E
330
211
100
AcDbEntity
  8
0
  6
Continuous
 62
     2
100
AcDbLine
 10
30.753184
 20
2.198958499999999
 30
0.0
 11
30.719809
 21
2.198958499999999
 31
0.0
  0
LINE
  5
26F
330
211
100
AcDbEntity
  8
0
  6
Continuous
 62
     2
100
AcDbLine
 10
30.719809
 20
2.260270999999999
 30
0.0
 11
30.719809
 21
2.198958499999999
 31
0.0
  0
LINE
  5
270
330
211
100
AcDbEntity
  8
0
  6
Continuous
 62
     2
100
AcDbLine
 10
30.719809
 20
2.142895999999999
 30
0.0
 11
30.7342427922
 21
2.142895999999999
 31
0.0
  0
LWPOLYLINE
  5
271
330
211
100
AcDbEntity
  8
0
  6
Continuous
 62
     2
100
AcDbPolyline
 90
       14
 70
     0
 43
0.0
 10
30.871559
 20
2.033520999999999
 10
30.7949350526
 20
2.033520999999999
 10
30.7342427922
 20
2.142895999999999
 10
30.719809
 20
2.142895999999999
 10
30.719809
 20
2.033520999999999
 10
30.652809
 20
2.033520999999999
 10
30.652809
 20
2.260270999999999
 10
30.719809
 20
2.260270999999999
 10
30.719809
 20
2.198958499999999
 10
30.753184
 20
2.198958499999999
 10
30.833650134
 20
2.198958499999999
 10
30.8247683179
 20
2.1795431162
 10
30.8026357616
 20
2.1577292458
 10
30.871559
 20
2.033520999999999
  0
HATCH
  5
272
330
211
100
AcDbEntity
  8
0
  6
Continuous
 62
     2
100
AcDbHatch
 10
0.0
 20
0.0
 30
0.0
210
0.0
220
0.0
230
1.0
  2
SOLID
 70
     1
 71
     1
 91
        1
 92
        1
 93
       13
 72
     1
 10
30.871559
 20
2.033520999999999
 11
30.7949350526
 21
2.033520999999999
 72
     1
 10
30.7949350526
 20
2.033520999999999
 11
30.7342427922
 21
2.142895999999999
 72
     1
 10
30.7342427922
 20
2.142895999999999
 11
30.719809
 21
2.142895999999999
 72
     1
 10
30.719809
 20
2.142895999999999
 11
30.719809
 21
2.033520999999999
 72
     1
 10
30.719809
 20
2.033520999999999
 11
30.652809
 21
2.033520999999999
 72
     1
 10
30.652809
 20
2.033520999999999
 11
30.652809
 21
2.260270999999999
 72
     1
 10
30.652809
 20
2.260270999999999
 11
30.719809
 21
2.260270999999999
 72
     1
 10
30.719809
 20
2.260270999999999
 11
30.719809
 21
2.198958499999999
 72
     1
 10
30.719809
 20
2.198958499999999
 11
30.753184
 21
2.198958499999999
 72
     1
 10
30.753184
 20
2.198958499999999
 11
30.833650134
 21
2.198958499999999
 72
     1
 10
30.833650134
 20
2.198958499999999
 11
30.8247683179
 21
2.1795431162
 72
     1
 10
30.8247683179
 20
2.1795431162
 11
30.8026357616
 21
2.1577292458
 72
     1
 10
30.8026357616
 20
2.1577292458
 11
30.871559
 21
2.033520999999999
 97
        1
330
271
 75
     0
 76
     1
 98
        1
 10
0.0
 20
0.0
450
        0
451
        0
460
0.0
461
0.0
452
        0
462
0.0
453
        0
470

  0
LWPOLYLINE
  5
273
330
211
100
AcDbEntity
  8
0
  6
Continuous
 62
     2
100
AcDbPolyline
 90
       18
 70
     0
 43
0.0
 10
30.652809
 20
2.260270999999999
 10
30.652809
 20
2.314770999999999
 10
30.7543715
 20
2.314770999999999
 10
30.7849349823
 20
2.309152410999999
 10
30.811501987
 20
2.293031329899999
 10
30.8305986155
 20
2.268515747599999
 10
30.8397277946
 20
2.238811318999999
 10
30.8376957941
 20
2.207802191799999
 10
30.833650134
 20
2.198958499999999
 10
30.753184
 20
2.198958499999999
 10
30.768512125
 20
2.203065658699999
 10
30.7797330913
 20
2.214286625
 10
30.78384025
 20
2.22961475
 10
30.7797330913
 20
2.244942875
 10
30.768512125
 20
2.256163841299999
 10
30.753184
 20
2.260270999999999
 10
30.719809
 20
2.260270999999999
 10
30.652809
 20
2.260270999999999
  0
HATCH
  5
274
330
211
100
AcDbEntity
  8
0
  6
Continuous
 62
     2
100
AcDbHatch
 10
0.0
 20
0.0
 30
0.0
210
0.0
220
0.0
230
1.0
  2
SOLID
 70
     1
 71
     1
 91
        1
 92
        1
 93
       17
 72
     1
 10
30.652809
 20
2.260270999999999
 11
30.652809
 21
2.314770999999999
 72
     1
 10
30.652809
 20
2.314770999999999
 11
30.7543715
 21
2.314770999999999
 72
     1
 10
30.7543715
 20
2.314770999999999
 11
30.7849349823
 21
2.309152410999999
 72
     1
 10
30.7849349823
 20
2.309152410999999
 11
30.811501987
 21
2.293031329899999
 72
     1
 10
30.811501987
 20
2.293031329899999
 11
30.8305986155
 21
2.268515747599999
 72
     1
 10
30.8305986155
 20
2.268515747599999
 11
30.8397277946
 21
2.238811318999999
 72
     1
 10
30.8397277946
 20
2.238811318999999
 11
30.8376957941
 21
2.207802191799999
 72
     1
 10
30.8376957941
 20
2.207802191799999
 11
30.833650134
 21
2.198958499999999
 72
     1
 10
30.833650134
 20
2.198958499999999
 11
30.753184
 21
2.198958499999999
 72
     1
 10
30.753184
 20
2.198958499999999
 11
30.768512125
 21
2.203065658699999
 72
     1
 10
30.768512125
 20
2.203065658699999
 11
30.7797330913
 21
2.214286625
 72
     1
 10
30.7797330913
 20
2.214286625
 11
30.78384025
 21
2.22961475
 72
     1
 10
30.78384025
 20
2.22961475
 11
30.7797330913
 21
2.244942875
 72
     1
 10
30.7797330913
 20
2.244942875
 11
30.768512125
 21
2.256163841299999
 72
     1
 10
30.768512125
 20
2.256163841299999
 11
30.753184
 21
2.260270999999999
 72
     1
 10
30.753184
 20
2.260270999999999
 11
30.719809
 21
2.260270999999999
 72
     1
 10
30.719809
 20
2.260270999999999
 11
30.652809
 21
2.260270999999999
 97
        1
330
273
 75
     0
 76
     1
 98
        1
 10
0.0
 20
0.0
450
        0
451
        0
460
0.0
461
0.0
452
        0
462
0.0
453
        0
470

  0
LWPOLYLINE
  5
275
330
211
100
AcDbEntity
  8
0
  6
Continuous
 62
     2
100
AcDbPolyline
 90
       12
 70
     0
 43
0.0
 10
29.570184
 20
2.033520999999999
 10
29.503184
 20
2.033520999999999
 10
29.503184
 20
2.314770999999999
 10
29.570184
 20
2.314770999999999
 10
29.570184
 20
2.2265233087
 10
29.6584316913
 20
2.314770999999999
 10
29.753184
 20
2.314770999999999
 10
29.628184
 20
2.189770999999999
 10
29.753184
 20
2.033520999999999
 10
29.6673821352
 20
2.033520999999999
 10
29.570184
 20
2.155018668999999
 10
29.570184
 20
2.033520999999999
  0
HATCH
  5
276
330
211
100
AcDbEntity
  8
0
  6
Continuous
 62
     2
100
AcDbHatch
 10
0.0
 20
0.0
 30
0.0
210
0.0
220
0.0
230
1.0
  2
SOLID
 70
     1
 71
     1
 91
        1
 92
        1
 93
       11
 72
     1
 10
29.570184
 20
2.033520999999999
 11
29.503184
 21
2.033520999999999
 72
     1
 10
29.503184
 20
2.033520999999999
 11
29.503184
 21
2.314770999999999
 72
     1
 10
29.503184
 20
2.314770999999999
 11
29.570184
 21
2.314770999999999
 72
     1
 10
29.570184
 20
2.314770999999999
 11
29.570184
 21
2.2265233087
 72
     1
 10
29.570184
 20
2.2265233087
 11
29.6584316913
 21
2.314770999999999
 72
     1
 10
29.6584316913
 20
2.314770999999999
 11
29.753184
 21
2.314770999999999
 72
     1
 10
29.753184
 20
2.314770999999999
 11
29.628184
 21
2.189770999999999
 72
     1
 10
29.628184
 20
2.189770999999999
 11
29.753184
 21
2.033520999999999
 72
     1
 10
29.753184
 20
2.033520999999999
 11
29.6673821352
 21
2.033520999999999
 72
     1
 10
29.6673821352
 20
2.033520999999999
 11
29.570184
 21
2.155018668999999
 72
     1
 10
29.570184
 20
2.155018668999999
 11
29.570184
 21
2.033520999999999
 97
        1
330
275
 75
     0
 76
     1
 98
        1
 10
0.0
 20
0.0
450
        0
451
        0
460
0.0
461
0.0
452
        0
462
0.0
453
        0
470

  0
LWPOLYLINE
  5
277
330
211
100
AcDbEntity
  8
0
  6
Continuous
 62
     2
100
AcDbPolyline
 90
       23
 70
     0
 43
0.0
 10
29.862559
 20
2.033520999999999
 10
29.8191034852
 20
2.0404036774
 10
29.7799016989
 20
2.0603779852
 10
29.7487909852
 20
2.0914886989
 10
29.7288166774
 20
2.1306904852
 10
29.721934
 20
2.174145999999999
 10
29.7288166774
 20
2.2176015148
 10
29.7440287706
 20
2.2474569287
 10
29.869352258
 20
2.2474569287
 10
29.8424105624
 20
2.244960412999999
 10
29.8181900249
 20
2.2329000184
 10
29.7999617634
 20
2.212904567999999
 10
29.7901876055
 20
2.187674558199999
 10
29.7901876055
 20
2.160617441799999
 10
29.7999617634
 20
2.135387431999999
 10
29.8181900249
 20
2.1153919816
 10
29.8424105624
 20
2.103331587
 10
29.869352258
 20
2.1008350713
 10
29.9810892294
 20
2.1008350713
 10
29.9763270148
 20
2.0914886989
 10
29.9452163011
 20
2.0603779852
 10
29.9060145148
 20
2.0404036774
 10
29.862559
 20
2.033520999999999
  0
HATCH
  5
278
330
211
100
AcDbEntity
  8
0
  6
Continuous
 62
     2
100
AcDbHatch
 10
0.0
 20
0.0
 30
0.0
210
0.0
220
0.0
230
1.0
  2
SOLID
 70
     1
 71
     1
 91
        1
 92
        1
 93
       22
 72
     1
 10
29.862559
 20
2.033520999999999
 11
29.8191034852
 21
2.0404036774
 72
     1
 10
29.8191034852
 20
2.0404036774
 11
29.7799016989
 21
2.0603779852
 72
     1
 10
29.7799016989
 20
2.0603779852
 11
29.7487909852
 21
2.0914886989
 72
     1
 10
29.7487909852
 20
2.0914886989
 11
29.7288166774
 21
2.1306904852
 72
     1
 10
29.7288166774
 20
2.1306904852
 11
29.721934
 21
2.174145999999999
 72
     1
 10
29.721934
 20
2.174145999999999
 11
29.7288166774
 21
2.2176015148
 72
     1
 10
29.7288166774
 20
2.2176015148
 11
29.7440287706
 21
2.2474569287
 72
     1
 10
29.7440287706
 20
2.2474569287
 11
29.869352258
 21
2.2474569287
 72
     1
 10
29.869352258
 20
2.2474569287
 11
29.8424105624
 21
2.244960412999999
 72
     1
 10
29.8424105624
 20
2.244960412999999
 11
29.8181900249
 21
2.2329000184
 72
     1
 10
29.8181900249
 20
2.2329000184
 11
29.7999617634
 21
2.212904567999999
 72
     1
 10
29.7999617634
 20
2.212904567999999
 11
29.7901876055
 21
2.187674558199999
 72
     1
 10
29.7901876055
 20
2.187674558199999
 11
29.7901876055
 21
2.160617441799999
 72
     1
 10
29.7901876055
 20
2.160617441799999
 11
29.7999617634
 21
2.135387431999999
 72
     1
 10
29.7999617634
 20
2.135387431999999
 11
29.8181900249
 21
2.1153919816
 72
     1
 10
29.8181900249
 20
2.1153919816
 11
29.8424105624
 21
2.103331587
 72
     1
 10
29.8424105624
 20
2.103331587
 11
29.869352258
 21
2.1008350713
 72
     1
 10
29.869352258
 20
2.1008350713
 11
29.9810892294
 21
2.1008350713
 72
     1
 10
29.9810892294
 20
2.1008350713
 11
29.9763270148
 21
2.0914886989
 72
     1
 10
29.9763270148
 20
2.0914886989
 11
29.9452163011
 21
2.0603779852
 72
     1
 10
29.9452163011
 20
2.0603779852
 11
29.9060145148
 21
2.0404036774
 72
     1
 10
29.9060145148
 20
2.0404036774
 11
29.862559
 21
2.033520999999999
 97
        1
330
277
 75
     0
 76
     1
 98
        1
 10
0.0
 20
0.0
450
        0
451
        0
460
0.0
461
0.0
452
        0
462
0.0
453
        0
470

  0
LWPOLYLINE
  5
279
330
211
100
AcDbEntity
  8
0
  6
Continuous
 62
     2
100
AcDbPolyline
 90
       22
 70
     0
 43
0.0
 10
29.7440287706
 20
2.2474569287
 10
29.7487909852
 20
2.2568033011
 10
29.7799016989
 20
2.2879140148
 10
29.8191034852
 20
2.3078883226
 10
29.862559
 20
2.314770999999999
 10
29.9060145148
 20
2.3078883226
 10
29.9452163011
 20
2.2879140148
 10
29.9763270148
 20
2.2568033011
 10
29.9963013226
 20
2.2176015148
 10
30.003184
 20
2.174145999999999
 10
29.9963013226
 20
2.1306904852
 10
29.9810892294
 20
2.1008350713
 10
29.869352258
 20
2.1008350713
 10
29.8953764864
 20
2.108239602699999
 10
29.9169685315
 20
2.1245451582
 10
29.9312122679
 20
2.147549582299999
 10
29.936184
 20
2.174145999999999
 10
29.9312122679
 20
2.200742417699999
 10
29.9169685315
 20
2.2237468418
 10
29.8953764864
 20
2.240052397299999
 10
29.869352258
 20
2.2474569287
 10
29.7440287706
 20
2.2474569287
  0
HATCH
  5
27A
330
211
100
AcDbEntity
  8
0
  6
Continuous
 62
     2
100
AcDbHatch
 10
0.0
 20
0.0
 30
0.0
210
0.0
220
0.0
230
1.0
  2
SOLID
 70
     1
 71
     1
 91
        1
 92
        1
 93
       21
 72
     1
 10
29.7440287706
 20
2.2474569287
 11
29.7487909852
 21
2.2568033011
 72
     1
 10
29.7487909852
 20
2.2568033011
 11
29.7799016989
 21
2.2879140148
 72
     1
 10
29.7799016989
 20
2.2879140148
 11
29.8191034852
 21
2.3078883226
 72
     1
 10
29.8191034852
 20
2.3078883226
 11
29.862559
 21
2.314770999999999
 72
     1
 10
29.862559
 20
2.314770999999999
 11
29.9060145148
 21
2.3078883226
 72
     1
 10
29.9060145148
 20
2.3078883226
 11
29.9452163011
 21
2.2879140148
 72
     1
 10
29.9452163011
 20
2.2879140148
 11
29.9763270148
 21
2.2568033011
 72
     1
 10
29.9763270148
 20
2.2568033011
 11
29.9963013226
 21
2.2176015148
 72
     1
 10
29.9963013226
 20
2.2176015148
 11
30.003184
 21
2.174145999999999
 72
     1
 10
30.003184
 20
2.174145999999999
 11
29.9963013226
 21
2.1306904852
 72
     1
 10
29.9963013226
 20
2.1306904852
 11
29.9810892294
 21
2.1008350713
 72
     1
 10
29.9810892294
 20
2.1008350713
 11
29.869352258
 21
2.1008350713
 72
     1
 10
29.869352258
 20
2.1008350713
 11
29.8953764864
 21
2.108239602699999
 72
     1
 10
29.8953764864
 20
2.108239602699999
 11
29.9169685315
 21
2.1245451582
 72
     1
 10
29.9169685315
 20
2.1245451582
 11
29.9312122679
 21
2.147549582299999
 72
     1
 10
29.9312122679
 20
2.147549582299999
 11
29.936184
 21
2.174145999999999
 72
     1
 10
29.936184
 20
2.174145999999999
 11
29.9312122679
 21
2.200742417699999
 72
     1
 10
29.9312122679
 20
2.200742417699999
 11
29.9169685315
 21
2.2237468418
 72
     1
 10
29.9169685315
 20
2.2237468418
 11
29.8953764864
 21
2.240052397299999
 72
     1
 10
29.8953764864
 20
2.240052397299999
 11
29.869352258
 21
2.2474569287
 72
     1
 10
29.869352258
 20
2.2474569287
 11
29.7440287706
 21
2.2474569287
 97
        1
330
279
 75
     0
 76
     1
 98
        1
 10
0.0
 20
0.0
450
        0
451
        0
460
0.0
461
0.0
452
        0
462
0.0
453
        0
470

  0
LWPOLYLINE
  5
27B
330
211
100
AcDbEntity
  8
0
  6
Continuous
 62
     2
100
AcDbPolyline
 90
       13
 70
     0
 43
0.0
 10
30.101434
 20
2.033520999999999
 10
30.034434
 20
2.033520999999999
 10
30.034434
 20
2.314770999999999
 10
30.101434
 20
2.314770999999999
 10
30.101434
 20
2.223270999999999
 10
30.179559
 20
2.223270999999999
 10
30.179559
 20
2.314770999999999
 10
30.246559
 20
2.314770999999999
 10
30.246559
 20
2.033520999999999
 10
30.179559
 20
2.033520999999999
 10
30.179559
 20
2.156270999999999
 10
30.101434
 20
2.156270999999999
 10
30.101434
 20
2.033520999999999
  0
HATCH
  5
27C
330
211
100
AcDbEntity
  8
0
  6
Continuous
 62
     2
100
AcDbHatch
 10
0.0
 20
0.0
 30
0.0
210
0.0
220
0.0
230
1.0
  2
SOLID
 70
     1
 71
     1
 91
        1
 92
        1
 93
       12
 72
     1
 10
30.101434
 20
2.033520999999999
 11
30.034434
 21
2.033520999999999
 72
     1
 10
30.034434
 20
2.033520999999999
 11
30.034434
 21
2.314770999999999
 72
     1
 10
30.034434
 20
2.314770999999999
 11
30.101434
 21
2.314770999999999
 72
     1
 10
30.101434
 20
2.314770999999999
 11
30.101434
 21
2.223270999999999
 72
     1
 10
30.101434
 20
2.223270999999999
 11
30.179559
 21
2.223270999999999
 72
     1
 10
30.179559
 20
2.223270999999999
 11
30.179559
 21
2.314770999999999
 72
     1
 10
30.179559
 20
2.314770999999999
 11
30.246559
 21
2.314770999999999
 72
     1
 10
30.246559
 20
2.314770999999999
 11
30.246559
 21
2.033520999999999
 72
     1
 10
30.246559
 20
2.033520999999999
 11
30.179559
 21
2.033520999999999
 72
     1
 10
30.179559
 20
2.033520999999999
 11
30.179559
 21
2.156270999999999
 72
     1
 10
30.179559
 20
2.156270999999999
 11
30.101434
 21
2.156270999999999
 72
     1
 10
30.101434
 20
2.156270999999999
 11
30.101434
 21
2.033520999999999
 97
        1
330
27B
 75
     0
 76
     1
 98
        1
 10
0.0
 20
0.0
450
        0
451
        0
460
0.0
461
0.0
452
        0
462
0.0
453
        0
470

  0
LWPOLYLINE
  5
27D
330
211
100
AcDbEntity
  8
0
  6
Continuous
 62
     2
100
AcDbPolyline
 90
        7
 70
     0
 43
0.0
 10
30.434059
 20
2.033520999999999
 10
30.277809
 20
2.033520999999999
 10
30.277809
 20
2.314770999999999
 10
30.344809
 20
2.314770999999999
 10
30.344809
 20
2.100521
 10
30.434059
 20
2.100521
 10
30.434059
 20
2.033520999999999
  0
HATCH
  5
27E
330
211
100
AcDbEntity
  8
0
  6
Continuous
 62
     2
100
AcDbHatch
 10
0.0
 20
0.0
 30
0.0
210
0.0
220
0.0
230
1.0
  2
SOLID
 70
     1
 71
     1
 91
        1
 92
        1
 93
        6
 72
     1
 10
30.434059
 20
2.033520999999999
 11
30.277809
 21
2.033520999999999
 72
     1
 10
30.277809
 20
2.033520999999999
 11
30.277809
 21
2.314770999999999
 72
     1
 10
30.277809
 20
2.314770999999999
 11
30.344809
 21
2.314770999999999
 72
     1
 10
30.344809
 20
2.314770999999999
 11
30.344809
 21
2.100521
 72
     1
 10
30.344809
 20
2.100521
 11
30.434059
 21
2.100521
 72
     1
 10
30.434059
 20
2.100521
 11
30.434059
 21
2.033520999999999
 97
        1
330
27D
 75
     0
 76
     1
 98
        1
 10
0.0
 20
0.0
450
        0
451
        0
460
0.0
461
0.0
452
        0
462
0.0
453
        0
470

  0
LWPOLYLINE
  5
27F
330
211
100
AcDbEntity
  8
0
  6
Continuous
 62
     2
100
AcDbPolyline
 90
       13
 70
     0
 43
0.0
 10
30.621559
 20
2.033520999999999
 10
30.465309
 20
2.033520999999999
 10
30.465309
 20
2.314770999999999
 10
30.621559
 20
2.314770999999999
 10
30.621559
 20
2.247771
 10
30.532309
 20
2.247771
 10
30.532309
 20
2.199833499999999
 10
30.621559
 20
2.199833499999999
 10
30.621559
 20
2.148458499999999
 10
30.532309
 20
2.148458499999999
 10
30.532309
 20
2.100521
 10
30.621559
 20
2.100521
 10
30.621559
 20
2.033520999999999
  0
HATCH
  5
280
330
211
100
AcDbEntity
  8
0
  6
Continuous
 62
     2
100
AcDbHatch
 10
0.0
 20
0.0
 30
0.0
210
0.0
220
0.0
230
1.0
  2
SOLID
 70
     1
 71
     1
 91
        1
 92
        1
 93
       12
 72
     1
 10
30.621559
 20
2.033520999999999
 11
30.465309
 21
2.033520999999999
 72
     1
 10
30.465309
 20
2.033520999999999
 11
30.465309
 21
2.314770999999999
 72
     1
 10
30.465309
 20
2.314770999999999
 11
30.621559
 21
2.314770999999999
 72
     1
 10
30.621559
 20
2.314770999999999
 11
30.621559
 21
2.247771
 72
     1
 10
30.621559
 20
2.247771
 11
30.532309
 21
2.247771
 72
     1
 10
30.532309
 20
2.247771
 11
30.532309
 21
2.199833499999999
 72
     1
 10
30.532309
 20
2.199833499999999
 11
30.621559
 21
2.199833499999999
 72
     1
 10
30.621559
 20
2.199833499999999
 11
30.621559
 21
2.148458499999999
 72
     1
 10
30.621559
 20
2.148458499999999
 11
30.532309
 21
2.148458499999999
 72
     1
 10
30.532309
 20
2.148458499999999
 11
30.532309
 21
2.100521
 72
     1
 10
30.532309
 20
2.100521
 11
30.621559
 21
2.100521
 72
     1
 10
30.621559
 20
2.100521
 11
30.621559
 21
2.033520999999999
 97
        1
330
27F
 75
     0
 76
     1
 98
        1
 10
0.0
 20
0.0
450
        0
451
        0
460
0.0
461
0.0
452
        0
462
0.0
453
        0
470

  0
ENDBLK
  5
281
330
211
100
AcDbEntity
  8
0
  6
ByBlock
 62
     0
100
AcDbBlockEnd
  0
BLOCK
  5
282
330
212
100
AcDbEntity
  8
0
  6
Continuous
 62
     2
100
AcDbBlockBegin
  2
C_ARROW_BL1
 70
     0
 10
17.0
 20
0.3125
 30
0.0
  3
C_ARROW_BL1
  1

  0
LINE
  5
283
330
212
100
AcDbEntity
  8
0
  6
Continuous
100
AcDbLine
 10
17.0
 20
0.5
 30
0.0
 11
16.90625
 21
0.3125
 31
0.0
  0
LINE
  5
284
330
212
100
AcDbEntity
  8
0
  6
Continuous
100
AcDbLine
 10
17.0
 20
0.5
 30
0.0
 11
17.09375
 21
0.3125
 31
0.0
  0
LINE
  5
285
330
212
100
AcDbEntity
  8
0
  6
Continuous
100
AcDbLine
 10
17.0234375
 20
0.3125
 30
0.0
 11
17.09375
 21
0.3125
 31
0.0
  0
LINE
  5
286
330
212
100
AcDbEntity
  8
0
  6
Continuous
100
AcDbLine
 10
17.0234375
 20
0.125
 30
0.0
 11
17.0234375
 21
0.3125
 31
0.0
  0
LINE
  5
287
330
212
100
AcDbEntity
  8
0
  6
Continuous
100
AcDbLine
 10
17.0234375
 20
0.125
 30
0.0
 11
16.9765625
 21
0.125
 31
0.0
  0
LINE
  5
288
330
212
100
AcDbEntity
  8
0
  6
Continuous
100
AcDbLine
 10
16.9765625
 20
0.3125
 30
0.0
 11
16.9765625
 21
0.125
 31
0.0
  0
LINE
  5
289
330
212
100
AcDbEntity
  8
0
  6
Continuous
100
AcDbLine
 10
16.90625
 20
0.3125
 30
0.0
 11
16.9765625
 21
0.3125
 31
0.0
  0
LWPOLYLINE
  5
28A
330
212
100
AcDbEntity
  8
0
  6
Continuous
 62
     7
100
AcDbPolyline
 90
        8
 70
     0
 43
0.0
 10
17.0
 20
0.5
 10
17.09375
 20
0.3125
 10
17.0234375
 20
0.3125
 10
17.0234375
 20
0.125
 10
16.9765625
 20
0.125
 10
16.9765625
 20
0.3125
 10
16.90625
 20
0.3125
 10
17.0
 20
0.5
  0
HATCH
  5
28B
330
212
100
AcDbEntity
  8
0
  6
Continuous
 62
     7
100
AcDbHatch
 10
0.0
 20
0.0
 30
0.0
210
0.0
220
0.0
230
1.0
  2
SOLID
 70
     1
 71
     1
 91
        1
 92
        1
 93
        7
 72
     1
 10
17.0
 20
0.5
 11
17.09375
 21
0.3125
 72
     1
 10
17.09375
 20
0.3125
 11
17.0234375
 21
0.3125
 72
     1
 10
17.0234375
 20
0.3125
 11
17.0234375
 21
0.125
 72
     1
 10
17.0234375
 20
0.125
 11
16.9765625
 21
0.125
 72
     1
 10
16.9765625
 20
0.125
 11
16.9765625
 21
0.3125
 72
     1
 10
16.9765625
 20
0.3125
 11
16.90625
 21
0.3125
 72
     1
 10
16.90625
 20
0.3125
 11
17.0
 21
0.5
 97
        1
330
28A
 75
     0
 76
     1
 98
        1
 10
0.0
 20
0.0
450
        0
451
        0
460
0.0
461
0.0
452
        0
462
0.0
453
        0
470

  0
ENDBLK
  5
28C
330
212
100
AcDbEntity
  8
0
  6
ByBlock
 62
     0
100
AcDbBlockEnd
  0
BLOCK
  5
28D
330
213
100
AcDbEntity
  8
0
  6
Continuous
 62
     2
100
AcDbBlockBegin
  2
C_ARROW_BL2
 70
     0
 10
17.0
 20
21.6875
 30
0.0
  3
C_ARROW_BL2
  1

  0
LINE
  5
28E
330
213
100
AcDbEntity
  8
0
  6
Continuous
100
AcDbLine
 10
17.0
 20
21.5
 30
0.0
 11
17.09375
 21
21.6875
 31
0.0
  0
LINE
  5
28F
330
213
100
AcDbEntity
  8
0
  6
Continuous
100
AcDbLine
 10
17.0
 20
21.5
 30
0.0
 11
16.90625
 21
21.6875
 31
0.0
  0
LINE
  5
290
330
213
100
AcDbEntity
  8
0
  6
Continuous
100
AcDbLine
 10
16.9765625
 20
21.6875
 30
0.0
 11
16.90625
 21
21.6875
 31
0.0
  0
LINE
  5
291
330
213
100
AcDbEntity
  8
0
  6
Continuous
100
AcDbLine
 10
16.9765625
 20
21.875
 30
0.0
 11
16.9765625
 21
21.6875
 31
0.0
  0
LINE
  5
292
330
213
100
AcDbEntity
  8
0
  6
Continuous
100
AcDbLine
 10
16.9765625
 20
21.875
 30
0.0
 11
17.0234375
 21
21.875
 31
0.0
  0
LINE
  5
293
330
213
100
AcDbEntity
  8
0
  6
Continuous
100
AcDbLine
 10
17.0234375
 20
21.6875
 30
0.0
 11
17.0234375
 21
21.875
 31
0.0
  0
LINE
  5
294
330
213
100
AcDbEntity
  8
0
  6
Continuous
100
AcDbLine
 10
17.09375
 20
21.6875
 30
0.0
 11
17.0234375
 21
21.6875
 31
0.0
  0
LWPOLYLINE
  5
295
330
213
100
AcDbEntity
  8
0
  6
Continuous
 62
     7
100
AcDbPolyline
 90
        8
 70
     0
 43
0.0
 10
17.0
 20
21.5
 10
16.90625
 20
21.6875
 10
16.9765625
 20
21.6875
 10
16.9765625
 20
21.875
 10
17.0234375
 20
21.875
 10
17.0234375
 20
21.6875
 10
17.09375
 20
21.6875
 10
17.0
 20
21.5
  0
HATCH
  5
296
330
213
100
AcDbEntity
  8
0
  6
Continuous
 62
     7
100
AcDbHatch
 10
0.0
 20
0.0
 30
0.0
210
0.0
220
0.0
230
1.0
  2
SOLID
 70
     1
 71
     1
 91
        1
 92
        1
 93
        7
 72
     1
 10
17.0
 20
21.5
 11
16.90625
 21
21.6875
 72
     1
 10
16.90625
 20
21.6875
 11
16.9765625
 21
21.6875
 72
     1
 10
16.9765625
 20
21.6875
 11
16.9765625
 21
21.875
 72
     1
 10
16.9765625
 20
21.875
 11
17.0234375
 21
21.875
 72
     1
 10
17.0234375
 20
21.875
 11
17.0234375
 21
21.6875
 72
     1
 10
17.0234375
 20
21.6875
 11
17.09375
 21
21.6875
 72
     1
 10
17.09375
 20
21.6875
 11
17.0
 21
21.5
 97
        1
330
295
 75
     0
 76
     1
 98
        1
 10
0.0
 20
0.0
450
        0
451
        0
460
0.0
461
0.0
452
        0
462
0.0
453
        0
470

  0
ENDBLK
  5
297
330
213
100
AcDbEntity
  8
0
  6
ByBlock
 62
     0
100
AcDbBlockEnd
  0
BLOCK
  5
298
330
214
100
AcDbEntity
  8
0
  6
Continuous
 62
     2
100
AcDbBlockBegin
  2
C_ARROW_BL3
 70
     0
 10
0.3125
 20
11.0
 30
0.0
  3
C_ARROW_BL3
  1

  0
LINE
  5
299
330
214
100
AcDbEntity
  8
0
  6
Continuous
100
AcDbLine
 10
0.5
 20
11.0
 30
0.0
 11
0.3125
 21
11.09375
 31
0.0
  0
LINE
  5
29A
330
214
100
AcDbEntity
  8
0
  6
Continuous
100
AcDbLine
 10
0.5
 20
11.0
 30
0.0
 11
0.3125
 21
10.90625
 31
0.0
  0
LINE
  5
29B
330
214
100
AcDbEntity
  8
0
  6
Continuous
100
AcDbLine
 10
0.3125
 20
10.9765625
 30
0.0
 11
0.3125
 21
10.90625
 31
0.0
  0
LINE
  5
29C
330
214
100
AcDbEntity
  8
0
  6
Continuous
100
AcDbLine
 10
0.125
 20
10.9765625
 30
0.0
 11
0.3125
 21
10.9765625
 31
0.0
  0
LINE
  5
29D
330
214
100
AcDbEntity
  8
0
  6
Continuous
100
AcDbLine
 10
0.125
 20
10.9765625
 30
0.0
 11
0.125
 21
11.0234375
 31
0.0
  0
LINE
  5
29E
330
214
100
AcDbEntity
  8
0
  6
Continuous
100
AcDbLine
 10
0.3125
 20
11.0234375
 30
0.0
 11
0.125
 21
11.0234375
 31
0.0
  0
LINE
  5
29F
330
214
100
AcDbEntity
  8
0
  6
Continuous
100
AcDbLine
 10
0.3125
 20
11.09375
 30
0.0
 11
0.3125
 21
11.0234375
 31
0.0
  0
LWPOLYLINE
  5
2A0
330
214
100
AcDbEntity
  8
0
  6
Continuous
 62
     7
100
AcDbPolyline
 90
        8
 70
     0
 43
0.0
 10
0.5
 20
11.0
 10
0.3125
 20
10.90625
 10
0.3125
 20
10.9765625
 10
0.125
 20
10.9765625
 10
0.125
 20
11.0234375
 10
0.3125
 20
11.0234375
 10
0.3125
 20
11.09375
 10
0.5
 20
11.0
  0
HATCH
  5
2A1
330
214
100
AcDbEntity
  8
0
  6
Continuous
 62
     7
100
AcDbHatch
 10
0.0
 20
0.0
 30
0.0
210
0.0
220
0.0
230
1.0
  2
SOLID
 70
     1
 71
     1
 91
        1
 92
        1
 93
        7
 72
     1
 10
0.5
 20
11.0
 11
0.3125
 21
10.90625
 72
     1
 10
0.3125
 20
10.90625
 11
0.3125
 21
10.9765625
 72
     1
 10
0.3125
 20
10.9765625
 11
0.125
 21
10.9765625
 72
     1
 10
0.125
 20
10.9765625
 11
0.125
 21
11.0234375
 72
     1
 10
0.125
 20
11.0234375
 11
0.3125
 21
11.0234375
 72
     1
 10
0.3125
 20
11.0234375
 11
0.3125
 21
11.09375
 72
     1
 10
0.3125
 20
11.09375
 11
0.5
 21
11.0
 97
        1
330
2A0
 75
     0
 76
     1
 98
        1
 10
0.0
 20
0.0
450
        0
451
        0
460
0.0
461
0.0
452
        0
462
0.0
453
        0
470

  0
ENDBLK
  5
2A2
330
214
100
AcDbEntity
  8
0
  6
ByBlock
 62
     0
100
AcDbBlockEnd
  0
BLOCK
  5
2A3
330
215
100
AcDbEntity
  8
0
  6
Continuous
 62
     2
100
AcDbBlockBegin
  2
C_ARROW_BL4
 70
     0
 10
33.6875
 20
11.0
 30
0.0
  3
C_ARROW_BL4
  1

  0
LINE
  5
2A4
330
215
100
AcDbEntity
  8
0
  6
Continuous
100
AcDbLine
 10
33.5
 20
11.0
 30
0.0
 11
33.6875
 21
10.90625
 31
0.0
  0
LINE
  5
2A5
330
215
100
AcDbEntity
  8
0
  6
Continuous
100
AcDbLine
 10
33.5
 20
11.0
 30
0.0
 11
33.6875
 21
11.09375
 31
0.0
  0
LINE
  5
2A6
330
215
100
AcDbEntity
  8
0
  6
Continuous
100
AcDbLine
 10
33.6875
 20
11.0234375
 30
0.0
 11
33.6875
 21
11.09375
 31
0.0
  0
LINE
  5
2A7
330
215
100
AcDbEntity
  8
0
  6
Continuous
100
AcDbLine
 10
33.875
 20
11.0234375
 30
0.0
 11
33.6875
 21
11.0234375
 31
0.0
  0
LINE
  5
2A8
330
215
100
AcDbEntity
  8
0
  6
Continuous
100
AcDbLine
 10
33.875
 20
11.0234375
 30
0.0
 11
33.875
 21
10.9765625
 31
0.0
  0
LINE
  5
2A9
330
215
100
AcDbEntity
  8
0
  6
Continuous
100
AcDbLine
 10
33.6875
 20
10.9765625
 30
0.0
 11
33.875
 21
10.9765625
 31
0.0
  0
LINE
  5
2AA
330
215
100
AcDbEntity
  8
0
  6
Continuous
100
AcDbLine
 10
33.6875
 20
10.90625
 30
0.0
 11
33.6875
 21
10.9765625
 31
0.0
  0
LWPOLYLINE
  5
2AB
330
215
100
AcDbEntity
  8
0
  6
Continuous
 62
     7
100
AcDbPolyline
 90
        8
 70
     0
 43
0.0
 10
33.5
 20
11.0
 10
33.6875
 20
11.09375
 10
33.6875
 20
11.0234375
 10
33.875
 20
11.0234375
 10
33.875
 20
10.9765625
 10
33.6875
 20
10.9765625
 10
33.6875
 20
10.90625
 10
33.5
 20
11.0
  0
HATCH
  5
2AC
330
215
100
AcDbEntity
  8
0
  6
Continuous
 62
     7
100
AcDbHatch
 10
0.0
 20
0.0
 30
0.0
210
0.0
220
0.0
230
1.0
  2
SOLID
 70
     1
 71
     1
 91
        1
 92
        1
 93
        7
 72
     1
 10
33.5
 20
11.0
 11
33.6875
 21
11.09375
 72
     1
 10
33.6875
 20
11.09375
 11
33.6875
 21
11.0234375
 72
     1
 10
33.6875
 20
11.0234375
 11
33.875
 21
11.0234375
 72
     1
 10
33.875
 20
11.0234375
 11
33.875
 21
10.9765625
 72
     1
 10
33.875
 20
10.9765625
 11
33.6875
 21
10.9765625
 72
     1
 10
33.6875
 20
10.9765625
 11
33.6875
 21
10.90625
 72
     1
 10
33.6875
 20
10.90625
 11
33.5
 21
11.0
 97
        1
330
2AB
 75
     0
 76
     1
 98
        1
 10
0.0
 20
0.0
450
        0
451
        0
460
0.0
461
0.0
452
        0
462
0.0
453
        0
470

  0
ENDBLK
  5
2AD
330
215
100
AcDbEntity
  8
0
  6
ByBlock
 62
     0
100
AcDbBlockEnd
  0
BLOCK
  5
399
330
228
100
AcDbEntity
  8
___SYMBOL
  6
Continuous
 62
     2
100
AcDbBlockBegin
  2
APPLICABLE_STANDARDS_BL5
 70
     0
 10
30.3589816717
 20
8.487344662499999
 30
0.0
  3
APPLICABLE_STANDARDS_BL5
  1

  0
TEXT
  5
39A
330
228
100
AcDbEntity
  8
___SYMBOL
  6
Continuous
 62
     2
100
AcDbText
 10
27.2628493355
 20
9.693929232
 30
0.0
 40
0.15625
  1
APPLICABLE STANDARDS:
 41
0.7182539683
  7
TEXTSTYLE_3
100
AcDbText
  0
TEXT
  5
39B
330
228
100
AcDbEntity
  8
___SYMBOL
  6
Continuous
 62
     2
100
AcDbText
 10
27.4297853465
 20
8.873827121899999
 30
0.0
 40
0.15625
  1
B
 41
0.8
100
AcDbText
  0
TEXT
  5
39C
330
228
100
AcDbEntity
  8
___SYMBOL
  6
Continuous
 62
     2
100
AcDbText
 10
27.4297853465
 20
7.6278090988
 30
0.0
 40
0.15625
  1
E
 41
0.8
100
AcDbText
  0
TEXT
  5
39D
330
228
100
AcDbEntity
  8
___SYMBOL
  6
Continuous
 62
     2
100
AcDbText
 10
27.4297853465
 20
8.454155058099999
 30
0.0
 40
0.15625
  1
C
 41
0.8
100
AcDbText
  0
TEXT
  5
39E
330
228
100
AcDbEntity
  8
___SYMBOL
  6
Continuous
 62
     2
100
AcDbText
 10
27.4228889478
 20
9.278458913999999
 30
0.0
 40
0.15625
  1
A
 41
0.8
100
AcDbText
  0
TEXT
  5
39F
330
228
100
AcDbEntity
  8
___SYMBOL
  6
Continuous
 62
     2
100
AcDbText
 10
27.4297853465
 20
8.042390434199999
 30
0.0
 40
0.15625
  1
D
 41
0.8
100
AcDbText
  0
TEXT
  5
3A0
330
228
100
AcDbEntity
  8
___SYMBOL
  6
Continuous
 62
     2
100
AcDbText
 10
27.8275163097
 20
9.3025395755
 30
0.0
 40
0.15625
  1
H040.001 - SINK/LAV PRODUCT SPECIFICATION
 41
0.8
100
AcDbText
  0
TEXT
  5
3A1
330
228
100
AcDbEntity
  8
___SYMBOL
  6
Continuous
 62
     2
100
AcDbText
 10
27.8274143167
 20
8.884455950499999
 30
0.0
 40
0.15625
  1
G300.055 - SANITARY LOGO SPECIFICATION
 41
0.8
100
AcDbText
  0
TEXT
  5
3A2
330
228
100
AcDbEntity
  8
___SYMBOL
  6
Continuous
 62
     2
100
AcDbText
 10
27.8228568148
 20
8.4651211763
 30
0.0
 40
0.15625
  1
H040.001.5.4 - UNSPECIFIED TOLERANCE-VIT
 41
0.8
100
AcDbText
  0
TEXT
  5
3A3
330
228
100
AcDbEntity
  8
___SYMBOL
  6
Continuous
 62
     2
100
AcDbText
 10
27.8301140079
 20
8.0586941884
 30
0.0
 40
0.15625
  1
GQ.001.P - GLOBAL VITREOUS AESTHETIC STANDARD
 41
0.8
100
AcDbText
  0
TEXT
  5
3A4
330
228
100
AcDbEntity
  8
___SYMBOL
  6
Continuous
 62
     2
100
AcDbText
 10
27.8258913069
 20
7.615859948999999
 30
0.0
 40
0.15625
  1
H040.001.1C.7 - COUNTRY OF ORIGIN
 41
0.8
100
AcDbText
  0
LINE
  5
3A5
330
228
100
AcDbEntity
  8
___SYMBOL
  6
Continuous
 62
     7
100
AcDbLine
 10
27.7154128325
 20
8.8068679621
 30
0.0
 11
27.2658698094
 21
8.8068679621
 31
0.0
  0
LINE
  5
3A6
330
228
100
AcDbEntity
  8
___SYMBOL
  6
Continuous
 62
     7
100
AcDbLine
 10
27.2658698094
 20
8.8068679621
 30
0.0
 11
27.4810901236
 21
9.158352025499999
 31
0.0
  0
LINE
  5
3A7
330
228
100
AcDbEntity
  8
___SYMBOL
  6
Continuous
 62
     7
100
AcDbLine
 10
27.4810901236
 20
9.158352025499999
 30
0.0
 11
27.7154128325
 21
8.8068679621
 31
0.0
  0
LINE
  5
3A8
330
228
100
AcDbEntity
  8
___SYMBOL
  6
Continuous
 62
     7
100
AcDbLine
 10
27.7154128325
 20
7.560849938999999
 30
0.0
 11
27.2658698094
 21
7.560849938999999
 31
0.0
  0
LINE
  5
3A9
330
228
100
AcDbEntity
  8
___SYMBOL
  6
Continuous
 62
     7
100
AcDbLine
 10
27.2658698094
 20
7.560849938999999
 30
0.0
 11
27.4810901236
 21
7.912334002399999
 31
0.0
  0
LINE
  5
3AA
330
228
100
AcDbEntity
  8
___SYMBOL
  6
Continuous
 62
     7
100
AcDbLine
 10
27.4810901236
 20
7.912334002399999
 30
0.0
 11
27.7154128325
 21
7.560849938999999
 31
0.0
  0
LINE
  5
3AB
330
228
100
AcDbEntity
  8
___SYMBOL
  6
Continuous
 62
     7
100
AcDbLine
 10
27.7154128325
 20
8.387195898299999
 30
0.0
 11
27.2658698094
 21
8.387195898299999
 31
0.0
  0
LINE
  5
3AC
330
228
100
AcDbEntity
  8
___SYMBOL
  6
Continuous
 62
     7
100
AcDbLine
 10
27.2658698094
 20
8.387195898299999
 30
0.0
 11
27.4810901236
 21
8.7386799617
 31
0.0
  0
LINE
  5
3AD
330
228
100
AcDbEntity
  8
___SYMBOL
  6
Continuous
 62
     7
100
AcDbLine
 10
27.4810901236
 20
8.7386799617
 30
0.0
 11
27.7154128325
 21
8.387195898299999
 31
0.0
  0
TEXT
  5
3AE
330
228
100
AcDbEntity
  8
___SYMBOL
  6
Continuous
 62
     2
100
AcDbText
 10
27.4228889478
 20
7.180034736499999
 30
0.0
 40
0.15625
  1
F
 41
0.8
100
AcDbText
  0
TEXT
  5
3AF
330
228
100
AcDbEntity
  8
___SYMBOL
  6
Continuous
 62
     2
100
AcDbText
 10
27.8275163097
 20
7.204115397999999
 30
0.0
 40
0.15625
  1
G300.015.3.3 - MARKING VITREOUS PRODUCT
 41
0.8
100
AcDbText
  0
LINE
  5
3B0
330
228
100
AcDbEntity
  8
___SYMBOL
  6
Continuous
 62
     7
100
AcDbLine
 10
27.7154128325
 20
7.124510092999999
 30
0.0
 11
27.2658698094
 21
7.124510092999999
 31
0.0
  0
LINE
  5
3B1
330
228
100
AcDbEntity
  8
___SYMBOL
  6
Continuous
 62
     7
100
AcDbLine
 10
27.2658698094
 20
7.124510092999999
 30
0.0
 11
27.4810901236
 21
7.475994156399999
 31
0.0
  0
LINE
  5
3B2
330
228
100
AcDbEntity
  8
___SYMBOL
  6
Continuous
 62
     7
100
AcDbLine
 10
27.4810901236
 20
7.475994156399999
 30
0.0
 11
27.7154128325
 21
7.124510092999999
 31
0.0
  0
ENDBLK
  5
3B3
330
228
100
AcDbEntity
  8
0
  6
ByBlock
 62
     0
100
AcDbBlockEnd
  0
BLOCK
  5
3B4
330
229
100
AcDbEntity
  8
___SYMBOL
  6
Continuous
 62
     2
100
AcDbBlockBegin
  2
CHARACTERISTIC_BL6
 70
     0
 10
29.064629035
 20
6.433774065899999
 30
0.0
  3
CHARACTERISTIC_BL6
  1

  0
TEXT
  5
3B5
330
229
100
AcDbEntity
  8
___SYMBOL
  6
Continuous
 62
     2
100
AcDbText
 10
28.9993237
 20
6.494927678799999
 30
0.0
 40
0.15625
  1
5
 41
0.8
100
AcDbText
  0
LINE
  5
3B6
330
229
100
AcDbEntity
  8
___SYMBOL
  6
Continuous
 62
     7
100
AcDbLine
 10
28.9296289494
 20
6.7037742372
 30
0.0
 11
28.9296289494
 21
6.1637738947
 31
0.0
  0
LINE
  5
3B7
330
229
100
AcDbEntity
  8
___SYMBOL
  6
Continuous
 62
     7
100
AcDbLine
 10
28.9296289494
 20
6.1637738947
 30
0.0
 11
29.1996291207
 21
6.1637738947
 31
0.0
  0
LINE
  5
3B8
330
229
100
AcDbEntity
  8
___SYMBOL
  6
Continuous
 62
     7
100
AcDbLine
 10
28.9296289494
 20
6.433774065899999
 30
0.0
 11
29.1996291207
 21
6.433774065899999
 31
0.0
  0
LINE
  5
3B9
330
229
100
AcDbEntity
  8
___SYMBOL
  6
Continuous
 62
     7
100
AcDbLine
 10
28.9296289494
 20
6.7037742372
 30
0.0
 11
29.1996291207
 21
6.7037742372
 31
0.0
  0
LINE
  5
3BA
330
229
100
AcDbEntity
  8
___SYMBOL
  6
Continuous
 62
     7
100
AcDbLine
 10
29.1996291207
 20
6.1637738947
 30
0.0
 11
29.1996291207
 21
6.7037742372
 31
0.0
  0
ENDBLK
  5
3BB
330
229
100
AcDbEntity
  8
0
  6
ByBlock
 62
     0
100
AcDbBlockEnd
  0
BLOCK
  5
3BC
330
22A
100
AcDbEntity
  8
___SYMBOL
  6
Continuous
 62
     2
100
AcDbBlockBegin
  2
CHARACTERISTIC_BL7
 70
     0
 10
7.0843358581
 20
20.0708830499
 30
0.0
  3
CHARACTERISTIC_BL7
  1

  0
TEXT
  5
3BD
330
22A
100
AcDbEntity
  8
___SYMBOL
  6
Continuous
 62
     2
100
AcDbText
 10
7.019030523099999
 20
20.1320366628
 30
0.0
 40
0.15625
  1
4
 41
0.8
100
AcDbText
  0
LINE
  5
3BE
330
22A
100
AcDbEntity
  8
___SYMBOL
  6
Continuous
 62
     7
100
AcDbLine
 10
6.949335772499999
 20
20.3408832212
 30
0.0
 11
6.949335772499999
 21
19.8008828786
 31
0.0
  0
LINE
  5
3BF
330
22A
100
AcDbEntity
  8
___SYMBOL
  6
Continuous
 62
     7
100
AcDbLine
 10
6.949335772499999
 20
19.8008828786
 30
0.0
 11
7.219335943799999
 21
19.8008828786
 31
0.0
  0
LINE
  5
3C0
330
22A
100
AcDbEntity
  8
___SYMBOL
  6
Continuous
 62
     7
100
AcDbLine
 10
6.949335772499999
 20
20.0708830499
 30
0.0
 11
7.219335943799999
 21
20.0708830499
 31
0.0
  0
LINE
  5
3C1
330
22A
100
AcDbEntity
  8
___SYMBOL
  6
Continuous
 62
     7
100
AcDbLine
 10
6.949335772499999
 20
20.3408832212
 30
0.0
 11
7.219335943799999
 21
20.3408832212
 31
0.0
  0
LINE
  5
3C2
330
22A
100
AcDbEntity
  8
___SYMBOL
  6
Continuous
 62
     7
100
AcDbLine
 10
7.219335943799999
 20
19.8008828786
 30
0.0
 11
7.219335943799999
 21
20.3408832212
 31
0.0
  0
ENDBLK
  5
3C3
330
22A
100
AcDbEntity
  8
0
  6
ByBlock
 62
     0
100
AcDbBlockEnd
  0
BLOCK
  5
3C4
330
22B
100
AcDbEntity
  8
___SYMBOL
  6
Continuous
 62
     2
100
AcDbBlockBegin
  2
CHARACTERISTIC_BL8
 70
     0
 10
17.57438561
 20
13.3487694345
 30
0.0
  3
CHARACTERISTIC_BL8
  1

  0
TEXT
  5
3C5
330
22B
100
AcDbEntity
  8
___SYMBOL
  6
Continuous
 62
     2
100
AcDbText
 10
17.5090802749
 20
13.4099230474
 30
0.0
 40
0.15625
  1
3
 41
0.8
100
AcDbText
  0
LINE
  5
3C6
330
22B
100
AcDbEntity
  8
___SYMBOL
  6
Continuous
 62
     7
100
AcDbLine
 10
17.4393855244
 20
13.6187696058
 30
0.0
 11
17.4393855244
 21
13.0787692633
 31
0.0
  0
LINE
  5
3C7
330
22B
100
AcDbEntity
  8
___SYMBOL
  6
Continuous
 62
     7
100
AcDbLine
 10
17.4393855244
 20
13.0787692633
 30
0.0
 11
17.7093856956
 21
13.0787692633
 31
0.0
  0
LINE
  5
3C8
330
22B
100
AcDbEntity
  8
___SYMBOL
  6
Continuous
 62
     7
100
AcDbLine
 10
17.4393855244
 20
13.3487694345
 30
0.0
 11
17.7093856956
 21
13.3487694345
 31
0.0
  0
LINE
  5
3C9
330
22B
100
AcDbEntity
  8
___SYMBOL
  6
Continuous
 62
     7
100
AcDbLine
 10
17.4393855244
 20
13.6187696058
 30
0.0
 11
17.7093856956
 21
13.6187696058
 31
0.0
  0
LINE
  5
3CA
330
22B
100
AcDbEntity
  8
___SYMBOL
  6
Continuous
 62
     7
100
AcDbLine
 10
17.7093856956
 20
13.0787692633
 30
0.0
 11
17.7093856956
 21
13.6187696058
 31
0.0
  0
ENDBLK
  5
3CB
330
22B
100
AcDbEntity
  8
0
  6
ByBlock
 62
     0
100
AcDbBlockEnd
  0
BLOCK
  5
3CC
330
22C
100
AcDbEntity
  8
___SYMBOL
  6
Continuous
 62
     2
100
AcDbBlockBegin
  2
REVISION_BL9
 70
     0
 10
6.994314824099999
 20
20.5972700956
 30
0.0
  3
REVISION_BL9
  1

  0
TEXT
  5
3CD
330
22C
100
AcDbEntity
  8
___SYMBOL
  6
Continuous
 62
     2
100
AcDbText
 10
6.8756685248
 20
20.5181958884
 30
0.0
 40
0.15625
  1
A1
 41
0.8
100
AcDbText
  0
LINE
  5
3CE
330
22C
100
AcDbEntity
  8
___SYMBOL
  6
Continuous
 62
     7
100
AcDbLine
 10
6.855368540499999
 20
20.4822700956
 30
0.0
 11
6.7968148241
 21
20.540823812
 31
0.0
  0
LINE
  5
3CF
330
22C
100
AcDbEntity
  8
___SYMBOL
  6
Continuous
 62
     7
100
AcDbLine
 10
6.7968148241
 20
20.6537163793
 30
0.0
 11
6.7968148241
 21
20.540823812
 31
0.0
  0
LINE
  5
3D0
330
22C
100
AcDbEntity
  8
___SYMBOL
  6
Continuous
 62
     7
100
AcDbLine
 10
6.855368540499999
 20
20.7122700956
 30
0.0
 11
6.7968148241
 21
20.6537163793
 31
0.0
  0
LINE
  5
3D1
330
22C
100
AcDbEntity
  8
___SYMBOL
  6
Continuous
 62
     7
100
AcDbLine
 10
7.1332611078
 20
20.4822700956
 30
0.0
 11
7.191814824099999
 21
20.540823812
 31
0.0
  0
LINE
  5
3D2
330
22C
100
AcDbEntity
  8
___SYMBOL
  6
Continuous
 62
     7
100
AcDbLine
 10
7.191814824099999
 20
20.6537163793
 30
0.0
 11
7.191814824099999
 21
20.540823812
 31
0.0
  0
LINE
  5
3D3
330
22C
100
AcDbEntity
  8
___SYMBOL
  6
Continuous
 62
     7
100
AcDbLine
 10
7.1332611078
 20
20.7122700956
 30
0.0
 11
7.191814824099999
 21
20.6537163793
 31
0.0
  0
LINE
  5
3D4
330
22C
100
AcDbEntity
  8
___SYMBOL
  6
Continuous
 62
     7
100
AcDbLine
 10
6.855368540499999
 20
20.7122700956
 30
0.0
 11
7.1332611078
 21
20.7122700956
 31
0.0
  0
LINE
  5
3D5
330
22C
100
AcDbEntity
  8
___SYMBOL
  6
Continuous
 62
     7
100
AcDbLine
 10
7.1332611078
 20
20.4822700956
 30
0.0
 11
6.855368540499999
 21
20.4822700956
 31
0.0
  0
ENDBLK
  5
3D6
330
22C
100
AcDbEntity
  8
0
  6
ByBlock
 62
     0
100
AcDbBlockEnd
  0
BLOCK
  5
3D7
330
22D
100
AcDbEntity
  8
___SYMBOL
  6
Continuous
 62
     2
100
AcDbBlockBegin
  2
CHARACTERISTIC_BL10
 70
     0
 10
28.3056524584
 20
13.9736622498
 30
0.0
  3
CHARACTERISTIC_BL10
  1

  0
TEXT
  5
3D8
330
22D
100
AcDbEntity
  8
___SYMBOL
  6
Continuous
 62
     2
100
AcDbText
 10
28.2403471233
 20
14.0348158627
 30
0.0
 40
0.15625
  1
1
 41
0.8
100
AcDbText
  0
LINE
  5
3D9
330
22D
100
AcDbEntity
  8
___SYMBOL
  6
Continuous
 62
     7
100
AcDbLine
 10
28.1706523727
 20
14.243662421
 30
0.0
 11
28.1706523727
 21
13.7036620785
 31
0.0
  0
LINE
  5
3DA
330
22D
100
AcDbEntity
  8
___SYMBOL
  6
Continuous
 62
     7
100
AcDbLine
 10
28.1706523727
 20
13.7036620785
 30
0.0
 11
28.440652544
 21
13.7036620785
 31
0.0
  0
LINE
  5
3DB
330
22D
100
AcDbEntity
  8
___SYMBOL
  6
Continuous
 62
     7
100
AcDbLine
 10
28.1706523727
 20
13.9736622498
 30
0.0
 11
28.440652544
 21
13.9736622498
 31
0.0
  0
LINE
  5
3DC
330
22D
100
AcDbEntity
  8
___SYMBOL
  6
Continuous
 62
     7
100
AcDbLine
 10
28.1706523727
 20
14.243662421
 30
0.0
 11
28.440652544
 21
14.243662421
 31
0.0
  0
LINE
  5
3DD
330
22D
100
AcDbEntity
  8
___SYMBOL
  6
Continuous
 62
     7
100
AcDbLine
 10
28.440652544
 20
13.7036620785
 30
0.0
 11
28.440652544
 21
14.243662421
 31
0.0
  0
ENDBLK
  5
3DE
330
22D
100
AcDbEntity
  8
0
  6
ByBlock
 62
     0
100
AcDbBlockEnd
  0
BLOCK
  5
3DF
330
22E
100
AcDbEntity
  8
___SYMBOL
  6
Continuous
 62
     2
100
AcDbBlockBegin
  2
CHARACTERISTIC_BL11
 70
     0
 10
28.2874285171
 20
11.4238444392
 30
0.0
  3
CHARACTERISTIC_BL11
  1

  0
TEXT
  5
3E0
330
22E
100
AcDbEntity
  8
___SYMBOL
  6
Continuous
 62
     2
100
AcDbText
 10
28.2221231821
 20
11.484998052
 30
0.0
 40
0.15625
  1
2
 41
0.8
100
AcDbText
  0
LINE
  5
3E1
330
22E
100
AcDbEntity
  8
___SYMBOL
  6
Continuous
 62
     7
100
AcDbLine
 10
28.1524284315
 20
11.6938446104
 30
0.0
 11
28.1524284315
 21
11.1538442679
 31
0.0
  0
LINE
  5
3E2
330
22E
100
AcDbEntity
  8
___SYMBOL
  6
Continuous
 62
     7
100
AcDbLine
 10
28.1524284315
 20
11.1538442679
 30
0.0
 11
28.4224286028
 21
11.1538442679
 31
0.0
  0
LINE
  5
3E3
330
22E
100
AcDbEntity
  8
___SYMBOL
  6
Continuous
 62
     7
100
AcDbLine
 10
28.1524284315
 20
11.4238444392
 30
0.0
 11
28.4224286028
 21
11.4238444392
 31
0.0
  0
LINE
  5
3E4
330
22E
100
AcDbEntity
  8
___SYMBOL
  6
Continuous
 62
     7
100
AcDbLine
 10
28.1524284315
 20
11.6938446104
 30
0.0
 11
28.4224286028
 21
11.6938446104
 31
0.0
  0
LINE
  5
3E5
330
22E
100
AcDbEntity
  8
___SYMBOL
  6
Continuous
 62
     7
100
AcDbLine
 10
28.4224286028
 20
11.1538442679
 30
0.0
 11
28.4224286028
 21
11.6938446104
 31
0.0
  0
ENDBLK
  5
3E6
330
22E
100
AcDbEntity
  8
0
  6
ByBlock
 62
     0
100
AcDbBlockEnd
  0
BLOCK
  5
3E7
330
22F
100
AcDbEntity
  8
___SYMBOL
  6
Continuous
 62
     2
100
AcDbBlockBegin
  2
CHARACTERISTIC_BL12
 70
     0
 10
22.0664754506
 20
7.830968914199999
 30
0.0
  3
CHARACTERISTIC_BL12
  1

  0
TEXT
  5
3E8
330
22F
100
AcDbEntity
  8
___SYMBOL
  6
Continuous
 62
     2
100
AcDbText
 10
22.0011701156
 20
7.892122527099999
 30
0.0
 40
0.15625
  1
5
 41
0.8
100
AcDbText
  0
LINE
  5
3E9
330
22F
100
AcDbEntity
  8
___SYMBOL
  6
Continuous
 62
     7
100
AcDbLine
 10
21.931475365
 20
8.100969085499999
 30
0.0
 11
21.931475365
 21
7.5609687429
 31
0.0
  0
LINE
  5
3EA
330
22F
100
AcDbEntity
  8
___SYMBOL
  6
Continuous
 62
     7
100
AcDbLine
 10
21.931475365
 20
7.5609687429
 30
0.0
 11
22.2014755362
 21
7.5609687429
 31
0.0
  0
LINE
  5
3EB
330
22F
100
AcDbEntity
  8
___SYMBOL
  6
Continuous
 62
     7
100
AcDbLine
 10
21.931475365
 20
7.830968914199999
 30
0.0
 11
22.2014755362
 21
7.830968914199999
 31
0.0
  0
LINE
  5
3EC
330
22F
100
AcDbEntity
  8
___SYMBOL
  6
Continuous
 62
     7
100
AcDbLine
 10
21.931475365
 20
8.100969085499999
 30
0.0
 11
22.2014755362
 21
8.100969085499999
 31
0.0
  0
LINE
  5
3ED
330
22F
100
AcDbEntity
  8
___SYMBOL
  6
Continuous
 62
     7
100
AcDbLine
 10
22.2014755362
 20
7.5609687429
 30
0.0
 11
22.2014755362
 21
8.100969085499999
 31
0.0
  0
ENDBLK
  5
3EE
330
22F
100
AcDbEntity
  8
0
  6
ByBlock
 62
     0
100
AcDbBlockEnd
  0
BLOCK
  5
3EF
330
230
100
AcDbEntity
  8
___SYMBOL
  6
Continuous
 62
     2
100
AcDbBlockBegin
  2
DELTA_BL13
 70
     0
 10
6.1769944471
 20
7.3700476736
 30
0.0
  3
DELTA_BL13
  1

  0
TEXT
  5
3F0
330
230
100
AcDbEntity
  8
___SYMBOL
  6
Continuous
 62
     2
100
AcDbText
 10
6.108546271899999
 20
7.236919263299999
 30
0.0
 40
0.15625
  1
B
 41
0.8
100
AcDbText
  0
LINE
  5
3F1
330
230
100
AcDbEntity
  8
___SYMBOL
  6
Continuous
 62
     7
100
AcDbLine
 10
6.4017659587
 20
7.194305641899999
 30
0.0
 11
5.9522229356
 21
7.194305641899999
 31
0.0
  0
LINE
  5
3F2
330
230
100
AcDbEntity
  8
___SYMBOL
  6
Continuous
 62
     7
100
AcDbLine
 10
5.9522229356
 20
7.194305641899999
 30
0.0
 11
6.167443249799999
 21
7.545789705299999
 31
0.0
  0
LINE
  5
3F3
330
230
100
AcDbEntity
  8
___SYMBOL
  6
Continuous
 62
     7
100
AcDbLine
 10
6.167443249799999
 20
7.545789705299999
 30
0.0
 11
6.4017659587
 21
7.194305641899999
 31
0.0
  0
ENDBLK
  5
3F4
330
230
100
AcDbEntity
  8
0
  6
ByBlock
 62
     0
100
AcDbBlockEnd
  0
BLOCK
  5
3F5
330
231
100
AcDbEntity
  8
___SYMBOL
  6
Continuous
 62
     2
100
AcDbBlockBegin
  2
REVISION_BL14
 70
     0
 10
3.9876458648
 20
2.7530033123
 30
0.0
  3
REVISION_BL14
  1

  0
TEXT
  5
3F6
330
231
100
AcDbEntity
  8
___SYMBOL
  6
Continuous
 62
     2
100
AcDbText
 10
3.868999565399999
 20
2.673929105
 30
0.0
 40
0.15625
  1
A2
 41
0.8
100
AcDbText
  0
LINE
  5
3F7
330
231
100
AcDbEntity
  8
___SYMBOL
  6
Continuous
 62
     7
100
AcDbLine
 10
3.848699581099999
 20
2.638003312299999
 30
0.0
 11
3.790145864799999
 21
2.6965570286
 31
0.0
  0
LINE
  5
3F8
330
231
100
AcDbEntity
  8
___SYMBOL
  6
Continuous
 62
     7
100
AcDbLine
 10
3.790145864799999
 20
2.809449595899999
 30
0.0
 11
3.790145864799999
 21
2.6965570286
 31
0.0
  0
LINE
  5
3F9
330
231
100
AcDbEntity
  8
___SYMBOL
  6
Continuous
 62
     7
100
AcDbLine
 10
3.848699581099999
 20
2.868003312299999
 30
0.0
 11
3.790145864799999
 21
2.809449595899999
 31
0.0
  0
LINE
  5
3FA
330
231
100
AcDbEntity
  8
___SYMBOL
  6
Continuous
 62
     7
100
AcDbLine
 10
4.1265921484
 20
2.638003312299999
 30
0.0
 11
4.185145864799999
 21
2.6965570286
 31
0.0
  0
LINE
  5
3FB
330
231
100
AcDbEntity
  8
___SYMBOL
  6
Continuous
 62
     7
100
AcDbLine
 10
4.185145864799999
 20
2.809449595899999
 30
0.0
 11
4.185145864799999
 21
2.6965570286
 31
0.0
  0
LINE
  5
3FC
330
231
100
AcDbEntity
  8
___SYMBOL
  6
Continuous
 62
     7
100
AcDbLine
 10
4.1265921484
 20
2.868003312299999
 30
0.0
 11
4.185145864799999
 21
2.809449595899999
 31
0.0
  0
LINE
  5
3FD
330
231
100
AcDbEntity
  8
___SYMBOL
  6
Continuous
 62
     7
100
AcDbLine
 10
3.848699581099999
 20
2.868003312299999
 30
0.0
 11
4.1265921484
 21
2.868003312299999
 31
0.0
  0
LINE
  5
3FE
330
231
100
AcDbEntity
  8
___SYMBOL
  6
Continuous
 62
     7
100
AcDbLine
 10
4.1265921484
 20
2.638003312299999
 30
0.0
 11
3.848699581099999
 21
2.638003312299999
 31
0.0
  0
ENDBLK
  5
3FF
330
231
100
AcDbEntity
  8
0
  6
ByBlock
 62
     0
100
AcDbBlockEnd
  0
BLOCK
  5
400
330
210
100
AcDbEntity
  8
0
100
AcDbBlockBegin
  2
_FILLED
 70
     0
 10
0.0
 20
0.0
 30
0.0
  3
_FILLED
  1

  0
SOLID
  5
401
330
210
100
AcDbEntity
  8
0
  6
ByBlock
 62
     0
100
AcDbTrace
 10
0.0
 20
0.0
 30
0.0
 11
-1.0
 21
0.1666666667
 31
0.0
 12
-1.0
 22
-0.1666666667
 32
0.0
 13
-1.0
 23
-0.1666666667
 33
0.0
  0
ENDBLK
  5
402
330
210
100
AcDbEntity
  8
0
  6
ByBlock
 62
     0
100
AcDbBlockEnd
  0
BLOCK
  5
CE4
330
CE2
100
AcDbEntity
  8
0
370
     0
100
AcDbBlockBegin
  2
GENAXEH
 70
     0
 10
0.0
 20
0.0
 30
0.0
  3
GENAXEH
  1

  0
LINE
  5
CE3
330
CE2
100
AcDbEntity
  8
0
100
AcDbLine
 10
-1.0
 20
0.0
 30
0.0
 11
1.0
 21
0.0
 31
0.0
  0
ENDBLK
  5
CE5
330
CE2
100
AcDbEntity
  8
0
370
     0
100
AcDbBlockEnd
  0
ENDSEC
  0
SECTION
  2
ENTITIES
  0
TEXT
  5
47F
330
1F
100
AcDbEntity
  8
0
  6
Continuous
 62
     2
100
AcDbText
 10
28.2966666667
 20
2.049999999999999
 30
0.0
 40
0.1
  1
 
 41
0.8
100
AcDbText
  0
TEXT
  5
490
330
1F
100
AcDbEntity
  8
0
  6
Continuous
 62
     2
100
AcDbText
 10
26.4309802092
 20
15.4921865663
 30
0.0
 40
0.15625
  1
 
 41
0.75
100
AcDbText
  0
TEXT
  5
495
330
1F
100
AcDbEntity
  8
0
  6
Continuous
 62
     2
100
AcDbText
 10
21.1117279926
 20
20.1214049783
 30
0.0
 40
0.15625
  1
 
 41
0.75
100
AcDbText
  0
LINE
  5
612
330
1F
100
AcDbEntity
  8
0
  6
Continuous
 62
     7
100
AcDbLine
 10
1.817753528399999
 20
-3.060042368199999
 30
0.0
 11
1.824508236199999
 21
-3.2534718909
 31
0.0
  0
LWPOLYLINE
  5
613
330
1F
100
AcDbEntity
  8
0
  6
Continuous
 62
     7
100
AcDbPolyline
 90
       37
 70
     0
 43
0.0
 10
3.3990100649
 20
-5.964988052599999
 10
3.4028998851
 20
-5.9776366958
 10
3.408185584399999
 20
-5.993430653499999
 10
3.413901174499999
 20
-6.009070939599999
 10
3.420041939299999
 20
-6.0245454351
 10
3.426603196999999
 20
-6.0398430738
 10
3.433580427499999
 20
-6.054953797499999
 10
3.4409682773
 20
-6.069866318799999
 10
3.448761086499999
 20
-6.084569502799999
 10
3.4569536356
 20
-6.099053647599999
 10
3.4655397726
 20
-6.113307892399999
 10
3.474513046999999
 20
-6.127321543199999
 10
3.483867556999999
 20
-6.1410852867
 10
3.493596376999999
 20
-6.154588733199999
 10
3.5036922949
 20
-6.1678216804
 10
3.514148748899999
 20
-6.1807752445
 10
3.524958479699999
 20
-6.193440022799999
 10
3.536113157099999
 20
-6.205805859399999
 10
3.547604274999999
 20
-6.217863004699999
 10
3.559425034799999
 20
-6.229603898999999
 10
3.5715650805
 20
-6.241017842099999
 10
3.584009743599999
 20
-6.2520911955
 10
3.596749824799999
 20
-6.2628163045
 10
3.609775063999999
 20
-6.27318505
 10
3.6230679971
 20
-6.2831845485
 10
3.636617934999999
 20
-6.2928082295
 10
3.6504140749
 20
-6.3020498601
 10
3.6644376724
 20
-6.3108987447
 10
3.678677588599999
 20
-6.319350103599999
 10
3.693121946499999
 20
-6.327399095999999
 10
3.707749943
 20
-6.335036798299999
 10
3.7225497389
 20
-6.3422601144
 10
3.7375090417
 20
-6.3490660822
 10
3.752605572699999
 20
-6.355448059299999
 10
3.767823503199999
 20
-6.3614034428
 10
3.783153874299999
 20
-6.3669327591
 10
3.7951294661
 20
-6.370932600999999
  0
LINE
  5
614
330
1F
100
AcDbEntity
  8
0
  6
Continuous
 62
     7
100
AcDbLine
 10
2.692654163799999
 20
-3.575811489799999
 30
0.0
 11
3.3990110736
 21
-5.9649876583
 31
0.0
  0
LWPOLYLINE
  5
615
330
1F
100
AcDbEntity
  8
0
  6
Continuous
 62
     7
100
AcDbPolyline
 90
        3
 70
     0
 43
0.0
 10
2.649837284999999
 20
-3.5019437219
 10
2.6521392699
 20
-3.5044348093
 10
2.654530766999999
 20
-3.5071215296
  0
LWPOLYLINE
  5
616
330
1F
100
AcDbEntity
  8
0
  6
Continuous
 62
     7
100
AcDbPolyline
 90
       18
 70
     0
 43
0.0
 10
2.654530766999999
 20
-3.5071215296
 10
2.657151082199999
 20
-3.510188777699999
 10
2.6598328089
 20
-3.513471889499999
 10
2.662487395399999
 20
-3.5168775216
 10
2.665087309
 20
-3.520377101999999
 10
2.667649927399999
 20
-3.524001088299999
 10
2.6701612282
 20
-3.5277384373
 10
2.672615150699999
 20
-3.5315883273
 10
2.675007116899999
 20
-3.535552202399999
 10
2.677326638599999
 20
-3.5396211471
 10
2.679567257199999
 20
-3.5437917505
 10
2.681725582699999
 20
-3.5480660832
 10
2.683796302699999
 20
-3.552442753499999
 10
2.6857742552
 20
-3.5569205247
 10
2.6876543045
 20
-3.5614981224
 10
2.689431149099999
 20
-3.566173754999999
 10
2.6910995187
 20
-3.570945537
 10
2.692654163799999
 20
-3.575811489799999
  0
LINE
  5
617
330
1F
100
AcDbEntity
  8
0
  6
Continuous
 62
     7
100
AcDbLine
 10
8.339398668699999
 20
-8.5919014135
 30
0.0
 11
10.0046032806
 21
-8.5919014135
 31
0.0
  0
LINE
  5
61B
330
1F
100
AcDbEntity
  8
0
  6
Continuous
 62
     7
100
AcDbLine
 10
2.4671723435
 20
-3.3385788759
 30
0.0
 11
2.653253493099999
 21
-3.503984342199999
 31
0.0
  0
LWPOLYLINE
  5
61C
330
1F
100
AcDbEntity
  8
0
  6
Continuous
 62
     7
100
AcDbPolyline
 90
        5
 70
     0
 43
0.0
 10
2.637855669799999
 20
-3.4902972797
 10
2.640792885399999
 20
-3.4929642957
 10
2.644182478799999
 20
-3.496187713899999
 10
2.6472352942
 20
-3.4992335145
 10
2.649837284999999
 20
-3.5019437219
  0
LWPOLYLINE
  5
621
330
1F
100
AcDbEntity
  8
0
  6
Continuous
 62
     7
100
AcDbPolyline
 90
        9
 70
     0
 43
0.0
 10
6.403863163799999
 20
-7.212218106799999
 10
6.418418739399999
 20
-7.2166027967
 10
6.4328381715
 20
-7.220528288099999
 10
6.4471066682
 20
-7.224011783799999
 10
6.4612089465
 20
-7.2270702757
 10
6.4751291632
 20
-7.229720691999999
 10
6.488854020099999
 20
-7.2319805183
 10
6.502372775399999
 20
-7.2338675496
 10
6.5120672502
 20
-7.2350156474
  0
LINE
  5
622
330
1F
100
AcDbEntity
  8
0
  6
Continuous
 62
     7
100
AcDbLine
 10
3.795129383399999
 20
-6.3709327784
 30
0.0
 11
6.403863163799999
 21
-7.212218106799999
 31
0.0
  0
LWPOLYLINE
  5
623
330
1F
100
AcDbEntity
  8
0
  6
Continuous
 62
     7
100
AcDbPolyline
 90
       10
 70
     0
 43
0.0
 10
11.8319346986
 20
-7.2350156474
 10
11.8419491368
 20
-7.2338267454
 10
11.8554835432
 20
-7.2319294089
 10
11.8692181301
 20
-7.2296593244
 10
11.8831421753
 20
-7.2269991091
 10
11.8972424535
 20
-7.2239316975
 10
11.9115032483
 20
-7.220440585699999
 10
11.9259093985
 20
-7.216509218399999
 10
11.9404462317
 20
-7.2121208451
 10
14.5488725658
 20
-6.3709327784
  0
LINE
  5
624
330
1F
100
AcDbEntity
  8
0
  6
Continuous
 62
     7
100
AcDbLine
 10
10.4101960096
 20
-7.3909128255
 30
0.0
 11
10.4116012904
 21
-7.3907533666
 31
0.0
  0
LINE
  5
625
330
1F
100
AcDbEntity
  8
0
  6
Continuous
 62
     7
100
AcDbLine
 10
10.4116013215
 20
-7.390753361999999
 30
0.0
 11
11.8319346824
 21
-7.2350156375
 31
0.0
  0
LWPOLYLINE
  5
626
330
1F
100
AcDbEntity
  8
0
  6
Continuous
 62
     7
100
AcDbPolyline
 90
      122
 70
     0
 43
0.0
 10
6.512067266899999
 20
-7.2350156375
 10
7.9336497314
 20
-7.3908945698
 10
7.9348430465
 20
-7.3910374012
 10
7.936049228999999
 20
-7.391189667299999
 10
7.9372717842
 20
-7.391352119299999
 10
7.9385112357
 20
-7.391525182199999
 10
7.939768021299999
 20
-7.391709289999999
 10
7.9410414826
 20
-7.391904725199999
 10
7.9423304945
 20
-7.392111683299999
 10
7.9436349329
 20
-7.392330506999999
 10
7.9449546763
 20
-7.3925615439
 10
7.9462886017
 20
-7.3928049595
 10
7.947636368
 20
-7.393061045099999
 10
7.948998045299999
 20
-7.393330172099999
 10
7.9503731244
 20
-7.3936126011
 10
7.951761412699999
 20
-7.393908653399999
 10
7.9531628001
 20
-7.394218671099999
 10
7.954576895799999
 20
-7.394542935799999
 10
7.956003533599999
 20
-7.394881779
 10
7.957442542799999
 20
-7.3952355348
 10
7.9588935192
 20
-7.39560448
 10
7.9603562808
 20
-7.3959889463
 10
7.9618306375
 20
-7.396389266399999
 10
7.9633161662
 20
-7.396805709899999
 10
7.9648126551
 20
-7.397238603199999
 10
7.966319907399999
 20
-7.397688279999999
 10
7.9678375156
 20
-7.3981550116
 10
7.969365151599999
 20
-7.398639090199999
 10
7.970902697599999
 20
-7.399140876599999
 10
7.9724500513
 20
-7.3996607437
 10
7.9740069132
 20
-7.4001990032
 10
7.975573092
 20
-7.400756006199999
 10
7.977148633099999
 20
-7.4013321967
 10
7.9787332686
 20
-7.401927914499999
 10
7.980326724
 20
-7.4025434997
 10
7.981929016799999
 20
-7.4031794124
 10
7.983539852399999
 20
-7.4038360001
 10
7.985158927899999
 20
-7.4045136092
 10
7.986786229099999
 20
-7.405212715
 10
7.988421416799999
 20
-7.405933663899999
 10
7.990064173799999
 20
-7.406676814599999
 10
7.9917144977
 20
-7.407442677599999
 10
7.9933719955
 20
-7.4082315941
 10
7.9950363397
 20
-7.4090439392
 10
7.996707600499999
 20
-7.409880294099999
 10
7.998385381
 20
-7.410741023199999
 10
8.0000692851
 20
-7.4116264942
 10
8.0017593552
 20
-7.412537317399999
 10
8.003455161199999
 20
-7.4134738666
 10
8.005156261899999
 20
-7.4144365128
 10
8.0068626514
 20
-7.4154258857
 10
8.008573858
 20
-7.416442363699999
 10
8.010289397999999
 20
-7.4174863217
 10
8.0120092139
 20
-7.418558406699999
 10
8.0137327922
 20
-7.4196590014
 10
8.015459600799999
 20
-7.420788480099999
 10
8.0171895181
 20
-7.421947498699999
 10
8.018922105599999
 20
-7.4231365246
 10
8.0206566588
 20
-7.4243558478
 10
8.0223926259
 20
-7.425605865199999
 10
8.024129569299999
 20
-7.426887065099999
 10
8.025866700299999
 20
-7.428199683299999
 10
8.027602931
 20
-7.4295437124
 10
8.029337640299999
 20
-7.430919487599999
 10
8.031070169799999
 20
-7.432327317899999
 10
8.0327993833
 20
-7.433767110599999
 10
8.034524622899999
 20
-7.4352391493
 10
8.036245218399999
 20
-7.436743708399999
 10
8.0379600248
 20
-7.438280633599999
 10
8.0396683614
 20
-7.439850161799999
 10
8.041369537999999
 20
-7.441452521499999
 10
8.0430624084
 20
-7.443087496599999
 10
8.0447462198
 20
-7.444755222
 10
8.046420318699999
 20
-7.446455928699999
 10
8.0480837179
 20
-7.448189501399999
 10
8.049735620299999
 20
-7.4499560007
 10
8.051375374699999
 20
-7.45175564
 10
8.0530022096
 20
-7.453588502799999
 10
8.05461537
 20
-7.455454687299999
 10
8.056214103
 20
-7.457354291599999
 10
8.057797627499999
 20
-7.459287378199999
 10
8.059365165899999
 20
-7.46125401
 10
8.0609159314
 20
-7.4632542356
 10
8.062449115999999
 20
-7.465288072599999
 10
8.0639639153
 20
-7.467355538599999
 10
8.0654595161
 20
-7.4694566357
 10
8.0669350855
 20
-7.4715913332
 10
8.068389794199999
 20
-7.4737596
 10
8.069822804899999
 20
-7.4759613882
 10
8.071233261899999
 20
-7.478196615199999
 10
8.072620313299999
 20
-7.4804651976
 10
8.073983099999999
 20
-7.482767034
 10
8.075320745899999
 20
-7.4851019867
 10
8.076632379299999
 20
-7.4874699165
 10
8.0779171219
 20
-7.489870664699999
 10
8.079174080399999
 20
-7.4923040354
 10
8.080402365999999
 20
-7.4947698298
 10
8.0816010845
 20
-7.4972678291
 10
8.082769328499999
 20
-7.4997977752
 10
8.083906195599999
 20
-7.5023594069
 10
8.085010778999999
 20
-7.5049524415
 10
8.0860821611
 20
-7.5075765557
 10
8.087119429199999
 20
-7.5102314226
 10
8.088121668299999
 20
-7.5129166925
 10
8.0890879542
 20
-7.515631973999999
 10
8.090017368599999
 20
-7.518376871
 10
8.090908991899999
 20
-7.5211509639
 10
8.091761897999999
 20
-7.5239537901
 10
8.092575167499999
 20
-7.5267848818
 10
8.093347880899999
 20
-7.529643746499999
 10
8.094079115299999
 20
-7.5325298478
 10
8.094767954499999
 20
-7.535442643099999
 10
8.095413484799999
 20
-7.538381564899999
 10
8.096014790999999
 20
-7.541346000099999
 10
8.096570966199999
 20
-7.544335329399999
 10
8.097081107499999
 20
-7.547348907399999
 10
8.0975443133
 20
-7.550386042699999
 10
8.097959691399999
 20
-7.553446036799999
 10
8.098326355599999
 20
-7.5565281647
 10
8.0986434241
 20
-7.5596316546
 10
8.098910025
 20
-7.5627557206
 10
8.099097144699999
 20
-7.5654400903
  0
LINE
  5
627
330
1F
100
AcDbEntity
  8
0
  6
Continuous
 62
     7
100
AcDbLine
 10
8.0990979614
 20
-7.565453201999999
 30
0.0
 11
8.1522632202
 21
-8.4160973422
 31
0.0
  0
LINE
  5
639
330
1F
100
AcDbEntity
  8
0
  6
Continuous
 62
     7
100
AcDbLine
 10
10.2449039879
 20
-7.565453201999999
 30
0.0
 11
10.1917387291
 21
-8.4160973422
 31
0.0
  0
LWPOLYLINE
  5
63A
330
1F
100
AcDbEntity
  8
0
  6
Continuous
 62
     7
100
AcDbPolyline
 90
      129
 70
     0
 43
0.0
 10
10.2449048045
 20
-7.5654400903
 10
10.2450834828
 20
-7.562865885999999
 10
10.2453295896
 20
-7.5599430406
 10
10.2456199109
 20
-7.5570381082
 10
10.2459537349
 20
-7.5541517344
 10
10.2463303423
 20
-7.551284554799999
 10
10.2467490104
 20
-7.5484371683
 10
10.2472090114
 20
-7.5456101533
 10
10.2477096107
 20
-7.5428040839
 10
10.2482500719
 20
-7.5400194978
 10
10.2488296555
 20
-7.537256913
 10
10.2494476156
 20
-7.534516843099999
 10
10.2501032068
 20
-7.531799766299999
 10
10.2507956817
 20
-7.529106141299999
 10
10.2515242873
 20
-7.526436422999999
 10
10.2522882731
 20
-7.5237910317
 10
10.2530868877
 20
-7.521170368299999
 10
10.2539193748
 20
-7.518574830999999
 10
10.2547849823
 20
-7.516004783399999
 10
10.2556829588
 20
-7.5134605712
 10
10.2566125479
 20
-7.510942537
 10
10.2575729997
 20
-7.5084509905
 10
10.2585635658
 20
-7.505986223499999
 10
10.2595834932
 20
-7.5035485256
 10
10.2606320372
 20
-7.5011381541
 10
10.2617084554
 20
-7.498755349599999
 10
10.2628120014
 20
-7.4964003506
 10
10.2639419385
 20
-7.4940733645
 10
10.2650975332
 20
-7.491774582499999
 10
10.2662780484
 20
-7.4895041946
 10
10.2674827581
 20
-7.487262360399999
 10
10.2687109402
 20
-7.485049224399999
 10
10.2699618694
 20
-7.482864929999999
 10
10.2712348325
 20
-7.4807095918
 10
10.2725291216
 20
-7.4785833097
 10
10.2738440251
 20
-7.476486183199999
 10
10.2751788451
 20
-7.4744182841
 10
10.2765328895
 20
-7.472379670299999
 10
10.2779054626
 20
-7.4703703999
 10
10.2792958837
 20
-7.4683905042
 10
10.2807034782
 20
-7.466440001699999
 10
10.2821275683
 20
-7.464518911599999
 10
10.2835674919
 20
-7.462627227199999
 10
10.2850225938
 20
-7.460764930299999
 10
10.2864922153
 20
-7.4589320032
 10
10.2879757146
 20
-7.457128404199999
 10
10.289472457
 20
-7.4553540804
 10
10.2909818045
 20
-7.4536089803
 10
10.2925031389
 20
-7.451893026699999
 10
10.2940358452
 20
-7.4502061372
 10
10.2955792995
 20
-7.448548236699999
 10
10.2971329589
 20
-7.4469191625
 10
10.298696179
 20
-7.4453188588
 10
10.3002681881
 20
-7.4437473883
 10
10.3018484615
 20
-7.4422045573
 10
10.303436371
 20
-7.4406902732
 10
10.3050309836
 20
-7.4392047189
 10
10.3066317339
 20
-7.4377477144
 10
10.3082380605
 20
-7.4363190766
 10
10.3098490257
 20
-7.434918944999999
 10
10.3114640771
 20
-7.433547105799999
 10
10.3130826718
 20
-7.432203337699999
 10
10.3147038778
 20
-7.430887732599999
 10
10.3163271602
 20
-7.429600042399999
 10
10.3179519944
 20
-7.428340012699999
 10
10.319577457
 20
-7.427107689199999
 10
10.3212029731
 20
-7.425902835999999
 10
10.3228280969
 20
-7.424725122999999
 10
10.3244520975
 20
-7.4235744254
 10
10.3260743171
 20
-7.4224505553
 10
10.3276944423
 20
-7.421353086599999
 10
10.3293122745
 20
-7.420281530199999
 10
10.330927331
 20
-7.4192355971
 10
10.3325391975
 20
-7.418214956299999
 10
10.3341478049
 20
-7.417219069199999
 10
10.3357527362
 20
-7.416247628099999
 10
10.3373535834
 20
-7.4153003219
 10
10.3389503191
 20
-7.4143766246
 10
10.34054256
 20
-7.413476230299999
 10
10.3421299316
 20
-7.4125988306
 10
10.3437124452
 20
-7.411743913199999
 10
10.3452897494
 20
-7.410911175999999
 10
10.3468615009
 20
-7.4101003147
 10
10.3484277473
 20
-7.4093108325
 10
10.3499881729
 20
-7.408542429199999
 10
10.3515424578
 20
-7.4077948091
 10
10.3530906642
 20
-7.4070675009
 10
10.3546325285
 20
-7.406360199099999
 10
10.3561677333
 20
-7.4056726256
 10
10.3576962794
 20
-7.405004365499999
 10
10.3592179065
 20
-7.404355127499999
 10
10.3607323424
 20
-7.403724627999999
 10
10.3622395862
 20
-7.4031124757
 10
10.3637393911
 20
-7.402518388099999
 10
10.3652315164
 20
-7.401942082199999
 10
10.3667159859
 20
-7.401383178399999
 10
10.3681925739
 20
-7.400841399699999
 10
10.3696610608
 20
-7.400316468799999
 10
10.3711214931
 20
-7.399808018699999
 10
10.3725736924
 20
-7.3993157692
 10
10.3740174313
 20
-7.398839459
 10
10.3754526947
 20
-7.398378760599999
 10
10.3768793974
 20
-7.397933376
 10
10.3782972548
 20
-7.3975030726
 10
10.3797059613
 20
-7.397087621999999
 10
10.3811053669
 20
-7.396686749799999
 10
10.3824952808
 20
-7.3963001953
 10
10.383875342
 20
-7.395927744399999
 10
10.3852453904
 20
-7.395569126899999
 10
10.3866052728
 20
-7.395224073099999
 10
10.3879546434
 20
-7.394892362
 10
10.3892933565
 20
-7.394573721899999
 10
10.3906212716
 20
-7.3942678823
 10
10.3919380555
 20
-7.393974616999999
 10
10.3932435783
 20
-7.393693653699999
 10
10.3945377101
 20
-7.393424722299999
 10
10.3958201219
 20
-7.3931675944
 10
10.3970907935
 20
-7.392921979699999
 10
10.3983495108
 20
-7.3926876286
 10
10.3995956582
 20
-7.3924643621
 10
10.4008292886
 20
-7.392251876899999
 10
10.4020501368
 20
-7.392049928499999
 10
10.4032571112
 20
-7.3918583994
 10
10.4044499418
 20
-7.3916770268
 10
10.4056287045
 20
-7.391505497299999
 10
10.4067928272
 20
-7.3913435937
 10
10.4079420903
 20
-7.3911910446
 10
10.4090765408
 20
-7.3910475458
 10
10.4101960096
 20
-7.3909128255
  0
LINE
  5
63D
330
1F
100
AcDbEntity
  8
0
  6
Continuous
 62
     7
100
AcDbLine
 10
15.8768296058
 20
-3.3385788759
 30
0.0
 11
15.6907484562
 21
-3.503984342199999
 31
0.0
  0
LWPOLYLINE
  5
63E
330
1F
100
AcDbEntity
  8
0
  6
Continuous
 62
     7
100
AcDbPolyline
 90
       37
 70
     0
 43
0.0
 10
14.5488724834
 20
-6.370932600899999
 10
14.5611340677
 20
-6.3668338428
 10
14.5764638232
 20
-6.3612960849
 10
14.5916805541
 20
-6.355332334499999
 10
14.6067752814
 20
-6.3489421087
 10
14.6217322125
 20
-6.3421280358
 10
14.6365291577
 20
-6.3348967576
 10
14.651153835
 20
-6.327251262399999
 10
14.665594414
 20
-6.3191946727
 10
14.6798301757
 20
-6.3107358998
 10
14.6938492551
 20
-6.3018798021
 10
14.7076405214
 20
-6.292631179499999
 10
14.7211853035
 20
-6.2830007066
 10
14.7344728073
 20
-6.2729946292
 10
14.7474923535
 20
-6.2626195301
 10
14.7602265473
 20
-6.2518882598
 10
14.7726651388
 20
-6.2408089415
 10
14.7847989325
 20
-6.229389238999999
 10
14.7966133125
 20
-6.2176427559
 10
14.8080979412
 20
-6.2055801813
 10
14.8192460094
 20
-6.193209089799999
 10
14.8300490177
 20
-6.180539230199999
 10
14.8404986435
 20
-6.167580756499999
 10
14.8505876274
 20
-6.1543430769
 10
14.8603094042
 20
-6.1408350868
 10
14.8696567662
 20
-6.1270669908
 10
14.878622793
 20
-6.1130491806
 10
14.8872015806
 20
-6.098790982499999
 10
14.8953866842
 20
-6.084303092599999
 10
14.9031719577
 20
-6.069596374199999
 10
14.9105521815
 20
-6.054680542499999
 10
14.9175217026
 20
-6.0395667349
 10
14.9240751743
 20
-6.0242662411
 10
14.9302080786
 20
-6.008789132899999
 10
14.9359157401
 20
-5.9931464827
 10
14.9411934526
 20
-5.9773504077
 10
14.9449918844
 20
-5.964988052599999
  0
LINE
  5
640
330
1F
100
AcDbEntity
  8
0
  6
Continuous
 62
     7
100
AcDbLine
 10
1.869480823399999
 20
-3.2969014135
 30
0.0
 11
16.4745211258
 21
-3.2969014135
 31
0.0
  0
LWPOLYLINE
  5
642
330
1F
100
AcDbEntity
  8
0
  6
Continuous
 62
     7
100
AcDbPolyline
 90
        5
 70
     0
 43
0.0
 10
15.6941878643
 20
-3.5019190717
 10
15.6967811776
 20
-3.4992186899
 10
15.6998278029
 20
-3.4961795902
 10
15.703212988
 20
-3.4929606563
 10
15.7061462796
 20
-3.4902972796
  0
LINE
  5
644
330
1F
100
AcDbEntity
  8
0
  6
Continuous
 62
     7
100
AcDbLine
 10
1.9076987029
 20
-2.9669014135
 30
0.0
 11
16.4363032464
 21
-2.9669014135
 31
0.0
  0
LWPOLYLINE
  5
645
330
1F
100
AcDbEntity
  8
0
  6
Continuous
 62
     7
100
AcDbPolyline
 90
        3
 70
     0
 43
0.0
 10
15.6895139933
 20
-3.5070725118
 10
15.6918961363
 20
-3.5043979502
 10
15.6941878643
 20
-3.5019190717
  0
LINE
  5
646
330
1F
100
AcDbEntity
  8
0
  6
Continuous
 62
     7
100
AcDbLine
 10
14.9449908756
 20
-5.9649876583
 30
0.0
 11
15.6509079105
 21
-3.577277772199999
 31
0.0
  0
LWPOLYLINE
  5
647
330
1F
100
AcDbEntity
  8
0
  6
Continuous
 62
     7
100
AcDbPolyline
 90
       19
 70
     0
 43
0.0
 10
15.6509078032
 20
-3.5772776548
 10
15.6514312675
 20
-3.575538117599999
 10
15.6529888728
 20
-3.570687793099999
 10
15.6546594013
 20
-3.5659314192
 10
15.6564376341
 20
-3.561270945399999
 10
15.6583183304
 20
-3.5567082327
 10
15.6602962175
 20
-3.5522450527
 10
15.6623661864
 20
-3.5478826659
 10
15.6645231091
 20
-3.543622281
 10
15.6667617143
 20
-3.539465252299999
 10
15.6690786626
 20
-3.5354094682
 10
15.6714675097
 20
-3.5314583526
 10
15.6739177529
 20
-3.527620865999999
 10
15.6764248887
 20
-3.523895487799999
 10
15.6789828422
 20
-3.520283095799999
 10
15.6815774248
 20
-3.516794965899999
 10
15.6842260639
 20
-3.513400605699999
 10
15.6869012013
 20
-3.510128583999999
 10
15.6895139933
 20
-3.5070725118
  0
LINE
  5
648
330
1F
100
AcDbEntity
  8
0
  6
Continuous
 62
     7
100
AcDbLine
 10
16.5262484208
 20
-3.060042368199999
 30
0.0
 11
16.519493713
 21
-3.2534718909
 31
0.0
  0
ARC
  5
6E8
330
1F
100
AcDbEntity
  8
0
  6
Continuous
 62
     7
100
AcDbCircle
 10
8.3393980786
 20
-8.4044014135
 30
0.0
 40
0.1875
100
AcDbArc
 50
183.576334375
 51
270.0
  0
ARC
  5
6E9
330
1F
100
AcDbEntity
  8
0
  6
Continuous
 62
     7
100
AcDbCircle
 10
10.0046038706
 20
-8.4044014135
 30
0.0
 40
0.1875
100
AcDbArc
 50
270.0
 51
356.4236656250001
  0
ARC
  5
6EA
330
1F
100
AcDbEntity
  8
0
  6
Continuous
 62
     7
100
AcDbCircle
 10
15.9864496397
 20
-3.4619014135
 30
0.0
 40
0.1650000001
100
AcDbArc
 50
90.0000001637
 51
131.6335394589
  0
ARC
  5
6EB
330
1F
100
AcDbEntity
  8
0
  6
Continuous
 62
     7
100
AcDbCircle
 10
2.357552310099999
 20
-3.4619014135
 30
0.0
 40
0.165
100
AcDbArc
 50
48.3664606634
 51
90.0
  0
ARC
  5
6EC
330
1F
100
AcDbEntity
  8
0
  6
Continuous
 62
     7
100
AcDbCircle
 10
16.4363032464
 20
-3.056901413499999
 30
0.0
 40
0.09
100
AcDbArc
 50
358.0
 51
90.0
  0
ARC
  5
6ED
330
1F
100
AcDbEntity
  8
0
  6
Continuous
 62
     7
100
AcDbCircle
 10
1.9076987029
 20
-3.056901413499999
 30
0.0
 40
0.09
100
AcDbArc
 50
90.0
 51
182.0
  0
ARC
  5
6EE
330
1F
100
AcDbEntity
  8
0
  6
Continuous
 62
     7
100
AcDbCircle
 10
16.4745210495
 20
-3.2519014135
 30
0.0
 40
0.045
100
AcDbArc
 50
270.0000971497
 51
358.0000033904
  0
ARC
  5
6EF
330
1F
100
AcDbEntity
  8
0
  6
Continuous
 62
     7
100
AcDbCircle
 10
1.8694808997
 20
-3.2519014135
 30
0.0
 40
0.045
100
AcDbArc
 50
181.9999966096
 51
269.9999028503
  0
SPLINE
  5
A1E
330
1F
100
AcDbEntity
  8
0
  6
Continuous
 62
     7
100
AcDbSpline
210
0.0
220
0.0
230
1.0
 70
     8
 71
     3
 72
    15
 73
    11
 74
     9
 42
0.0000000001
 43
0.0000000001
 44
0.0000000001
 12
0.0586278589207179
 22
0.9982799077204612
 32
0.0
 13
0.0571399839856736
 23
0.9983661764253218
 33
0.0
 40
0.0
 40
0.0
 40
0.0
 40
0.0
 40
0.0693979452351828
 40
0.1462979367452336
 40
0.2316780806857544
 40
0.3273911838425882
 40
0.4339147704709197
 40
0.5514793769359918
 40
0.6820005399524397
 40
0.8279098400910893
 40
0.8279098400910893
 40
0.8279098400910893
 40
0.8279098400910893
 10
10.2636204691
 20
-7.193480102199999
 30
0.0
 10
10.26497668674754
 20
-7.17038724407821
 30
0.0
 10
10.26783283526501
 20
-7.12170497696627
 30
0.0
 10
10.27234398199462
 20
-7.04461082127734
 30
0.0
 10
10.27735184265917
 20
-6.958759008394766
 30
0.0
 10
10.28291554276125
 20
-6.863048303439587
 30
0.0
 10
10.28907959722939
 20
-6.756626234679085
 30
0.0
 10
10.29589004902247
 20
-6.63861947548669
 30
0.0
 10
10.30343052012643
 20
-6.507504433358143
 30
0.0
 10
10.30870344737557
 20
-6.415511940828106
 30
0.0
 10
10.3114825324
 20
-6.3669549708
 30
0.0
 11
10.2636204691
 21
-7.193480102199999
 31
0.0
 11
10.2676846885
 21
-7.1242012676
 31
0.0
 11
10.2721766443
 21
-7.047432582399999
 31
0.0
 11
10.2771485872
 21
-6.962197327
 31
0.0
 11
10.282703275
 21
-6.866645542299999
 31
0.0
 11
10.2888632848
 21
-6.760300214299999
 31
0.0
 11
10.2956374783
 21
-6.6429309381
 31
0.0
 11
10.3031321052
 21
-6.512625126399999
 31
0.0
 11
10.3114825324
 21
-6.3669549708
 31
0.0
  0
LINE
  5
A2E
330
1F
100
AcDbEntity
  8
0
  6
Continuous
 62
     7
100
AcDbLine
 10
7.932421892199999
 20
-7.3907558371
 30
0.0
 11
8.016128418099999
 21
-7.3933688131
 31
0.0
  0
SPLINE
  5
A2F
330
1F
100
AcDbEntity
  8
0
  6
Continuous
 62
     7
100
AcDbSpline
210
0.0
220
0.0
230
1.0
 70
     8
 71
     3
 72
    11
 73
     7
 74
     5
 42
0.0000000001
 43
0.0000000001
 44
0.0000000001
 12
-0.999582020503454
 22
-0.0289099340406106
 32
0.0
 13
-0.9934915041343066
 23
0.1139062386919736
 33
0.0
 40
0.0
 40
0.0
 40
0.0
 40
0.0
 40
0.0188634278223882
 40
0.036253440365569
 40
0.0518592997127574
 40
0.0652372466957923
 40
0.0652372466957923
 40
0.0652372466957923
 40
0.0652372466957923
 10
10.3278735311
 20
-7.3933688131
 30
0.0
 10
10.32158835000122
 20
-7.393550593251375
 30
0.0
 10
10.30950501177703
 20
-7.393780943271993
 30
0.0
 10
10.29221676778135
 20
-7.393709018972927
 30
0.0
 10
10.27676509334232
 20
-7.393175373895648
 30
0.0
 10
10.26712898312347
 20
-7.392400861474086
 30
0.0
 10
10.2626986909
 20
-7.391892917599999
 30
0.0
 11
10.3278735311
 21
-7.3933688131
 31
0.0
 11
10.3090132679
 21
-7.393714328999999
 31
0.0
 11
10.291623546
 21
-7.393613787999999
 31
0.0
 11
10.2760289154
 21
-7.3930218907
 31
0.0
 11
10.2626986909
 21
-7.391892917599999
 31
0.0
  0
SPLINE
  5
A33
330
1F
100
AcDbEntity
  8
0
  6
Continuous
 62
     7
100
AcDbSpline
210
0.0
220
0.0
230
1.0
 70
     8
 71
     3
 72
    10
 73
     6
 74
     4
 42
0.0000000001
 43
0.0000000001
 44
0.0000000001
 12
-0.6523657441600826
 22
0.7579043052038046
 32
0.0
 13
0.1284252205337912
 23
0.991719195503872
 33
0.0
 40
0.0
 40
0.0
 40
0.0
 40
0.0
 40
0.0029808436348223
 40
0.0058215132839219
 40
0.0087576037829345
 40
0.0087576037829345
 40
0.0087576037829345
 40
0.0087576037829345
 10
10.2501090402
 20
-7.3851447278
 30
0.0
 10
10.24946084010798
 20
-7.384391663058676
 30
0.0
 10
10.24834680464228
 20
-7.382771701330737
 30
0.0
 10
10.24743254469012
 20
-7.379954405395026
 30
0.0
 10
10.24742821374338
 20
-7.377995477135868
 30
0.0
 10
10.2475539031
 20
-7.377024884699999
 30
0.0
 11
10.2501090402
 21
-7.3851447278
 31
0.0
 11
10.248452722
 21
-7.3826664141
 31
0.0
 11
10.2475872872
 21
-7.379960785399999
 31
0.0
 11
10.2475539031
 21
-7.377024884699999
 31
0.0
  0
SPLINE
  5
A34
330
1F
100
AcDbEntity
  8
0
  6
Continuous
 62
     7
100
AcDbSpline
210
0.0
220
0.0
230
1.0
 70
     8
 71
     3
 72
    19
 73
    15
 74
    13
 42
0.0000000001
 43
0.0000000001
 44
0.0000000001
 12
0.128435483296559
 22
0.9917178664470956
 32
0.0
 13
0.0821110558661784
 23
0.9966231858152514
 33
0.0
 40
0.0
 40
0.0
 40
0.0
 40
0.0
 40
0.0064987960058397
 40
0.013829591206639
 40
0.0220416128701462
 40
0.0311742684217385
 40
0.0412561815918942
 40
0.0523168246724566
 40
0.0644258759564327
 40
0.0776669048473779
 40
0.0921235790937529
 40
0.1078768666871038
 40
0.1250021625436316
 40
0.1435688309716671
 40
0.1435688309716671
 40
0.1435688309716671
 40
0.1435688309716671
 10
10.2475539031
 20
-7.377024884699999
 30
0.0
 10
10.24783212843528
 20
-7.374876560663538
 30
0.0
 10
10.24843257673609
 20
-7.370305963230057
 30
0.0
 10
10.24939963440839
 20
-7.363022681869402
 30
0.0
 10
10.2504798560202
 20
-7.354868764091861
 30
0.0
 10
10.2516586433546
 20
-7.345802866488308
 30
0.0
 10
10.25292169322243
 20
-7.335790449120436
 30
0.0
 10
10.25425626327668
 20
-7.32478716812647
 30
0.0
 10
10.25565001148216
 20
-7.312730480105266
 30
0.0
 10
10.25709255467124
 20
-7.299540120257459
 30
0.0
 10
10.25857571981662
 20
-7.285132499197013
 30
0.0
 10
10.26009256031621
 20
-7.269427055277445
 30
0.0
 10
10.26163695043774
 20
-7.252348228313894
 30
0.0
 10
10.26264242495048
 20
-7.24049340574624
 30
0.0
 10
10.2631506012
 20
-7.234325414999999
 30
0.0
 11
10.2475539031
 21
-7.377024884699999
 31
0.0
 11
10.2483978475
 21
-7.370581119699999
 31
0.0
 11
10.2493606358
 21
-7.3633138233
 31
0.0
 11
10.2504364529
 21
-7.3551725754
 31
0.0
 11
10.2516123718
 21
-7.346115941799999
 31
0.0
 11
10.2528732491
 21
-7.3361131841
 31
0.0
 11
10.2542043798
 21
-7.325132932899999
 31
0.0
 11
10.2555948822
 21
-7.313103983399999
 31
0.0
 11
10.2570351803
 21
-7.2999415221
 31
0.0
 11
10.258517005
 21
-7.285560992699999
 31
0.0
 11
10.2600333136
 21
-7.269880849899999
 31
0.0
 11
10.2615784859
 21
-7.252825405
 31
0.0
 11
10.2631506012
 21
-7.234325414999999
 31
0.0
  0
SPLINE
  5
A48
330
1F
100
AcDbEntity
  8
0
  6
Continuous
 62
     7
100
AcDbSpline
210
0.0
220
0.0
230
1.0
 70
     8
 71
     3
 72
    18
 73
    14
 74
    12
 42
0.0000000001
 43
0.0000000001
 44
0.0000000001
 12
0.0463808640936752
 22
0.9989238286505754
 32
0.0
 13
0.0695306596691324
 23
0.9975798150353561
 33
0.0
 40
0.0
 40
0.0
 40
0.0
 40
0.0
 40
0.021886401128987
 40
0.0473298978326202
 40
0.0761410854190596
 40
0.1080773230019493
 40
0.1428904408148458
 40
0.1803731518749666
 40
0.2203161014371671
 40
0.2624992468900114
 40
0.3066172211112152
 40
0.3522836784519017
 40
0.3990799861349634
 40
0.3990799861349634
 40
0.3990799861349634
 40
0.3990799861349634
 10
10.3114824793
 20
-6.3669549629
 30
0.0
 10
10.31182084936542
 20
-6.359667347029617
 30
0.0
 10
10.31260004113229
 20
-6.343909893134581
 30
0.0
 10
10.31395551252471
 20
-6.318565709868678
 30
0.0
 10
10.31557899026335
 20
-6.289881269466942
 30
0.0
 10
10.31745787554158
 20
-6.258083190918508
 30
0.0
 10
10.31957832989872
 20
-6.223403914928043
 30
0.0
 10
10.32192662006296
 20
-6.186064742660152
 30
0.0
 10
10.32448937108081
 20
-6.14627757704424
 30
0.0
 10
10.32725090469266
 20
-6.104286917889929
 30
0.0
 10
10.33019141439753
 20
-6.060396106290994
 30
0.0
 10
10.33328603499611
 20
-6.014974482271901
 30
0.0
 10
10.33541367248557
 20
-5.984227079620935
 30
0.0
 10
10.3364982652
 20
-5.968666062299999
 30
0.0
 11
10.3114824793
 21
-6.3669549629
 31
0.0
 11
10.3125550335
 21
-6.3450948581
 31
0.0
 11
10.3139078951
 21
-6.319687353499999
 31
0.0
 11
10.3155314128
 21
-6.2909219451
 31
0.0
 11
10.3174117299
 21
-6.2590411095
 31
0.0
 11
10.3195337217
 21
-6.224292723599999
 31
0.0
 11
10.3218842888
 21
-6.186883788
 31
0.0
 11
10.3244500844
 21
-6.147023332499999
 31
0.0
 11
10.3272169833
 21
-6.1049310288
 31
0.0
 11
10.3301650567
 21
-6.060911663599999
 31
0.0
 11
10.3332683953
 21
-6.015350774499999
 31
0.0
 11
10.3364982652
 21
-5.968666062299999
 31
0.0
  0
SPLINE
  5
A4D
330
1F
100
AcDbEntity
  8
0
  6
Continuous
 62
     7
100
AcDbSpline
210
0.0
220
0.0
230
1.0
 70
     8
 71
     3
 72
    13
 73
     9
 74
     7
 42
0.0000000001
 43
0.0000000001
 44
0.0000000001
 12
0.010799186665879
 22
0.9999416870834798
 32
0.0
 13
0.0451522811256872
 23
0.9989801156725528
 33
0.0
 40
0.0
 40
0.0
 40
0.0
 40
0.0
 40
0.0174395946479897
 40
0.0342595542127069
 40
0.0502986232343254
 40
0.0654044550618725
 40
0.0794333794819711
 40
0.0922515584384965
 40
0.0922515584384965
 40
0.0922515584384965
 40
0.0922515584384965
 10
10.4702525154
 20
-3.577079172499999
 30
0.0
 10
10.47031529321266
 20
-3.571266313268545
 30
0.0
 10
10.47046203482925
 20
-3.559847363927646
 30
0.0
 10
10.47075139913959
 20
-3.54308359664632
 30
0.0
 10
10.47110416486293
 20
-3.527099134611467
 30
0.0
 10
10.47151656663125
 20
-3.512046758119278
 30
0.0
 10
10.4719844323934
 20
-3.498070185691845
 30
0.0
 10
10.47234759826007
 20
-3.489128409532233
 30
0.0
 10
10.4725405216
 20
-3.4848600409
 30
0.0
 11
10.4702525154
 21
-3.577079172499999
 31
0.0
 11
10.4704777361
 21
-3.5596410322
 31
0.0
 11
10.4707696823
 21
-3.542823606499999
 31
0.0
 11
10.471125686
 21
-3.526788488899999
 31
0.0
 11
10.4715422418
 21
-3.511688401599999
 31
0.0
 11
10.4720153457
 21
-3.497667456799999
 31
0.0
 11
10.4725405216
 21
-3.4848600409
 31
0.0
  0
SPLINE
  5
A67
330
1F
100
AcDbEntity
  8
0
  6
Continuous
 62
     7
100
AcDbSpline
210
0.0
220
0.0
230
1.0
 70
     8
 71
     3
 72
     9
 73
     5
 74
     3
 42
0.0000000001
 43
0.0000000001
 44
0.0000000001
 12
-0.990131886122967
 22
0.1401386744713107
 32
0.0
 13
-0.4209054997715423
 23
0.9071044924715501
 33
0.0
 40
0.0
 40
0.0
 40
0.0
 40
0.0
 40
0.0084599098915384
 40
0.0146703179503229
 40
0.0146703179503229
 40
0.0146703179503229
 40
0.0146703179503229
 10
10.2626482382
 20
-7.3918874138
 30
0.0
 10
10.25985609602089
 20
-7.391492226947217
 30
0.0
 10
10.25499378533609
 20
-7.390468024319096
 30
0.0
 10
10.25098031093592
 20
-7.387022469683401
 30
0.0
 10
10.2501089793
 20
-7.38514464
 30
0.0
 11
10.2626482382
 21
-7.3918874138
 31
0.0
 11
10.254530491
 21
-7.389505763999999
 31
0.0
 11
10.2501089793
 21
-7.38514464
 31
0.0
  0
SPLINE
  5
A69
330
1F
100
AcDbEntity
  8
0
  6
Continuous
 62
     7
100
AcDbSpline
210
0.0
220
0.0
230
1.0
 70
     8
 71
     3
 72
    11
 73
     7
 74
     5
 42
0.0000000001
 43
0.0000000001
 44
0.0000000001
 12
-0.0354366894675895
 22
0.9993719232796054
 32
0.0
 13
0.0315453084889493
 23
0.999502322914928
 33
0.0
 40
0.0
 40
0.0
 40
0.0
 40
0.0
 40
0.0071610451115872
 40
0.0163643435508078
 40
0.0275939114229579
 40
0.0408534917363903
 40
0.0408534917363903
 40
0.0408534917363903
 40
0.0408534917363903
 10
10.2631505586
 20
-7.2343253892
 30
0.0
 10
10.26306597068937
 20
-7.231939873391381
 30
0.0
 10
10.26298708441877
 20
-7.226484705123689
 30
0.0
 10
10.26303779580377
 20
-7.217286701496629
 30
0.0
 10
10.26325014586968
 20
-7.206057593972227
 30
0.0
 10
10.26348104914952
 20
-7.197897731741384
 30
0.0
 10
10.263620475
 20
-7.193480071299999
 30
0.0
 11
10.2631505586
 21
-7.2343253892
 31
0.0
 11
10.2630177946
 21
-7.227165574899999
 31
0.0
 11
10.2630525801
 21
-7.217962342199999
 31
0.0
 11
10.2632534494
 21
-7.206734571
 31
0.0
 11
10.263620475
 21
-7.193480071299999
 31
0.0
  0
SPLINE
  5
A7E
330
1F
100
AcDbEntity
  8
0
  6
Continuous
 62
     7
100
AcDbSpline
210
0.0
220
0.0
230
1.0
 70
     8
 71
     3
 72
    13
 73
     9
 74
     7
 42
0.0000000001
 43
0.0000000001
 44
0.0000000001
 12
-1.0
 22
0.0
 32
0.0
 13
-0.0453883703943725
 23
-0.9989694168656731
 33
0.0
 40
0.0
 40
0.0
 40
0.0
 40
0.0
 40
0.0014393344354667
 40
0.0051290818548371
 40
0.0111307600906085
 40
0.0193758335833798
 40
0.0297503865074604
 40
0.0421059002818823
 40
0.0421059002818823
 40
0.0421059002818823
 40
0.0421059002818823
 10
10.4822037854
 20
-3.2969014135
 30
0.0
 10
10.48172400725484
 20
-3.2969014135
 30
0.0
 10
10.4811481873866
 20
-3.299174116259265
 30
0.0
 10
10.48047993047396
 20
-3.302257622597107
 30
0.0
 10
10.47977817562875
 20
-3.308508549053828
 30
0.0
 10
10.47908519614529
 20
-3.31655281411636
 30
0.0
 10
10.4784224849752
 20
-3.326908883832543
 30
0.0
 10
10.47804202661187
 20
-3.334462018369896
 30
0.0
 10
10.4778550944
 20
-3.3385762785
 30
0.0
 11
10.4822037854
 21
-3.2969014135
 31
0.0
 11
10.4814219272
 21
-3.298109875899999
 31
0.0
 11
10.4806481091
 21
-3.301717567899999
 31
0.0
 11
10.4798937051
 21
-3.307671643499999
 31
0.0
 11
10.4791697782
 21
-3.3158848747
 31
0.0
 11
10.4784869185
 21
-3.326236930099999
 31
0.0
 11
10.4778550944
 21
-3.3385762785
 31
0.0
  0
LINE
  5
A8A
330
1F
100
AcDbEntity
  8
0
  6
Continuous
 62
     7
100
AcDbLine
 10
10.4725405244
 20
-3.484860053799999
 30
0.0
 11
10.4777059109
 21
-3.3923874553
 31
0.0
  0
SPLINE
  5
A8B
330
1F
100
AcDbEntity
  8
0
  6
Continuous
 62
     7
100
AcDbSpline
210
0.0
220
0.0
230
1.0
 70
     8
 71
     3
 72
     9
 73
     5
 74
     3
 42
0.0000000001
 43
0.0000000001
 44
0.0000000001
 12
0.0557851957595958
 22
0.9984427935210227
 32
0.0
 13
-0.0507596522331887
 23
0.9987108979605489
 33
0.0
 40
0.0
 40
0.0
 40
0.0
 40
0.0
 40
0.0271580093232268
 40
0.0538307549234936
 40
0.0538307549234936
 40
0.0538307549234936
 40
0.0538307549234936
 10
10.4777059109
 20
-3.3923874553
 30
0.0
 10
10.47821091585551
 20
-3.383348882401616
 30
0.0
 10
10.47873745858627
 20
-3.365403408356485
 30
0.0
 10
10.47830634036359
 20
-3.347455482503171
 30
0.0
 10
10.4778550406
 20
-3.338576028599999
 30
0.0
 11
10.4777059109
 21
-3.3923874553
 31
0.0
 11
10.478498454
 21
-3.365241012699999
 31
0.0
 11
10.4778550406
 21
-3.338576028599999
 31
0.0
  0
LINE
  5
A9C
330
1F
100
AcDbEntity
  8
0
  6
Continuous
 62
     7
100
AcDbLine
 10
8.007503701899999
 20
-5.968666065999999
 30
0.0
 11
7.8737494285
 21
-3.5770791743
 31
0.0
  0
SPLINE
  5
AAC
330
1F
100
AcDbEntity
  8
0
  6
Continuous
 62
     7
100
AcDbSpline
210
0.0
220
0.0
230
1.0
 70
     8
 71
     3
 72
    15
 73
    11
 74
     9
 42
0.0000000001
 43
0.0000000001
 44
0.0000000001
 12
-0.0586278589207179
 22
0.9982799077204612
 32
0.0
 13
-0.0571399839856736
 23
0.9983661764253218
 33
0.0
 40
0.0
 40
0.0
 40
0.0
 40
0.0
 40
0.0693979452410392
 40
0.1462979367452486
 40
0.2316780806857695
 40
0.3273911838426033
 40
0.4339147704709348
 40
0.5514793769360069
 40
0.6820005399581969
 40
0.8279098400911236
 40
0.8279098400911236
 40
0.8279098400911236
 40
0.8279098400911236
 10
8.080381480199999
 20
-7.193480102199999
 30
0.0
 10
8.07902526255234
 20
-7.170387244076261
 30
0.0
 10
8.076169113849331
 20
-7.121704976975193
 30
0.0
 10
8.071657967363382
 20
-7.044610821271994
 30
0.0
 10
8.066650106621974
 20
-6.958759008395871
 30
0.0
 10
8.061086406546751
 20
-6.863048303439116
 30
0.0
 10
8.054922352059064
 20
-6.756626234679754
 30
0.0
 10
8.048111900320284
 20
-6.638619475482313
 30
0.0
 10
8.04057142898767
 20
-6.507504433366902
 30
0.0
 10
8.035298501924318
 20
-6.415511940826201
 30
0.0
 10
8.032519416899999
 20
-6.3669549708
 30
0.0
 11
8.080381480199999
 21
-7.193480102199999
 31
0.0
 11
8.076317260699999
 21
-7.1242012676
 31
0.0
 11
8.071825305
 21
-7.047432582399999
 31
0.0
 11
8.066853362099999
 21
-6.962197327
 31
0.0
 11
8.061298674299999
 21
-6.866645542299999
 31
0.0
 11
8.055138664499999
 21
-6.760300214299999
 31
0.0
 11
8.048364470999999
 21
-6.6429309381
 31
0.0
 11
8.040869843999999
 21
-6.512625126399999
 31
0.0
 11
8.032519416899999
 21
-6.3669549708
 31
0.0
  0
SPLINE
  5
AB1
330
1F
100
AcDbEntity
  8
0
  6
Continuous
 62
     7
100
AcDbSpline
210
0.0
220
0.0
230
1.0
 70
     8
 71
     3
 72
    13
 73
     9
 74
     7
 42
0.0000000001
 43
0.0000000001
 44
0.0000000001
 12
1.0
 22
0.0
 32
0.0
 13
0.0453883703943725
 23
-0.9989694168656731
 33
0.0
 40
0.0
 40
0.0
 40
0.0
 40
0.0
 40
0.0014393343811463
 40
0.005129081800517
 40
0.0111307600488582
 40
0.0193758335416294
 40
0.0297503864591279
 40
0.0421059002386636
 40
0.0421059002386636
 40
0.0421059002386636
 40
0.0421059002386636
 10
7.861798163899999
 20
-3.2969014135
 30
0.0
 10
7.862277942027048
 20
-3.2969014135
 30
0.0
 10
7.862853761733306
 20
-3.299174116332801
 30
0.0
 10
7.863522018757717
 20
-3.302257622567907
 30
0.0
 10
7.86422377369529
 20
-3.308508549059257
 30
0.0
 10
7.864916753178912
 20
-3.316552814108357
 30
0.0
 10
7.865579464142135
 20
-3.326908883842969
 30
0.0
 10
7.865959922688054
 20
-3.334462018368193
 30
0.0
 10
7.8661468549
 20
-3.3385762785
 30
0.0
 11
7.861798163899999
 21
-3.2969014135
 31
0.0
 11
7.862580022
 21
-3.298109875899999
 31
0.0
 11
7.8633538401
 21
-3.301717567899999
 31
0.0
 11
7.864108244199999
 21
-3.307671643499999
 31
0.0
 11
7.864832171099999
 21
-3.3158848747
 31
0.0
 11
7.8655150307
 21
-3.326236930099999
 31
0.0
 11
7.8661468549
 21
-3.3385762785
 31
0.0
  0
LINE
  5
AB2
330
1F
100
AcDbEntity
  8
0
  6
Continuous
 62
     7
100
AcDbLine
 10
10.4115800571
 20
-7.3907558371
 30
0.0
 11
10.3278735311
 21
-7.3933688131
 31
0.0
  0
SPLINE
  5
AB6
330
1F
100
AcDbEntity
  8
0
  6
Continuous
 62
     7
100
AcDbSpline
210
0.0
220
0.0
230
1.0
 70
     8
 71
     3
 72
    11
 73
     7
 74
     5
 42
0.0000000001
 43
0.0000000001
 44
0.0000000001
 12
0.999582020503454
 22
-0.0289099340406106
 32
0.0
 13
0.9934915041343066
 23
0.1139062386919736
 33
0.0
 40
0.0
 40
0.0
 40
0.0
 40
0.0
 40
0.0188634278223882
 40
0.0362534404655691
 40
0.0518592998127557
 40
0.0652372467957924
 40
0.0652372467957924
 40
0.0652372467957924
 40
0.0652372467957924
 10
8.016128418099999
 20
-7.3933688131
 30
0.0
 10
8.022413599198774
 20
-7.393550593251375
 30
0.0
 10
8.0344969374563
 20
-7.393780943272087
 30
0.0
 10
8.051785181485321
 20
-7.393709018973983
 30
0.0
 10
8.067236855957684
 20
-7.393175373895669
 30
0.0
 10
8.07687296617653
 20
-7.392400861474086
 30
0.0
 10
8.0813032584
 20
-7.391892917599999
 30
0.0
 11
8.016128418099999
 21
-7.3933688131
 31
0.0
 11
8.034988681299999
 21
-7.393714328999999
 31
0.0
 11
8.0523784033
 21
-7.393613787999999
 31
0.0
 11
8.067973033899999
 21
-7.3930218907
 31
0.0
 11
8.0813032584
 21
-7.391892917599999
 31
0.0
  0
SPLINE
  5
AB9
330
1F
100
AcDbEntity
  8
0
  6
Continuous
 62
     7
100
AcDbSpline
210
0.0
220
0.0
230
1.0
 70
     8
 71
     3
 72
    19
 73
    15
 74
    13
 42
0.0000000001
 43
0.0000000001
 44
0.0000000001
 12
-0.128435483296559
 22
0.9917178664470956
 32
0.0
 13
-0.0821110558661784
 23
0.9966231858152514
 33
0.0
 40
0.0
 40
0.0
 40
0.0
 40
0.0
 40
0.0064987960188261
 40
0.0138295912064917
 40
0.0220416128830994
 40
0.0311742684346917
 40
0.041256181592341
 40
0.0523168246729034
 40
0.0644258759683627
 40
0.077666904859308
 40
0.092123579095433
 40
0.1078768666887839
 40
0.1250021625543344
 40
0.1435688309739026
 40
0.1435688309739026
 40
0.1435688309739026
 40
0.1435688309739026
 10
8.0964480462
 20
-7.377024884699999
 30
0.0
 10
8.09616982086416
 20
-7.374876560659244
 30
0.0
 10
8.095569372372914
 20
-7.370305963250817
 30
0.0
 10
8.0946023149788
 20
-7.363022681849057
 30
0.0
 10
8.093522093128109
 20
-7.354868764103132
 30
0.0
 10
8.092343305833935
 20
-7.345802866493858
 30
0.0
 10
8.091080256104437
 20
-7.33579044911281
 30
0.0
 10
8.089745686043066
 20
-7.324787168120419
 30
0.0
 10
8.088351937688445
 20
-7.312730480112564
 30
0.0
 10
8.086909394510154
 20
-7.299540120262716
 30
0.0
 10
8.085426229509442
 20
-7.285132499190789
 30
0.0
 10
8.083909389015945
 20
-7.269427055271696
 30
0.0
 10
8.08236499868104
 20
-7.252348228326826
 30
0.0
 10
8.081359524349281
 20
-7.240493405743428
 30
0.0
 10
8.080851348099999
 20
-7.234325414999999
 30
0.0
 11
8.0964480462
 21
-7.377024884699999
 31
0.0
 11
8.095604101699999
 21
-7.370581119699999
 31
0.0
 11
8.0946413135
 21
-7.3633138233
 31
0.0
 11
8.0935654963
 21
-7.3551725754
 31
0.0
 11
8.0923895774
 21
-7.346115941799999
 31
0.0
 11
8.0911287002
 21
-7.3361131841
 31
0.0
 11
8.089797569499999
 21
-7.325132932899999
 31
0.0
 11
8.088407067
 21
-7.313103983399999
 31
0.0
 11
8.086966768899999
 21
-7.2999415221
 31
0.0
 11
8.085484944299999
 21
-7.285560992699999
 31
0.0
 11
8.083968635699999
 21
-7.269880849899999
 31
0.0
 11
8.082423463299999
 21
-7.252825405
 31
0.0
 11
8.080851348099999
 21
-7.234325414999999
 31
0.0
  0
SPLINE
  5
ABA
330
1F
100
AcDbEntity
  8
0
  6
Continuous
 62
     7
100
AcDbSpline
210
0.0
220
0.0
230
1.0
 70
     8
 71
     3
 72
    10
 73
     6
 74
     4
 42
0.0000000001
 43
0.0000000001
 44
0.0000000001
 12
0.6523657441600826
 22
0.7579043052038046
 32
0.0
 13
-0.1284252205337912
 23
0.991719195503872
 33
0.0
 40
0.0
 40
0.0
 40
0.0
 40
0.0
 40
0.0029808436348223
 40
0.0058215132839224
 40
0.008757603782935
 40
0.008757603782935
 40
0.008757603782935
 40
0.008757603782935
 10
8.093892909099999
 20
-7.3851447278
 30
0.0
 10
8.094541109192018
 20
-7.384391663058676
 30
0.0
 10
8.095655144657719
 20
-7.382771701330737
 30
0.0
 10
8.096569404609873
 20
-7.379954405395029
 30
0.0
 10
8.096573735556615
 20
-7.377995477135868
 30
0.0
 10
8.0964480462
 20
-7.377024884699999
 30
0.0
 11
8.093892909099999
 21
-7.3851447278
 31
0.0
 11
8.095549227299999
 21
-7.3826664141
 31
0.0
 11
8.0964146621
 21
-7.379960785399999
 31
0.0
 11
8.0964480462
 21
-7.377024884699999
 31
0.0
  0
LINE
  5
AC0
330
1F
100
AcDbEntity
  8
0
  6
Continuous
 62
     7
100
AcDbLine
 10
10.3364982474
 20
-5.968666065999999
 30
0.0
 11
10.4702525208
 21
-3.5770791743
 31
0.0
  0
SPLINE
  5
AC9
330
1F
100
AcDbEntity
  8
0
  6
Continuous
 62
     7
100
AcDbSpline
210
0.0
220
0.0
230
1.0
 70
     8
 71
     3
 72
     9
 73
     5
 74
     3
 42
0.0000000001
 43
0.0000000001
 44
0.0000000001
 12
-0.0557851957595958
 22
0.9984427935210227
 32
0.0
 13
0.0507596522331887
 23
0.9987108979605489
 33
0.0
 40
0.0
 40
0.0
 40
0.0
 40
0.0
 40
0.027158009326145
 40
0.053830754928824
 40
0.053830754928824
 40
0.053830754928824
 40
0.053830754928824
 10
7.866296038399999
 20
-3.3923874553
 30
0.0
 10
7.865791033444432
 20
-3.383348882400644
 30
0.0
 10
7.865264490513758
 20
-3.365403408356858
 30
0.0
 10
7.865695608936368
 20
-3.347455482503975
 30
0.0
 10
7.8661469087
 20
-3.338576028599999
 30
0.0
 11
7.866296038399999
 21
-3.3923874553
 31
0.0
 11
7.865503495199999
 21
-3.365241012699999
 31
0.0
 11
7.8661469087
 21
-3.338576028599999
 31
0.0
  0
LINE
  5
ACA
330
1F
100
AcDbEntity
  8
0
  6
Continuous
 62
     7
100
AcDbLine
 10
7.871461424899999
 20
-3.484860053799999
 30
0.0
 11
7.866296038399999
 21
-3.3923874553
 31
0.0
  0
SPLINE
  5
AD1
330
1F
100
AcDbEntity
  8
0
  6
Continuous
 62
     7
100
AcDbSpline
210
0.0
220
0.0
230
1.0
 70
     8
 71
     3
 72
    18
 73
    14
 74
    12
 42
0.0000000001
 43
0.0000000001
 44
0.0000000001
 12
-0.0463808640936752
 22
0.9989238286505754
 32
0.0
 13
-0.0695306596691324
 23
0.9975798150353561
 33
0.0
 40
0.0
 40
0.0
 40
0.0
 40
0.0
 40
0.0218864011338875
 40
0.0473298978375208
 40
0.0761410854239602
 40
0.1080773230009623
 40
0.1428904408138587
 40
0.1803731518802507
 40
0.2203161014424511
 40
0.2624992468887362
 40
0.3066172211099399
 40
0.3522836784574221
 40
0.3990799861404838
 40
0.3990799861404838
 40
0.3990799861404838
 40
0.3990799861404838
 10
8.03251947
 20
-6.3669549629
 30
0.0
 10
8.032181099934502
 20
-6.359667347027984
 30
0.0
 10
8.031401908012297
 20
-6.343909893138951
 30
0.0
 10
8.030046436699754
 20
-6.318565709867412
 30
0.0
 10
8.028422958900542
 20
-6.289881269470976
 30
0.0
 10
8.026544073793038
 20
-6.258083190914546
 30
0.0
 10
8.024423619420048
 20
-6.223403914924719
 30
0.0
 10
8.022075329109373
 20
-6.18606474266398
 30
0.0
 10
8.019512578097721
 20
-6.146277577047863
 30
0.0
 10
8.016751044633718
 20
-6.104286917886017
 30
0.0
 10
8.01381053492793
 20
-6.060396106286966
 30
0.0
 10
8.010715914166793
 20
-6.014974482276707
 30
0.0
 10
8.008588276714426
 20
-5.984227079620935
 30
0.0
 10
8.007503683999999
 20
-5.968666062299999
 30
0.0
 11
8.03251947
 21
-6.3669549629
 31
0.0
 11
8.0314469157
 21
-6.3450948581
 31
0.0
 11
8.030094054099999
 21
-6.319687353499999
 31
0.0
 11
8.0284705364
 21
-6.2909219451
 31
0.0
 11
8.026590219399999
 21
-6.2590411095
 31
0.0
 11
8.024468227599999
 21
-6.224292723599999
 31
0.0
 11
8.022117660399999
 21
-6.186883788
 31
0.0
 11
8.0195518648
 21
-6.147023332499999
 31
0.0
 11
8.016784965999999
 21
-6.1049310288
 31
0.0
 11
8.0138368926
 21
-6.060911663599999
 31
0.0
 11
8.010733553899999
 21
-6.015350774499999
 31
0.0
 11
8.007503683999999
 21
-5.968666062299999
 31
0.0
  0
SPLINE
  5
AD9
330
1F
100
AcDbEntity
  8
0
  6
Continuous
 62
     7
100
AcDbSpline
210
0.0
220
0.0
230
1.0
 70
     8
 71
     3
 72
    13
 73
     9
 74
     7
 42
0.0000000001
 43
0.0000000001
 44
0.0000000001
 12
-0.010799186665879
 22
0.9999416870834798
 32
0.0
 13
-0.0451522811256872
 23
0.9989801156725528
 33
0.0
 40
0.0
 40
0.0
 40
0.0
 40
0.0
 40
0.0174395946479897
 40
0.0342595542127069
 40
0.050298623236545
 40
0.0654044550613345
 40
0.0794333794814332
 40
0.0922515584379585
 40
0.0922515584379585
 40
0.0922515584379585
 40
0.0922515584379585
 10
7.873749433899999
 20
-3.577079172499999
 30
0.0
 10
7.873686656087339
 20
-3.571266313268545
 30
0.0
 10
7.873539914455459
 20
-3.559847363928004
 30
0.0
 10
7.873250550210851
 20
-3.543083596644398
 30
0.0
 10
7.872897784263454
 20
-3.527099134614974
 30
0.0
 10
7.872485382710797
 20
-3.512046758117243
 30
0.0
 10
7.872017516896037
 20
-3.498070185692125
 30
0.0
 10
7.871654351039921
 20
-3.489128409532233
 30
0.0
 10
7.871461427699999
 20
-3.4848600409
 30
0.0
 11
7.873749433899999
 21
-3.577079172499999
 31
0.0
 11
7.873524213199999
 21
-3.5596410322
 31
0.0
 11
7.873232266999999
 21
-3.542823606499999
 31
0.0
 11
7.8728762632
 21
-3.526788488899999
 31
0.0
 11
7.8724597075
 21
-3.511688401599999
 31
0.0
 11
7.871986603599999
 21
-3.497667456799999
 31
0.0
 11
7.871461427699999
 21
-3.4848600409
 31
0.0
  0
SPLINE
  5
AEE
330
1F
100
AcDbEntity
  8
0
  6
Continuous
 62
     7
100
AcDbSpline
210
0.0
220
0.0
230
1.0
 70
     8
 71
     3
 72
     9
 73
     5
 74
     3
 42
0.0000000001
 43
0.0000000001
 44
0.0000000001
 12
0.990131886122967
 22
0.1401386744713107
 32
0.0
 13
0.4209054997715423
 23
0.9071044924715501
 33
0.0
 40
0.0
 40
0.0
 40
0.0
 40
0.0
 40
0.0084599097955829
 40
0.0146703179255626
 40
0.0146703179255626
 40
0.0146703179255626
 40
0.0146703179255626
 10
8.0813537111
 20
-7.3918874138
 30
0.0
 10
8.084145853247443
 20
-7.3914922269517
 30
0.0
 10
8.089008163877247
 20
-7.390468024247585
 30
0.0
 10
8.093021638354089
 20
-7.387022469704929
 30
0.0
 10
8.09389297
 20
-7.38514464
 30
0.0
 11
8.0813537111
 21
-7.3918874138
 31
0.0
 11
8.0894714582
 21
-7.389505763999999
 31
0.0
 11
8.09389297
 21
-7.38514464
 31
0.0
  0
SPLINE
  5
AF1
330
1F
100
AcDbEntity
  8
0
  6
Continuous
 62
     7
100
AcDbSpline
210
0.0
220
0.0
230
1.0
 70
     8
 71
     3
 72
    11
 73
     7
 74
     5
 42
0.0000000001
 43
0.0000000001
 44
0.0000000001
 12
0.0354366894675895
 22
0.9993719232796054
 32
0.0
 13
-0.0315453084889493
 23
0.999502322914928
 33
0.0
 40
0.0
 40
0.0
 40
0.0
 40
0.0
 40
0.0071610451115872
 40
0.0163643435508078
 40
0.0275939114247467
 40
0.0408534917354111
 40
0.0408534917354111
 40
0.0408534917354111
 40
0.0408534917354111
 10
8.080851390699999
 20
-7.2343253892
 30
0.0
 10
8.080935978610627
 20
-7.231939873391381
 30
0.0
 10
8.081014864873683
 20
-7.22648470512384
 30
0.0
 10
8.08096415353409
 20
-7.217286701495278
 30
0.0
 10
8.080751803242982
 20
-7.206057593975695
 30
0.0
 10
8.080520900150444
 20
-7.197897731740462
 30
0.0
 10
8.080381474299999
 20
-7.193480071299999
 30
0.0
 11
8.080851390699999
 21
-7.2343253892
 31
0.0
 11
8.080984154699999
 21
-7.227165574899999
 31
0.0
 11
8.0809493692
 21
-7.217962342199999
 31
0.0
 11
8.0807484998
 21
-7.206734571
 31
0.0
 11
8.080381474299999
 21
-7.193480071299999
 31
0.0
  0
ENDSEC
  0
SECTION
  2
OBJECTS
  0
DICTIONARY
  5
C
330
0
100
AcDbDictionary
281
     1
  3
ACAD_COLOR
350
C3A
  3
ACAD_GROUP
350
D
  3
ACAD_LAYOUT
350
1A
  3
ACAD_MATERIAL
350
C39
  3
ACAD_MLINESTYLE
350
17
  3
ACAD_PLOTSETTINGS
350
19
  3
ACAD_PLOTSTYLENAME
350
E
  3
ACAD_TABLESTYLE
350
C3B
  3
AcDbVariableDictionary
350
D04
  3
AcmDictionary
350
C9A
  3
AMG
350
C40
  3
AMGSNAPSETTINGS
350
CED
  3
ASE_INDEX_DICTIONARY
350
D00
  0
DICTIONARY
  5
C3A
102
{ACAD_REACTORS
330
C
102
}
330
C
100
AcDbDictionary
281
     1
  0
DICTIONARY
  5
D
102
{ACAD_REACTORS
330
C
102
}
330
C
100
AcDbDictionary
281
     1
  0
DICTIONARY
  5
1A
102
{ACAD_REACTORS
330
C
102
}
330
C
100
AcDbDictionary
281
     1
  3
Layout1
350
1E
  3
Model
350
22
  0
DICTIONARY
  5
C39
102
{ACAD_REACTORS
330
C
102
}
330
C
100
AcDbDictionary
281
     1
  0
DICTIONARY
  5
17
102
{ACAD_REACTORS
330
C
102
}
330
C
100
AcDbDictionary
281
     1
  3
Standard
350
18
  0
DICTIONARY
  5
19
102
{ACAD_REACTORS
330
C
102
}
330
C
100
AcDbDictionary
281
     1
  0
ACDBDICTIONARYWDFLT
  5
E
102
{ACAD_REACTORS
330
C
102
}
330
C
100
AcDbDictionary
281
     1
  3
Normal
350
F
100
AcDbDictionaryWithDefault
340
F
  0
DICTIONARY
  5
C3B
102
{ACAD_REACTORS
330
C
102
}
330
C
100
AcDbDictionary
281
     1
  3
Standard
350
C3C
  0
DICTIONARY
  5
D04
102
{ACAD_REACTORS
330
C
102
}
330
C
100
AcDbDictionary
281
     1
  3
CTABLESTYLE
350
D05
  0
DICTIONARY
  5
C9A
102
{ACAD_REACTORS
330
C
102
}
330
C
100
AcDbDictionary
281
     1
  3
AcmStdDictionary
350
CA5
  3
AMDTSECTSYM_ARROWCOLOR
350
CC4
  0
DICTIONARY
  5
C40
102
{ACAD_REACTORS
330
C
102
}
330
C
100
AcDbDictionary
281
     1
  0
DICTIONARY
  5
CED
102
{ACAD_REACTORS
330
C
102
}
330
C
100
AcDbDictionary
281
     1
  0
DICTIONARY
  5
D00
102
{ACAD_REACTORS
330
C
102
}
330
C
100
AcDbDictionary
281
     1
  3
ASEBlockHierarchyIndexRecord
350
D02
1001
DCO15
1040
1629192359.903
  0
LAYOUT
  5
1E
102
{ACAD_REACTORS
330
1A
102
}
330
1A
100
AcDbPlotSettings
  1

  2

  4

  6

 40
0.0
 41
0.0
 42
0.0
 43
0.0
 44
0.0
 45
0.0
 46
0.0
 47
0.0
 48
0.0
 49
0.0
140
0.0
141
0.0
142
1.0
143
1.0
 70
     0
 72
     0
 73
     0
 74
     0
  7

 75
     0
147
1.0
 76
     0
 77
     2
 78
   300
148
0.0
149
0.0
100
AcDbLayout
  1
Layout1
 70
     0
 71
     1
 10
0.0
 20
0.0
 11
12.0
 21
9.0
 12
0.0
 22
0.0
 32
0.0
 14
1.000000000000000E+20
 24
1.000000000000000E+20
 34
1.000000000000000E+20
 15
-1.000000000000000E+20
 25
-1.000000000000000E+20
 35
-1.000000000000000E+20
146
0.0
 13
0.0
 23
0.0
 33
0.0
 16
1.0
 26
0.0
 36
0.0
 17
0.0
 27
1.0
 37
0.0
 76
     0
330
1B
  0
LAYOUT
  5
22
102
{ACAD_REACTORS
330
1A
102
}
330
1A
100
AcDbPlotSettings
  1

  2

  4

  6

 40
0.0
 41
0.0
 42
0.0
 43
0.0
 44
0.0
 45
0.0
 46
0.0
 47
0.0
 48
0.0
 49
0.0
140
0.0
141
0.0
142
1.0
143
1.0
 70
     0
 72
     0
 73
     0
 74
     0
  7

 75
     0
147
1.0
 76
     0
 77
     2
 78
   300
148
0.0
149
0.0
100
AcDbLayout
  1
Model
 70
     0
 71
     0
 10
0.0
 20
0.0
 11
0.0
 21
0.0
 12
0.0
 22
0.0
 32
0.0
 14
0.0
 24
0.0
 34
0.0
 15
0.0
 25
0.0
 35
0.0
146
0.0
 13
0.0
 23
0.0
 33
0.0
 16
0.0
 26
0.0
 36
0.0
 17
0.0
 27
0.0
 37
0.0
 76
     0
330
1F
  0
MLINESTYLE
  5
18
102
{ACAD_REACTORS
330
17
102
}
330
17
100
AcDbMlineStyle
  2
STANDARD
 70
     0
  3

 62
   256
 51
90.0
 52
90.0
 71
     2
 49
0.5
 62
   256
  6
BYLAYER
 49
-0.5
 62
   256
  6
BYLAYER
  0
ACDBPLACEHOLDER
  5
F
102
{ACAD_REACTORS
330
E
102
}
330
0
  0
TABLESTYLE
  5
C3C
102
{ACAD_REACTORS
330
C3B
102
}
330
C3B
100
AcDbTableStyle
  3
Standard
 70
     0
 71
     0
 40
0.06
 41
0.06
280
     0
281
     0
  7
STANDARD
140
0.18
170
     2
 62
     0
 63
     7
283
     0
274
    -2
284
     1
 64
     0
275
    -2
285
     1
 65
     0
276
    -2
286
     1
 66
     0
277
    -2
287
     1
 67
     0
278
    -2
288
     1
 68
     0
279
    -2
289
     1
 69
     0
  7
STANDARD
140
0.25
170
     5
 62
     0
 63
     7
283
     0
274
    -2
284
     1
 64
     0
275
    -2
285
     1
 65
     0
276
    -2
286
     1
 66
     0
277
    -2
287
     1
 67
     0
278
    -2
288
     1
 68
     0
279
    -2
289
     1
 69
     0
  7
STANDARD
140
0.18
170
     5
 62
     0
 63
     7
283
     0
274
    -2
284
     1
 64
     0
275
    -2
285
     1
 65
     0
276
    -2
286
     1
 66
     0
277
    -2
287
     1
 67
     0
278
    -2
288
     1
 68
     0
279
    -2
289
     1
 69
     0
  0
DICTIONARYVAR
  5
D05
102
{ACAD_REACTORS
330
D04
102
}
330
D04
100
DictionaryVariables
280
     0
  1
STANDARD
  0
DICTIONARY
  5
CA5
102
{ACAD_REACTORS
330
C9A
102
}
330
C9A
100
AcDbDictionary
281
     1
  0
XRECORD
  5
CC4
102
{ACAD_REACTORS
330
C9A
102
}
330
C9A
100
AcDbXrecord
280
     1
 90
-1023410169
  0
XRECORD
  5
D02
102
{ACAD_REACTORS
330
D00
102
}
330
D00
100
AcDbXrecord
280
     1
330
0
330
0
330
0
330
0
330
0
330
0
330
0
330
0
330
0
330
0
330
0
330
0
330
0
330
0
330
0
330
0
330
0
330
0
330
0
330
0
330
0
330
0
330
0
330
0
330
0
330
0
330
0
330
0
330
0
330
0
330
0
330
0
330
0
330
0
  0
ENDSEC
  0
EOF
