999
DXF file: 2350sde.dxf
999
Pro/ENGINEER 2013150 by Parametric Technology Corporation
  0
SECTION
  2
HEADER
  9
$ACADVER
  1
AC1015
  9
$DWGCODEPAGE
  3
ANSI_1252
  9
$EXTMAX
 10
44.0
 20
34.0
 30
0.0
  9
$EXTMIN
 10
0.0
 20
0.0
 30
0.0
  9
$LIMMIN
 10
0.0
 20
0.0
  9
$LIMMAX
 10
44.0
 20
34.0
  9
$VIEWCTR
 10
22.0
 20
17.0
  9
$VIEWSIZE
 40
34.0
  9
$CLAYER
  8
0
  9
$LTSCALE
 40
2.42
  9
$CELTYPE
  6
BYLAYER
  9
$DIMSCALE
 40
1.0
  9
$DIMASZ
 40
0.1875
  9
$DIMEXO
 40
0.0625
  9
$DIMDLI
 40
1.672
  9
$DIMEXE
 40
0.125
  9
$DIMCEN
 40
0.396
  9
$DIMLFAC
 40
1.0
  9
$DIMBLK
  1
_FILLED
  9
$DIMTXT
 40
0.15625
  9
$DIMTOL
 70
1
  9
$DIMLIM
 70
0
  9
$DIMTFAC
 40
1.0
  9
$DIMTP
 40
0.01
  9
$DIMTM
 40
0.01
  9
$DIMGAP
 40
0.09
  9
$DIMDSEP
 70
46
  9
$PDMODE
 70
3
  9
$PDSIZE
 40
0.3125
  9
$HANDSEED
  5
279
  9
$TILEMODE
 70
1
  9
$MEASUREMENT
 70
0
  9
$INSUNITS
 70
1
  0
ENDSEC
  0
SECTION
  2
CLASSES
  0
CLASS
  1
ACDBDICTIONARYWDFLT
  2
AcDbDictionaryWithDefault
  3
AutoCAD 2000
 90
0
280
0
281
0
  0
CLASS
  1
ACDBPLACEHOLDER
  2
AcDbPlaceHolder
  3
AutoCAD 2000
 90
0
280
0
281
0
  0
CLASS
  1
LAYOUT
  2
AcDbLayout
  3
AutoCAD 2000
 90
0
280
0
281
0
  0
ENDSEC
  0
SECTION
  2
TABLES
  0
TABLE
  2
VPORT
  5
8
100
AcDbSymbolTable
 70
2
  0
VPORT
  5
1F4
100
AcDbSymbolTableRecord
100
AcDbViewportTableRecord
  2
*ACTIVE
 70
0
 10
0.0
 20
0.0
 11
1.0
 21
1.0
 12
22.0
 22
17.0
 13
0.0
 23
0.0
 14
1.0
 24
1.0
 15
0.0
 25
0.0
 16
0.0
 26
0.0
 36
1.0
 17
0.0
 27
0.0
 37
0.0
 40
34.0
 41
1.2941176471
 42
50.0
 43
0.0
 44
0.0
 50
0.0
 51
0.0
 71
0
 72
100
 73
1
 74
1
 75
0
 76
0
 77
0
 78
0
  0
ENDTAB
  0
TABLE
  2
LTYPE
  5
5
100
AcDbSymbolTable
 70
6
  0
LTYPE
  5
14
100
AcDbSymbolTableRecord
100
AcDbLinetypeTableRecord
  2
BYBLOCK
 70
0
  3

 72
65
 73
0
 40
0.0
  0
LTYPE
  5
15
100
AcDbSymbolTableRecord
100
AcDbLinetypeTableRecord
  2
BYLAYER
 70
0
  3

 72
65
 73
0
 40
0.0
  0
LTYPE
  5
16
100
AcDbSymbolTableRecord
100
AcDbLinetypeTableRecord
  2
CONTINUOUS
 70
64
  3
Solid line
 72
65
 73
0
 40
0.0
  0
LTYPE
  5
1F5
100
AcDbSymbolTableRecord
100
AcDbLinetypeTableRecord
  2
CENTER
 70
64
  3
____ _ ____ _ ____ _ ____ _ ____ _ ____ _ ____
 72
65
 73
4
 40
0.6
 49
0.375
 74
0
 49
-0.075
 74
0
 49
0.075
 74
0
 49
-0.075
 74
0
  0
LTYPE
  5
1F6
100
AcDbSymbolTableRecord
100
AcDbLinetypeTableRecord
  2
HIDDEN
 70
64
  3
- - - - - - - - - - - - - - - - - - - -
 72
65
 73
2
 40
0.2
 49
0.1
 74
0
 49
-0.1
 74
0
  0
LTYPE
  5
1F7
100
AcDbSymbolTableRecord
100
AcDbLinetypeTableRecord
  2
PHANTOM
 70
64
  3
_____ _ _ _____ _ _ _____ _ _ _____
 72
65
 73
6
 40
0.8
 49
0.45
 74
0
 49
-0.05
 74
0
 49
0.1
 74
0
 49
-0.05
 74
0
 49
0.1
 74
0
 49
-0.05
 74
0
  0
LTYPE
  5
1F8
100
AcDbSymbolTableRecord
100
AcDbLinetypeTableRecord
  2
DOT
 70
64
  3
. . . . . . . . . . . . . . . . . . . .
 72
65
 73
2
 40
0.2
 49
0.1
 74
0
 49
-0.1
 74
0
  0
LTYPE
  5
1F9
100
AcDbSymbolTableRecord
100
AcDbLinetypeTableRecord
  2
DASHED
 70
64
  3
- - - - - - - - - - - - - - - - - - - -
 72
65
 73
2
 40
0.2
 49
0.1
 74
0
 49
-0.1
 74
0
  0
ENDTAB
  0
TABLE
  2
LAYER
  5
2
100
AcDbSymbolTable
 70
36
  0
LAYER
  5
10
100
AcDbSymbolTableRecord
100
AcDbLayerTableRecord
  2
0
 70
0
 62
7
  6
CONTINUOUS
370
-3
390
F
  0
LAYER
  5
1FA
100
AcDbSymbolTableRecord
100
AcDbLayerTableRecord
  2
DEFAULT_1
 70
0
 62
7
  6
CENTER
370
-3
390
F
  0
LAYER
  5
1FB
100
AcDbSymbolTableRecord
100
AcDbLayerTableRecord
  2
DEFAULT_2
 70
0
 62
8
  6
HIDDEN
370
-3
390
F
  0
LAYER
  5
1FC
100
AcDbSymbolTableRecord
100
AcDbLayerTableRecord
  2
DEFAULT_3
 70
0
 62
7
  6
PHANTOM
370
-3
390
F
  0
LAYER
  5
1FD
100
AcDbSymbolTableRecord
100
AcDbLayerTableRecord
  2
COLOR1
 70
0
 62
7
  6
CONTINUOUS
370
-3
390
F
  0
LAYER
  5
1FE
100
AcDbSymbolTableRecord
100
AcDbLayerTableRecord
  2
DATUMS
 70
0
 62
7
  6
CONTINUOUS
370
-3
390
F
  0
LAYER
  5
1FF
100
AcDbSymbolTableRecord
100
AcDbLayerTableRecord
  2
DATUM_AXIS
 70
0
 62
7
  6
CONTINUOUS
370
-3
390
F
  0
LAYER
  5
200
100
AcDbSymbolTableRecord
100
AcDbLayerTableRecord
  2
DATUM_CSYS
 70
0
 62
7
  6
CONTINUOUS
370
-3
390
F
  0
LAYER
  5
201
100
AcDbSymbolTableRecord
100
AcDbLayerTableRecord
  2
DATUM_PLANE
 70
0
 62
7
  6
CONTINUOUS
370
-3
390
F
  0
LAYER
  5
202
100
AcDbSymbolTableRecord
100
AcDbLayerTableRecord
  2
DATUM_POINT
 70
0
 62
7
  6
CONTINUOUS
370
-3
390
F
  0
LAYER
  5
203
100
AcDbSymbolTableRecord
100
AcDbLayerTableRecord
  2
IMPORT
 70
0
 62
7
  6
CONTINUOUS
370
-3
390
F
  0
LAYER
  5
204
100
AcDbSymbolTableRecord
100
AcDbLayerTableRecord
  2
INTF_14
 70
0
 62
7
  6
CONTINUOUS
370
-3
390
F
  0
LAYER
  5
205
100
AcDbSymbolTableRecord
100
AcDbLayerTableRecord
  2
INTF_RED
 70
0
 62
7
  6
CONTINUOUS
370
-3
390
F
  0
LAYER
  5
206
100
AcDbSymbolTableRecord
100
AcDbLayerTableRecord
  2
INTF_YELLOW
 70
0
 62
7
  6
CONTINUOUS
370
-3
390
F
  0
LAYER
  5
207
100
AcDbSymbolTableRecord
100
AcDbLayerTableRecord
  2
NODE_401
 70
0
 62
7
  6
CONTINUOUS
370
-3
390
F
  0
LAYER
  5
208
100
AcDbSymbolTableRecord
100
AcDbLayerTableRecord
  2
_CURVE
 70
0
 62
7
  6
CONTINUOUS
370
-3
390
F
  0
LAYER
  5
209
100
AcDbSymbolTableRecord
100
AcDbLayerTableRecord
  2
_SURFACE
 70
0
 62
7
  6
CONTINUOUS
370
-3
390
F
  0
LAYER
  5
20A
100
AcDbSymbolTableRecord
100
AcDbLayerTableRecord
  2
___COSMETIC_SKETCH
 70
0
 62
7
  6
CONTINUOUS
370
-3
390
F
  0
LAYER
  5
20B
100
AcDbSymbolTableRecord
100
AcDbLayerTableRecord
  2
___NOTE
 70
0
 62
7
  6
CONTINUOUS
370
-3
390
F
  0
ENDTAB
  0
TABLE
  2
STYLE
  5
3
100
AcDbSymbolTable
 70
1
  0
STYLE
  5
11
100
AcDbSymbolTableRecord
100
AcDbTextStyleTableRecord
  2
STANDARD
 70
0
 40
0.0
 41
0.8
 50
0.0
 71
0
 42
0.2
  3
txt
  4

  0
STYLE
  5
20C
100
AcDbSymbolTableRecord
100
AcDbTextStyleTableRecord
  2
TEXTSTYLE_1
 70
0
 40
0.0
 41
0.8
 50
0.0
 71
0
 42
0.2
  3
gdt
  4

  0
ENDTAB
  0
TABLE
  2
VIEW
  5
6
100
AcDbSymbolTable
 70
0
  0
ENDTAB
  0
TABLE
  2
UCS
  5
7
100
AcDbSymbolTable
 70
0
  0
ENDTAB
  0
TABLE
  2
APPID
  5
9
100
AcDbSymbolTable
 70
1
  0
APPID
  5
20D
100
AcDbSymbolTableRecord
100
AcDbRegAppTableRecord
  2
ACAD
 70
0
  0
ENDTAB
  0
TABLE
  2
BLOCK_RECORD
  5
1
100
AcDbSymbolTable
 70
0
  0
BLOCK_RECORD
  5
20E
100
AcDbSymbolTableRecord
100
AcDbBlockTableRecord
  2
*Model_Space
  0
BLOCK_RECORD
  5
20F
100
AcDbSymbolTableRecord
100
AcDbBlockTableRecord
  2
*Paper_Space
  0
ENDTAB
  0
TABLE
  2
DIMSTYLE
  5
A
100
AcDbSymbolTable
 70
1
100
AcDbDimStyleTable
 71
0
  0
DIMSTYLE
105
210
100
AcDbSymbolTableRecord
100
AcDbDimStyleTableRecord
  2
STANDARD
 70
0
  3

  4

 40
1.0
 41
0.1875
 42
0.0625
 43
0.38
 44
0.125
 45
0.0
 46
0.0
 47
0.01
 48
0.01
140
0.15625
141
0.09
142
0.0
143
25.4
144
1.0
145
0.0
146
1.0
147
0.09
 71
1.0
 72
0.0
 73
1
 74
1
 75
0
 76
0
 77
0
 78
4
170
0
171
2
172
0
173
0
174
0
175
0
176
0
177
0
178
0
270
2
271
3
272
3
273
2
274
2
275
0
280
0
281
0
282
0
283
1
284
4
285
0
286
0
287
3
288
0
340
11
278
46
  0
ENDTAB
  0
ENDSEC
  0
SECTION
  2
BLOCKS
  0
BLOCK
  5
20
100
AcDbEntity
  8
0
100
AcDbBlockBegin
  2
*Model_Space
 70
0
 10
0.0
 20
0.0
 30
0.0
  3
*Model_Space
  1

  0
ENDBLK
  5
21
100
AcDbEntity
  8
0
100
AcDbBlockEnd
  0
BLOCK
  5
1C
100
AcDbEntity
  8
0
100
AcDbBlockBegin
  2
*Paper_Space
 70
0
 10
0.0
 20
0.0
 30
0.0
  3
*Paper_Space
  1

  0
ENDBLK
  5
1D
100
AcDbEntity
  8
0
100
AcDbBlockEnd
  0
ENDSEC
  0
SECTION
  2
ENTITIES
  0
LINE
  5
211
100
AcDbEntity
  8
_SURFACE
100
AcDbLine
 62
7
  6
CONTINUOUS
 10
26.7356788227
 20
14.5626199009
 11
26.7489487151
 21
14.1826199009
  0
LINE
  5
212
100
AcDbEntity
  8
0
100
AcDbLine
 62
7
  6
CONTINUOUS
 10
28.5939727841
 20
14.5626199013
 11
28.6050072144
 21
14.1826199013
  0
LINE
  5
213
100
AcDbEntity
  8
0
100
AcDbLine
 62
7
  6
CONTINUOUS
 10
36.8227190567
 20
5.9947138711
 11
34.4218018502
 21
5.9947138711
  0
LINE
  5
214
100
AcDbEntity
  8
0
100
AcDbLine
 62
7
  6
CONTINUOUS
 10
36.947243394
 20
6.1088194033
 11
34.297277513
 21
6.1088194033
  0
LINE
  5
215
100
AcDbEntity
  8
___COSMETIC_SKETCH
100
AcDbLine
 62
8
  6
PHANTOM
 10
32.5692604535
 20
8.1246736305
 11
32.5692604535
 21
9.5556582359
  0
LINE
  5
216
100
AcDbEntity
  8
0
100
AcDbLine
 62
7
  6
CONTINUOUS
 10
34.2919980799
 20
6.1691635991
 11
34.297277513
 21
6.1088194033
  0
LINE
  5
217
100
AcDbEntity
  8
___COSMETIC_SKETCH
100
AcDbLine
 62
8
  6
PHANTOM
 10
34.5692604535
 20
9.0468732578
 11
34.5692604535
 21
7.5985532236
  0
LINE
  5
218
100
AcDbEntity
  8
___COSMETIC_SKETCH
100
AcDbLine
 62
8
  6
PHANTOM
 10
36.2912604535
 20
7.5877633059
 11
36.2912604535
 21
8.8685126523
  0
LINE
  5
219
100
AcDbEntity
  8
0
100
AcDbLine
 62
7
  6
CONTINUOUS
 10
37.0485386121
 20
7.2666290443
 11
36.947243394
 21
6.1088194033
  0
LINE
  5
21A
100
AcDbEntity
  8
___COSMETIC_SKETCH
100
AcDbLine
 62
8
  6
PHANTOM
 10
38.2912604535
 20
10.4058296826
 11
38.2912604535
 21
8.4732971629
  0
LINE
  5
21B
100
AcDbEntity
  8
0
100
AcDbLine
 62
7
  6
CONTINUOUS
 10
26.8089121647
 20
14.1247138711
 11
41.8756087422
 21
14.1247138711
  0
LINE
  5
21C
100
AcDbEntity
  8
0
100
AcDbLine
 62
7
  6
CONTINUOUS
 10
26.7489487151
 20
14.1826199006
 11
41.9355721918
 21
14.1826199006
  0
LINE
  5
21D
100
AcDbEntity
  8
0
100
AcDbLine
 62
7
  6
CONTINUOUS
 10
41.9488420842
 20
14.5626199006
 11
26.7356788227
 21
14.5626199006
  0
LINE
  5
21E
100
AcDbEntity
  8
0
100
AcDbLine
 62
7
  6
CONTINUOUS
 10
41.8888150885
 20
14.6247138711
 11
26.7957058185
 21
14.6247138711
  0
LINE
  5
21F
100
AcDbEntity
  8
0
100
AcDbLine
 62
7
  6
CONTINUOUS
 10
40.0905481228
 20
14.5626199013
 11
40.0795136925
 21
14.1826199013
  0
LINE
  5
220
100
AcDbEntity
  8
0
100
AcDbLine
 62
7
  6
CONTINUOUS
 10
40.5158850091
 20
12.9347120061
 11
40.5018979481
 21
12.791695734
  0
LINE
  5
221
100
AcDbEntity
  8
_SURFACE
100
AcDbLine
 62
7
  6
CONTINUOUS
 10
41.9488420843
 20
14.5626199009
 11
41.9355721918
 21
14.1826199009
  0
ARC
  5
222
100
AcDbEntity
  8
___COSMETIC_SKETCH
100
AcDbCircle
 62
8
  6
PHANTOM
 10
35.3729704145
 20
14.6318339713
 40
7.0854767933
100
AcDbArc
 50
246.6904640572
 51
254.1545077239
  0
ARC
  5
223
100
AcDbEntity
  8
0
100
AcDbCircle
 62
7
  6
CONTINUOUS
 10
34.7722966221
 20
11.6477855302
 40
5.2985554036
100
AcDbArc
 50
262.4466554425
 51
263.425891641
  0
ARC
  5
224
100
AcDbEntity
  8
0
100
AcDbCircle
 62
7
  6
CONTINUOUS
 10
40.0043216716
 20
12.8403331481
 40
0.4999406476
100
AcDbArc
 50
308.7829820448
 51
354.4171508054
  0
ARC
  5
225
100
AcDbEntity
  8
0
100
AcDbCircle
 62
7
  6
CONTINUOUS
 10
27.9645867026
 20
14.0527651803
 40
0.4981353265
100
AcDbArc
 50
234.8164454821
 51
242.8725120864
  0
ARC
  5
226
100
AcDbEntity
  8
0
100
AcDbCircle
 62
7
  6
CONTINUOUS
 10
41.5545613897
 20
13.7497138711
 40
0.3749999628
100
AcDbArc
 50
89.999927051
 51
155.1492808767
  0
ARC
  5
227
100
AcDbEntity
  8
0
100
AcDbCircle
 62
7
  6
CONTINUOUS
 10
27.9505596626
 20
14.020568761
 40
0.2560519184
100
AcDbArc
 50
235.7054907295
 51
243.7696797008
  0
ARC
  5
228
100
AcDbEntity
  8
0
100
AcDbCircle
 62
7
  6
CONTINUOUS
 10
40.9874330897
 20
14.0123732515
 40
0.249999997
100
AcDbArc
 50
297.6300480933
 51
335.1493119881
  0
ARC
  5
229
100
AcDbEntity
  8
0
100
AcDbCircle
 62
7
  6
CONTINUOUS
 10
37.297586785
 20
7.2448400174
 40
0.2499999269
100
AcDbArc
 50
102.9199275663
 51
174.9999691568
  0
ARC
  5
22A
100
AcDbEntity
  8
0
100
AcDbCircle
 62
7
  6
CONTINUOUS
 10
34.0429546167
 20
6.1473723764
 40
0.2499992327
100
AcDbArc
 50
5.0006262519
 51
82.449295316
  0
ARC
  5
22B
100
AcDbEntity
  8
0
100
AcDbCircle
 62
7
  6
CONTINUOUS
 10
26.9467328661
 20
13.8747138711
 40
0.249997039
100
AcDbArc
 50
1.4272220734
 51
90.0046096861
  0
ARC
  5
22C
100
AcDbEntity
  8
0
100
AcDbCircle
 62
7
  6
CONTINUOUS
 10
40.4427570483
 20
12.2947138716
 40
0.2000000017
100
AcDbArc
 50
128.7858814215
 51
171.841823808
  0
ARC
  5
22D
100
AcDbEntity
  8
0
100
AcDbCircle
 62
7
  6
CONTINUOUS
 10
36.8227190567
 20
6.1197138711
 40
0.125
100
AcDbArc
 50
270.0
 51
354.9999999586
  0
ARC
  5
22E
100
AcDbEntity
  8
0
100
AcDbCircle
 62
7
  6
CONTINUOUS
 10
34.4218018502
 20
6.1197138711
 40
0.125
100
AcDbArc
 50
185.0000000166
 51
270.0
  0
ARC
  5
22F
100
AcDbEntity
  8
0
100
AcDbCircle
 62
7
  6
CONTINUOUS
 10
26.7956422723
 20
14.5647138711
 40
0.06
100
AcDbArc
 50
89.9999882133
 51
182.000000417
  0
ARC
  5
230
100
AcDbEntity
  8
0
100
AcDbCircle
 62
7
  6
CONTINUOUS
 10
41.8888786346
 20
14.5647138711
 40
0.06
100
AcDbArc
 50
357.999999583
 51
90.0000117867
  0
ARC
  5
231
100
AcDbEntity
  8
0
100
AcDbCircle
 62
7
  6
CONTINUOUS
 10
26.8089121647
 20
14.1847138711
 40
0.06
100
AcDbArc
 50
182.0000004166
 51
270.0000117731
  0
ARC
  5
232
100
AcDbEntity
  8
0
100
AcDbCircle
 62
7
  6
CONTINUOUS
 10
41.8756087422
 20
14.1847138711
 40
0.06
100
AcDbArc
 50
269.9999882269
 51
357.9999995835
  0
SPLINE
  5
233
100
AcDbEntity
  8
0
100
AcDbSpline
 62
7
  6
CONTINUOUS
 70
0
 71
3
 72
25
 73
21
 74
0
 42
0.0000001
 43
0.0000001
 44
0.0000000001
 40
0.0
 40
0.0
 40
0.0
 40
0.0
 40
0.0604050939
 40
0.1225208137
 40
0.1859076946
 40
0.2501414463
 40
0.3148215754
 40
0.3795789867
 40
0.4440894664
 40
0.5080818959
 40
0.5713572666
 40
0.6338175459
 40
0.6954611151
 40
0.7563853929
 40
0.8168723602
 40
0.8772978701
 40
0.9076476157
 40
0.9381697046
 40
0.9689291564
 40
1.0
 40
1.0
 40
1.0
 40
1.0
 10
40.2447811634
 20
12.3230951312
 30
0.0
 10
40.2275930799
 20
12.2031981213
 30
0.0
 10
40.1887205537
 20
11.9605655332
 30
0.0
 10
40.1176969588
 20
11.5945494149
 30
0.0
 10
40.0324992156
 20
11.2236763876
 30
0.0
 10
39.932638303
 20
10.8511420482
 30
0.0
 10
39.8175033153
 20
10.4801451153
 30
0.0
 10
39.6864676401
 20
10.1138471727
 30
0.0
 10
39.5386855771
 20
9.7554352052
 30
0.0
 10
39.3732757235
 20
9.4080520523
 30
0.0
 10
39.1890899577
 20
9.0748664815
 30
0.0
 10
38.9846219486
 20
8.7592332175
 30
0.0
 10
38.758428119
 20
8.4645671884
 30
0.0
 10
38.5082651618
 20
8.1951133947
 30
0.0
 10
38.232422444
 20
7.9554943593
 30
0.0
 10
37.9799535701
 20
7.7856788604
 30
0.0
 10
37.7650535987
 20
7.6713959805
 30
0.0
 10
37.5968635508
 20
7.5969976771
 30
0.0
 10
37.4222279127
 20
7.5348909462
 30
0.0
 10
37.3024146962
 20
7.5024411526
 30
0.0
 10
37.2416895391
 20
7.4885108739
 30
0.0
  0
SPLINE
  5
234
100
AcDbEntity
  8
0
100
AcDbSpline
 62
7
  6
CONTINUOUS
 70
0
 71
3
 72
8
 73
4
 74
0
 42
0.0000001
 43
0.0000001
 44
0.0000000001
 40
0.0
 40
0.0
 40
0.0
 40
0.0
 40
1.0
 40
1.0
 40
1.0
 40
1.0
 10
34.1656743437
 20
6.3840702286
 30
0.0
 10
30.7950424225
 20
6.7724394489
 30
0.0
 10
27.2811657677
 20
10.4857964069
 30
0.0
 10
27.1966240302
 20
13.8809398789
 30
0.0
  0
SPLINE
  5
235
100
AcDbEntity
  8
0
100
AcDbSpline
 62
7
  6
CONTINUOUS
 70
0
 71
3
 72
22
 73
18
 74
0
 42
0.0000001
 43
0.0000001
 44
0.0000000001
 40
0.0
 40
0.0
 40
0.0
 40
0.0
 40
0.1433392327
 40
0.2122365599
 40
0.2784414797
 40
0.3413847481
 40
0.4005154693
 40
0.4551047492
 40
0.5050387121
 40
0.5523844395
 40
0.6001026721
 40
0.6522723361
 40
0.7114904044
 40
0.7771652972
 40
0.8481442924
 40
0.9229498139
 40
1.0
 40
1.0
 40
1.0
 40
1.0
 10
41.1033732941
 20
13.7908830882
 30
0.0
 10
41.0565882313
 20
13.7663932194
 30
0.0
 10
40.9883814874
 20
13.7279876726
 30
0.0
 10
40.9021032574
 20
13.6724561908
 30
0.0
 10
40.8425792464
 20
13.6302122729
 30
0.0
 10
40.7881989152
 20
13.5870880658
 30
0.0
 10
40.7398889599
 20
13.5434015938
 30
0.0
 10
40.6980828404
 20
13.4998789415
 30
0.0
 10
40.6627726824
 20
13.4563797125
 30
0.0
 10
40.6332224218
 20
13.411776119
 30
0.0
 10
40.6079216164
 20
13.3636861544
 30
0.0
 10
40.5861399445
 20
13.3091747658
 30
0.0
 10
40.5668319826
 20
13.2468105723
 30
0.0
 10
40.5500930336
 20
13.1765715582
 30
0.0
 10
40.5361978062
 20
13.0998889592
 30
0.0
 10
40.5247510166
 20
13.0185817794
 30
0.0
 10
40.518647944
 20
12.962963038
 30
0.0
 10
40.5158850091
 20
12.9347120061
 30
0.0
  0
LINE
  5
236
100
AcDbEntity
  8
0
100
AcDbLine
 62
7
  6
CONTINUOUS
 10
29.2968484864
 20
13.7908831425
 11
27.8373908742
 21
13.7908831425
  0
SPLINE
  5
237
100
AcDbEntity
  8
0
100
AcDbSpline
 62
7
  6
CONTINUOUS
 70
0
 71
3
 72
23
 73
19
 74
0
 42
0.0000001
 43
0.0000001
 44
0.0000000001
 40
0.0
 40
0.0
 40
0.0
 40
0.0
 40
0.0371550135
 40
0.077861241
 40
0.1220929963
 40
0.169796192
 40
0.2209068948
 40
0.2753641763
 40
0.3331365479
 40
0.3942228064
 40
0.4586246669
 40
0.5263585342
 40
0.5974673304
 40
0.671990955
 40
0.7497116513
 40
0.8303151506
 40
0.9136697553
 40
1.0
 40
1.0
 40
1.0
 40
1.0
 10
28.4139319444
 20
12.9303647971
 30
0.0
 10
28.4308645095
 20
12.931705385
 30
0.0
 10
28.4664248356
 20
12.9335450912
 30
0.0
 10
28.5222334757
 20
12.9346168584
 30
0.0
 10
28.5828724404
 20
12.9347019202
 30
0.0
 10
28.6482651994
 20
12.9343847831
 30
0.0
 10
28.7183341067
 20
12.9342238908
 30
0.0
 10
28.79300501
 20
12.9348911796
 30
0.0
 10
28.8722200311
 20
12.9365619349
 30
0.0
 10
28.9559806761
 20
12.9382727748
 30
0.0
 10
29.0443100026
 20
12.9392714231
 30
0.0
 10
29.1372276239
 20
12.9387244726
 30
0.0
 10
29.2347428889
 20
12.9358926408
 30
0.0
 10
29.3366707539
 20
12.9297303948
 30
0.0
 10
29.4429065476
 20
12.9230442643
 30
0.0
 10
29.5533553905
 20
12.9191810307
 30
0.0
 10
29.6678288485
 20
12.921374843
 30
0.0
 10
29.7451559994
 20
12.9289539402
 30
0.0
 10
29.784199606
 20
12.9347138703
 30
0.0
  0
LINE
  5
238
100
AcDbEntity
  8
0
100
AcDbLine
 62
7
  6
CONTINUOUS
 10
41.1033732327
 20
13.790883056
 11
29.2968486233
 21
13.790883056
  0
SPLINE
  5
239
100
AcDbEntity
  8
0
100
AcDbSpline
 62
7
  6
CONTINUOUS
 70
0
 71
3
 72
10
 73
6
 74
0
 42
0.0000001
 43
0.0000001
 44
0.0000000001
 40
0.0
 40
0.0
 40
0.0
 40
0.0
 40
0.2499496094
 40
0.6250523855
 40
1.0
 40
1.0
 40
1.0
 40
1.0
 10
27.6775621446
 20
13.6456340357
 30
0.0
 10
27.6645222056
 20
13.6594100023
 30
0.0
 10
27.6342165153
 20
13.696083878
 30
0.0
 10
27.5947388839
 20
13.7613061921
 30
0.0
 10
27.5732362311
 20
13.8142858513
 30
0.0
 10
27.5645046825
 20
13.8413681167
 30
0.0
  0
SPLINE
  5
23A
100
AcDbEntity
  8
0
100
AcDbSpline
 62
7
  6
CONTINUOUS
 70
0
 71
3
 72
31
 73
27
 74
0
 42
0.0000001
 43
0.0000001
 44
0.0000000001
 40
0.0
 40
0.0
 40
0.0
 40
0.0
 40
0.0115654243
 40
0.0237424931
 40
0.0365195782
 40
0.0498789354
 40
0.0567708744
 40
0.0638011382
 40
0.0782667278
 40
0.0932553576
 40
0.1087461086
 40
0.1247178347
 40
0.1411481285
 40
0.1752876338
 40
0.2109696344
 40
0.2479908816
 40
0.2861417705
 40
0.3252055843
 40
0.4051765653
 40
0.4860876943
 40
0.5661039918
 40
0.6434054669
 40
0.716238181
 40
0.8420241601
 40
0.9342104542
 40
1.0
 40
1.0
 40
1.0
 40
1.0
 10
29.784199606
 20
12.9347138703
 30
0.0
 10
29.8234968551
 20
12.9366729803
 30
0.0
 10
29.9042562114
 20
12.9389840897
 30
0.0
 10
30.0285031386
 20
12.9392118922
 30
0.0
 10
30.1588387682
 20
12.9375691138
 30
0.0
 10
30.2711873161
 20
12.9357241811
 30
0.0
 10
30.3639935665
 20
12.9345797511
 30
0.0
 10
30.4605674152
 20
12.9338331889
 30
0.0
 10
30.5846896201
 20
12.9335537466
 30
0.0
 10
30.7375940975
 20
12.9338645133
 30
0.0
 10
30.8956215933
 20
12.934452268
 30
0.0
 10
31.0585542412
 20
12.934903138
 30
0.0
 10
31.284931335
 20
12.9350659901
 30
0.0
 10
31.5783634513
 20
12.9347866497
 30
0.0
 10
31.9418468921
 20
12.9345917113
 30
0.0
 10
32.318977273
 20
12.9346875388
 30
0.0
 10
32.7076127058
 20
12.9347460319
 30
0.0
 10
33.2423649253
 20
12.9347138969
 30
0.0
 10
33.9225892515
 20
12.9347071422
 30
0.0
 10
34.7421356279
 20
12.9347185867
 30
0.0
 10
35.5526002339
 20
12.9347108741
 30
0.0
 10
36.3355817376
 20
12.934716102
 30
0.0
 10
37.2742735969
 20
12.9347135882
 30
0.0
 10
38.263604228
 20
12.9347128149
 30
0.0
 10
39.2289737081
 20
12.93471398
 30
0.0
 10
39.7664140693
 20
12.9347142385
 30
0.0
 10
39.9902328334
 20
12.9347145863
 30
0.0
  0
LINE
  5
23B
100
AcDbEntity
  8
0
100
AcDbLine
 62
7
  6
CONTINUOUS
 10
39.9902328334
 20
12.9347145863
 11
40.0167919778
 21
12.9347146269
  0
LINE
  5
23C
100
AcDbEntity
  8
0
100
AcDbLine
 62
7
  6
CONTINUOUS
 10
40.0167919778
 20
12.9347146269
 11
40.5158850091
 21
12.9347120062
  0
SPLINE
  5
23D
100
AcDbEntity
  8
0
100
AcDbSpline
 62
7
  6
CONTINUOUS
 70
0
 71
3
 72
29
 73
25
 74
0
 42
0.0000001
 43
0.0000001
 44
0.0000000001
 40
0.0
 40
0.0
 40
0.0
 40
0.0
 40
0.0621073993
 40
0.124261244
 40
0.1553625223
 40
0.1864754601
 40
0.2176047606
 40
0.2487468334
 40
0.3110571782
 40
0.373422717
 40
0.4358413229
 40
0.4983094129
 40
0.5608296652
 40
0.6234034462
 40
0.6860328943
 40
0.7487194047
 40
0.7800916027
 40
0.8114791959
 40
0.8428809164
 40
0.8742966091
 40
0.9057238697
 40
0.9371568939
 40
0.9685879853
 40
1.0
 40
1.0
 40
1.0
 40
1.0
 10
27.6775621446
 20
13.6456340357
 30
0.0
 10
27.6908420282
 20
13.4273333592
 30
0.0
 10
27.7475539051
 20
12.9920138287
 30
0.0
 10
27.8824993118
 20
12.4606811802
 30
0.0
 10
28.0230806484
 20
12.0457532619
 30
0.0
 10
28.143598278
 20
11.739807362
 30
0.0
 10
28.2781330373
 20
11.4396224835
 30
0.0
 10
28.4748130851
 20
11.0473539344
 30
0.0
 10
28.7510739355
 20
10.5725418518
 30
0.0
 10
29.1251467839
 20
10.0295023352
 30
0.0
 10
29.5377437764
 20
9.5144419718
 30
0.0
 10
29.9855544141
 20
9.0289840792
 30
0.0
 10
30.4662600891
 20
8.5752707552
 30
0.0
 10
30.9781291794
 20
8.1560746321
 30
0.0
 10
31.5197838974
 20
7.7750711419
 30
0.0
 10
31.9950247297
 20
7.493411011
 30
0.0
 10
32.3887915599
 20
7.2929259019
 30
0.0
 10
32.6908741832
 20
7.1559125005
 30
0.0
 10
32.9993366195
 20
7.0334929082
 30
0.0
 10
33.3138314218
 20
6.9270173454
 30
0.0
 10
33.6339076523
 20
6.8382058591
 30
0.0
 10
33.9589242095
 20
6.7691516222
 30
0.0
 10
34.2878744061
 20
6.7224214629
 30
0.0
 10
34.5089941149
 20
6.7081238343
 30
0.0
 10
34.6195801049
 20
6.7056399588
 30
0.0
  0
SPLINE
  5
23E
100
AcDbEntity
  8
0
100
AcDbSpline
 62
7
  6
CONTINUOUS
 70
0
 71
3
 72
16
 73
12
 74
0
 42
0.0000001
 43
0.0000001
 44
0.0000000001
 40
0.0
 40
0.0
 40
0.0
 40
0.0
 40
0.0845401139
 40
0.1320589125
 40
0.1830842759
 40
0.2950390941
 40
0.418756534
 40
0.5523747208
 40
0.6942670641
 40
0.8435392188
 40
1.0
 40
1.0
 40
1.0
 40
1.0
 10
34.1656742493
 20
6.3840703381
 30
0.0
 10
34.1819750215
 20
6.3821943442
 30
0.0
 10
34.2079642859
 20
6.3836907298
 30
0.0
 10
34.2427201164
 20
6.3910647158
 30
0.0
 10
34.2818518389
 20
6.4030081676
 30
0.0
 10
34.3330827399
 20
6.4251288309
 30
0.0
 10
34.3955385418
 20
6.4605242562
 30
0.0
 10
34.4589526263
 20
6.5052705803
 30
0.0
 10
34.5211214563
 20
6.5597202937
 30
0.0
 10
34.5785738214
 20
6.6252349724
 30
0.0
 10
34.6086808898
 20
6.6772958599
 30
0.0
 10
34.6195801049
 20
6.7056399588
 30
0.0
  0
SPLINE
  5
23F
100
AcDbEntity
  8
0
100
AcDbSpline
 62
7
  6
CONTINUOUS
 70
0
 71
3
 72
23
 73
19
 74
0
 42
0.0000001
 43
0.0000001
 44
0.0000000001
 40
0.0
 40
0.0
 40
0.0
 40
0.0
 40
0.0709793967
 40
0.1064162316
 40
0.1417377696
 40
0.2118666472
 40
0.281023584
 40
0.3489508067
 40
0.4155512229
 40
0.5443964759
 40
0.6065986062
 40
0.6672660943
 40
0.726400566
 40
0.7840094638
 40
0.8401142103
 40
0.8947569765
 40
0.9480113893
 40
1.0
 40
1.0
 40
1.0
 40
1.0
 10
30.0455757981
 20
12.3515167285
 30
0.0
 10
30.0785131285
 20
12.2007321421
 30
0.0
 10
30.1363352884
 20
11.976394905
 30
0.0
 10
30.2293737969
 20
11.6825261518
 30
0.0
 10
30.3321878671
 20
11.3938821247
 30
0.0
 10
30.4778248045
 20
11.0429228179
 30
0.0
 10
30.677056264
 20
10.6384764614
 30
0.0
 10
30.8969762045
 20
10.2537041616
 30
0.0
 10
31.2101383902
 20
9.7739443007
 30
0.0
 10
31.5561456308
 20
9.3314521365
 30
0.0
 10
31.9295799147
 20
8.9309768241
 30
0.0
 10
32.2160890568
 20
8.6576100874
 30
0.0
 10
32.5108997755
 20
8.4084370748
 30
0.0
 10
32.8127666975
 20
8.1840883878
 30
0.0
 10
33.1205784992
 20
7.9854181368
 30
0.0
 10
33.433230656
 20
7.8132379232
 30
0.0
 10
33.7498034025
 20
7.6687364114
 30
0.0
 10
33.9654419997
 20
7.5910854062
 30
0.0
 10
34.073475499
 20
7.5577968647
 30
0.0
  0
SPLINE
  5
240
100
AcDbEntity
  8
0
100
AcDbSpline
 62
7
  6
CONTINUOUS
 70
0
 71
3
 72
46
 73
42
 74
0
 42
0.0000001
 43
0.0000001
 44
0.0000000001
 40
0.0
 40
0.0
 40
0.0
 40
0.0
 40
0.0609439005
 40
0.134454989
 40
0.2180426317
 40
0.3087870505
 40
0.4034957984
 40
0.4989075456
 40
0.5916919018
 40
0.6786111601
 40
0.7189099627
 40
0.7566176801
 40
0.7913981673
 40
0.8076042312
 40
0.8229531933
 40
0.8510826308
 40
0.8764749454
 40
0.8996363957
 40
0.9205164525
 40
0.9390412444
 40
0.955167627
 40
0.9623191171
 40
0.9688569671
 40
0.9747773898
 40
0.9800772324
 40
0.9847538603
 40
0.988806061
 40
0.9922329661
 40
0.9937118597
 40
0.9950344348
 40
0.9962007337
 40
0.9972107991
 40
0.9980647044
 40
0.9987626613
 40
0.9993049195
 40
0.9995177397
 40
0.9996917288
 40
0.9998269182
 40
0.999923339
 40
0.9999810224
 40
1.0
 40
1.0
 40
1.0
 40
1.0
 10
30.0457002609
 20
12.3515074883
 30
0.0
 10
30.252885099
 20
12.3534299068
 30
0.0
 10
30.7099887275
 20
12.3565114189
 30
0.0
 10
31.4512723935
 20
12.3595462172
 30
0.0
 10
32.2938749767
 20
12.3612219841
 30
0.0
 10
33.2085455706
 20
12.3614794208
 30
0.0
 10
34.1634145382
 20
12.3603824552
 30
0.0
 10
35.1252160342
 20
12.3578389989
 30
0.0
 10
36.0605309897
 20
12.3540746941
 30
0.0
 10
36.808472394
 20
12.3499943418
 30
0.0
 10
37.3691659881
 20
12.3463028418
 30
0.0
 10
37.7526023201
 20
12.3434175732
 30
0.0
 10
38.0541295455
 20
12.3408686394
 30
0.0
 10
38.2796435067
 20
12.3387505075
 30
0.0
 10
38.4825442334
 20
12.3366112502
 30
0.0
 10
38.7166725253
 20
12.3339853291
 30
0.0
 10
38.9773659714
 20
12.3316927281
 30
0.0
 10
39.213415053
 20
12.3297225695
 30
0.0
 10
39.4261178631
 20
12.3280338555
 30
0.0
 10
39.6149047174
 20
12.3266310714
 30
0.0
 10
39.7570198029
 20
12.3256555028
 30
0.0
 10
39.8583835988
 20
12.3250066017
 30
0.0
 10
39.9250505728
 20
12.3246012958
 30
0.0
 10
39.9854226548
 20
12.3242549952
 30
0.0
 10
40.0394672636
 20
12.323963657
 30
0.0
 10
40.0871605701
 20
12.3237233307
 30
0.0
 10
40.1284865236
 20
12.3235295707
 30
0.0
 10
40.1589411434
 20
12.3233973646
 30
0.0
 10
40.1801158768
 20
12.3233112806
 30
0.0
 10
40.1936051214
 20
12.3232588556
 30
0.0
 10
40.2055007119
 20
12.3232147357
 30
0.0
 10
40.2158022868
 20
12.3231785166
 30
0.0
 10
40.2245136128
 20
12.3231492492
 30
0.0
 10
40.2316289908
 20
12.3231275727
 30
0.0
 10
40.2365782115
 20
12.3231118637
 30
0.0
 10
40.2397226318
 20
12.3231055906
 30
0.0
 10
40.2415269314
 20
12.3230967838
 30
0.0
 10
40.2428294604
 20
12.3231051337
 30
0.0
 10
40.2439854417
 20
12.3230775458
 30
0.0
 10
40.2442726779
 20
12.3231218281
 30
0.0
 10
40.2448426885
 20
12.3230756992
 30
0.0
 10
40.244781165
 20
12.3230951296
 30
0.0
  0
SPLINE
  5
241
100
AcDbEntity
  8
0
100
AcDbSpline
 62
7
  6
CONTINUOUS
 70
0
 71
3
 72
9
 73
5
 74
0
 42
0.0000001
 43
0.0000001
 44
0.0000000001
 40
0.0
 40
0.0
 40
0.0
 40
0.0
 40
0.4999271154
 40
1.0
 40
1.0
 40
1.0
 40
1.0
 10
34.7726196978
 20
7.2896044216
 30
0.0
 10
34.6507622761
 20
7.2979552566
 30
0.0
 10
34.4073080239
 20
7.319517679
 30
0.0
 10
34.1651633881
 20
7.3530805834
 30
0.0
 10
34.0446723601
 20
7.3733186977
 30
0.0
  0
SPLINE
  5
242
100
AcDbEntity
  8
0
100
AcDbSpline
 62
7
  6
CONTINUOUS
 70
0
 71
3
 72
23
 73
19
 74
0
 42
0.0000001
 43
0.0000001
 44
0.0000000001
 40
0.0
 40
0.0
 40
0.0
 40
0.0
 40
0.001002331
 40
0.0039841014
 40
0.0089434588
 40
0.0158785236
 40
0.0247874144
 40
0.0356682499
 40
0.0633382339
 40
0.0988734457
 40
0.1422588723
 40
0.1934795189
 40
0.2525204088
 40
0.3193568005
 40
0.3939285445
 40
0.5660059108
 40
0.7682097909
 40
1.0
 40
1.0
 40
1.0
 40
1.0
 10
34.2919980799
 20
6.1691635991
 30
0.0
 10
34.2920144586
 20
6.1691423612
 30
0.0
 10
34.2921439091
 20
6.1691649159
 30
0.0
 10
34.2923568491
 20
6.1690885381
 30
0.0
 10
34.2927631836
 20
6.1690475813
 30
0.0
 10
34.2933071075
 20
6.1689507762
 30
0.0
 10
34.2940157208
 20
6.1688430219
 30
0.0
 10
34.2952691544
 20
6.1686441078
 30
0.0
 10
34.2972284801
 20
6.1683393607
 30
0.0
 10
34.3000465693
 20
6.1679016304
 30
0.0
 10
34.3034883127
 20
6.1673713767
 30
0.0
 10
34.3075521199
 20
6.1667489596
 30
0.0
 10
34.3122369064
 20
6.1660360141
 30
0.0
 10
34.317540148
 20
6.1652340725
 30
0.0
 10
34.3258356397
 20
6.1639909258
 30
0.0
 10
34.3377176824
 20
6.1622407039
 30
0.0
 10
34.3537706952
 20
6.1599398778
 30
0.0
 10
34.3652729478
 20
6.1583421681
 30
0.0
 10
34.3714179765
 20
6.1575023609
 30
0.0
  0
SPLINE
  5
243
100
AcDbEntity
  8
0
100
AcDbSpline
 62
7
  6
CONTINUOUS
 70
0
 71
3
 72
10
 73
6
 74
0
 42
0.0000001
 43
0.0000001
 44
0.0000000001
 40
0.0
 40
0.0
 40
0.0
 40
0.0
 40
0.248593187
 40
0.4983549996
 40
1.0
 40
1.0
 40
1.0
 40
1.0
 10
34.6195797721
 20
6.7056393725
 30
0.0
 10
34.6326381015
 20
6.7539291212
 30
0.0
 10
34.6579416199
 20
6.8509707999
 30
0.0
 10
34.7079314675
 20
7.0458893966
 30
0.0
 10
34.7460816362
 20
7.1922096404
 30
0.0
 10
34.7726196978
 20
7.2896044216
 30
0.0
  0
SPLINE
  5
244
100
AcDbEntity
  8
0
100
AcDbSpline
 62
7
  6
CONTINUOUS
 70
0
 71
3
 72
43
 73
39
 74
0
 42
0.0000001
 43
0.0000001
 44
0.0000000001
 40
0.0
 40
0.0
 40
0.0
 40
0.0
 40
0.0000227219
 40
0.0000904896
 40
0.0002032719
 40
0.0003610371
 40
0.0005637532
 40
0.0008113884
 40
0.0014412888
 40
0.0022504836
 40
0.0032387183
 40
0.0044057385
 40
0.0057512899
 40
0.0089769705
 40
0.0129135593
 40
0.0175565119
 40
0.0228995756
 40
0.0289364577
 40
0.035660865
 40
0.043066162
 40
0.0511436328
 40
0.0692771011
 40
0.0899833059
 40
0.1131703923
 40
0.1387380147
 40
0.1665732088
 40
0.1965545025
 40
0.2285504014
 40
0.2624206265
 40
0.2980166106
 40
0.3351828881
 40
0.4135811504
 40
0.4962634916
 40
0.5817996874
 40
0.6687045012
 40
0.7554700917
 40
0.8405792094
 40
1.0
 40
1.0
 40
1.0
 40
1.0
 10
37.0485386121
 20
7.2666290443
 30
0.0
 10
37.0485287096
 20
7.2666160154
 30
0.0
 10
37.0484478693
 20
7.2666459312
 30
0.0
 10
37.0483165588
 20
7.2666153251
 30
0.0
 10
37.048064316
 20
7.2666303497
 30
0.0
 10
37.0477272584
 20
7.2666206125
 30
0.0
 10
37.0472878199
 20
7.266620493
 30
0.0
 10
37.0465105123
 20
7.2666137766
 30
0.0
 10
37.0452952578
 20
7.2666060567
 30
0.0
 10
37.0435472804
 20
7.266592595
 30
0.0
 10
37.0414122014
 20
7.2665758305
 30
0.0
 10
37.0388909431
 20
7.2665546234
 30
0.0
 10
37.0347582574
 20
7.2665179098
 30
0.0
 10
37.0286309964
 20
7.2664585437
 30
0.0
 10
37.0201290576
 20
7.2663670198
 30
0.0
 10
37.0101023064
 20
7.266251081
 30
0.0
 10
36.998563037
 20
7.2661119417
 30
0.0
 10
36.9855248121
 20
7.2659504098
 30
0.0
 10
36.9710014648
 20
7.2657674667
 30
0.0
 10
36.9550085733
 20
7.2655641065
 30
0.0
 10
36.9307992692
 20
7.265254294
 30
0.0
 10
36.8970111278
 20
7.2648189565
 30
0.0
 10
36.8523415634
 20
7.2642425313
 30
0.0
 10
36.8023182937
 20
7.2635877438
 30
0.0
 10
36.7471612316
 20
7.2628468413
 30
0.0
 10
36.6871112786
 20
7.2620378522
 30
0.0
 10
36.6224317779
 20
7.2611781208
 30
0.0
 10
36.5534057948
 20
7.2602818055
 30
0.0
 10
36.4803359051
 20
7.2593646447
 30
0.0
 10
36.4035414776
 20
7.2584792836
 30
0.0
 10
36.2946764605
 20
7.257460385
 30
0.0
 10
36.1518982035
 20
7.2563398278
 30
0.0
 10
35.9742812604
 20
7.2553142846
 30
0.0
 10
35.7905369801
 20
7.2544192044
 30
0.0
 10
35.6038517824
 20
7.2535280449
 30
0.0
 10
35.4174740601
 20
7.2526594959
 30
0.0
 10
35.1788686052
 20
7.2516513545
 30
0.0
 10
35.0027524682
 20
7.2510806279
 30
0.0
 10
34.8879335667
 20
7.2509345353
 30
0.0
  0
SPLINE
  5
245
100
AcDbEntity
  8
0
100
AcDbSpline
 62
7
  6
CONTINUOUS
 70
0
 71
3
 72
21
 73
17
 74
0
 42
0.0000001
 43
0.0000001
 44
0.0000000001
 40
0.0
 40
0.0
 40
0.0
 40
0.0
 40
0.0628258547
 40
0.1256502701
 40
0.188453819
 40
0.25122389
 40
0.3139528888
 40
0.3766362798
 40
0.5017915277
 40
0.6267216741
 40
0.6891266798
 40
0.751460167
 40
0.8137171202
 40
0.8758930879
 40
0.9379857853
 40
1.0
 40
1.0
 40
1.0
 40
1.0
 10
34.0734596115
 20
7.5577833943
 30
0.0
 10
33.9165796933
 20
7.584231139
 30
0.0
 10
33.604631458
 20
7.6486501318
 30
0.0
 10
33.1453974567
 20
7.7799656007
 30
0.0
 10
32.6970812181
 20
7.9443107076
 30
0.0
 10
32.2615673269
 20
8.1393787155
 30
0.0
 10
31.8403926236
 20
8.363071075
 30
0.0
 10
31.3001657229
 20
8.6965733635
 30
0.0
 10
30.6670003023
 20
9.1760900252
 30
0.0
 10
30.1005875693
 20
9.7322698328
 30
0.0
 10
29.6976350529
 20
10.2200659718
 30
0.0
 10
29.4235111205
 20
10.6067638854
 30
0.0
 10
29.1812457837
 20
11.0135682338
 30
0.0
 10
28.9750454756
 20
11.4392390117
 30
0.0
 10
28.8098850358
 20
11.8818695719
 30
0.0
 10
28.7305969569
 20
12.1867069362
 30
0.0
 10
28.6994172535
 20
12.3406188198
 30
0.0
  0
SPLINE
  5
246
100
AcDbEntity
  8
0
100
AcDbSpline
 62
7
  6
CONTINUOUS
 70
0
 71
3
 72
18
 73
14
 74
0
 42
0.0000001
 43
0.0000001
 44
0.0000000001
 40
0.0
 40
0.0
 40
0.0
 40
0.0
 40
0.0319466252
 40
0.0677363351
 40
0.1082887258
 40
0.1539474079
 40
0.2046515893
 40
0.2601251995
 40
0.3838477211
 40
0.5221225656
 40
0.672213302
 40
0.8320903024
 40
1.0
 40
1.0
 40
1.0
 40
1.0
 10
34.3714179765
 20
6.1575023609
 30
0.0
 10
34.3784363541
 20
6.1565473774
 30
0.0
 10
34.3936549834
 20
6.1567861323
 30
0.0
 10
34.4170904507
 20
6.1625933048
 30
0.0
 10
34.4419801741
 20
6.1734325468
 30
0.0
 10
34.4681020882
 20
6.1890142175
 30
0.0
 10
34.4952338107
 20
6.2090147573
 30
0.0
 10
34.5338041487
 20
6.2424001326
 30
0.0
 10
34.582244942
 20
6.2937201586
 30
0.0
 10
34.6377169383
 20
6.3665015406
 30
0.0
 10
34.689555648
 20
6.4515305608
 30
0.0
 10
34.7339857192
 20
6.5479968661
 30
0.0
 10
34.7549702006
 20
6.6179548435
 30
0.0
 10
34.762591069
 20
6.6543945996
 30
0.0
  0
SPLINE
  5
247
100
AcDbEntity
  8
0
100
AcDbSpline
 62
7
  6
CONTINUOUS
 70
0
 71
3
 72
10
 73
6
 74
0
 42
0.0000001
 43
0.0000001
 44
0.0000000001
 40
0.0
 40
0.0
 40
0.0
 40
0.0
 40
0.2489417187
 40
0.4987695891
 40
1.0
 40
1.0
 40
1.0
 40
1.0
 10
34.762591069
 20
6.6543945996
 30
0.0
 10
34.7730159594
 20
6.7038911099
 30
0.0
 10
34.7934359506
 20
6.8031583056
 30
0.0
 10
34.8342362738
 20
7.0022082634
 30
0.0
 10
34.8658065797
 20
7.1515223176
 30
0.0
 10
34.8879335667
 20
7.2509345353
 30
0.0
  0
LINE
  5
248
100
AcDbEntity
  8
0
100
AcDbLine
 62
7
  6
CONTINUOUS
 10
28.6994172535
 20
12.3406188198
 11
30.0456940673
 21
12.3515358536
  0
LINE
  5
249
100
AcDbEntity
  8
0
100
AcDbLine
 62
7
  6
CONTINUOUS
 10
28.4210611081
 20
12.817222466
 11
28.4139297105
 21
12.9303647615
  0
SPLINE
  5
24A
100
AcDbEntity
  8
0
100
AcDbSpline
 62
7
  6
CONTINUOUS
 70
0
 71
3
 72
37
 73
33
 74
0
 42
0.0000001
 43
0.0000001
 44
0.0000000001
 40
0.0
 40
0.0
 40
0.0
 40
0.0
 40
0.0112283254
 40
0.0229927816
 40
0.0353463472
 40
0.0482621672
 40
0.0756763523
 40
0.1050940645
 40
0.1363646458
 40
0.1693199256
 40
0.2037861131
 40
0.2395825921
 40
0.3144069537
 40
0.3530426114
 40
0.3922219762
 40
0.4713865576
 40
0.5502308304
 40
0.6270916807
 40
0.7003361617
 40
0.7684164693
 40
0.8000577021
 40
0.8298778484
 40
0.8577398498
 40
0.8834663822
 40
0.895460139
 40
0.906889588
 40
0.9178392755
 40
0.9283962369
 40
0.9484705926
 40
0.9671185589
 40
0.9843031879
 40
1.0
 40
1.0
 40
1.0
 40
1.0
 10
29.7762138848
 20
12.8421908335
 30
0.0
 10
29.8137049979
 20
12.8426229101
 30
0.0
 10
29.8904724344
 20
12.8438938179
 30
0.0
 10
30.0084825596
 20
12.8459681997
 30
0.0
 10
30.1321344012
 20
12.8476755022
 30
0.0
 10
30.3080424003
 20
12.8498005473
 30
0.0
 10
30.5409303655
 20
12.8523275489
 30
0.0
 10
30.8351122094
 20
12.8547613337
 30
0.0
 10
31.147800556
 20
12.8567356305
 30
0.0
 10
31.477348984
 20
12.8583481723
 30
0.0
 10
31.822011463
 20
12.8597207238
 30
0.0
 10
32.3064832782
 20
12.8612842498
 30
0.0
 10
32.8048804293
 20
12.8620697478
 30
0.0
 10
33.3145736054
 20
12.861647713
 30
0.0
 10
33.8387583672
 20
12.8604621347
 30
0.0
 10
34.4972051603
 20
12.858188231
 30
0.0
 10
35.2814733181
 20
12.854513561
 30
0.0
 10
36.0459655492
 20
12.8495081734
 30
0.0
 10
36.7745040593
 20
12.8432212852
 30
0.0
 10
37.3520376381
 20
12.836868824
 30
0.0
 10
37.7845661995
 20
12.8312174094
 30
0.0
 10
38.0828033457
 20
12.8268868424
 30
0.0
 10
38.361286272
 20
12.8224583737
 30
0.0
 10
38.5802441464
 20
12.8185536416
 30
0.0
 10
38.7443285201
 20
12.8150933453
 30
0.0
 10
38.8590762167
 20
12.8124597548
 30
0.0
 10
38.9690278519
 20
12.8099550149
 30
0.0
 10
39.1078468787
 20
12.8071409886
 30
0.0
 10
39.2723821266
 20
12.8046712857
 30
0.0
 10
39.459041855
 20
12.8016452355
 30
0.0
 10
39.6310866158
 20
12.7988803589
 30
0.0
 10
39.7408736062
 20
12.7973444663
 30
0.0
 10
39.7932838684
 20
12.7966573958
 30
0.0
  0
LINE
  5
24B
100
AcDbEntity
  8
0
100
AcDbLine
 62
7
  6
CONTINUOUS
 10
39.7932838684
 20
12.7966573958
 11
39.8974188639
 21
12.7953525796
  0
SPLINE
  5
24C
100
AcDbEntity
  8
0
100
AcDbSpline
 62
7
  6
CONTINUOUS
 70
0
 71
3
 72
27
 73
23
 74
0
 42
0.0000001
 43
0.0000001
 44
0.0000000001
 40
0.0
 40
0.0
 40
0.0
 40
0.0
 40
0.2323582959
 40
0.4346739286
 40
0.5244511337
 40
0.6065936255
 40
0.6810619444
 40
0.7478060437
 40
0.8067677559
 40
0.8578958144
 40
0.9011848359
 40
0.9199016163
 40
0.9366720676
 40
0.9515048896
 40
0.9643959117
 40
0.9753148444
 40
0.9841969504
 40
0.990984266
 40
0.9957165848
 40
0.9986227091
 40
0.9994742295
 40
1.0
 40
1.0
 40
1.0
 40
1.0
 10
39.8974188639
 20
12.7953525796
 30
0.0
 10
39.9442377181
 20
12.7947919363
 30
0.0
 10
40.0318227586
 20
12.7938049254
 30
0.0
 10
40.13749943
 20
12.7927920059
 30
0.0
 10
40.2129087934
 20
12.7922007397
 30
0.0
 10
40.2625570817
 20
12.7918777862
 30
0.0
 10
40.3075644971
 20
12.7916544247
 30
0.0
 10
40.3479010965
 20
12.7915162509
 30
0.0
 10
40.383534573
 20
12.7914375302
 30
0.0
 10
40.414441696
 20
12.791391775
 30
0.0
 10
40.4372391553
 20
12.7913785657
 30
0.0
 10
40.4531132509
 20
12.7913974601
 30
0.0
 10
40.4632531367
 20
12.791423977
 30
0.0
 10
40.4722190582
 20
12.7914697013
 30
0.0
 10
40.4800055487
 20
12.7915329149
 30
0.0
 10
40.4865932529
 20
12.7916036588
 30
0.0
 10
40.4919499475
 20
12.7916438962
 30
0.0
 10
40.4960636887
 20
12.7916202105
 30
0.0
 10
40.4989643636
 20
12.7915421807
 30
0.0
 10
40.5006834401
 20
12.7914840086
 30
0.0
 10
40.5015374749
 20
12.7915461536
 30
0.0
 10
40.5018165819
 20
12.7916278785
 30
0.0
 10
40.5018979481
 20
12.791695734
 30
0.0
  0
SPLINE
  5
24D
100
AcDbEntity
  8
0
100
AcDbSpline
 62
7
  6
CONTINUOUS
 70
0
 71
3
 72
12
 73
8
 74
0
 42
0.0000001
 43
0.0000001
 44
0.0000000001
 40
0.0
 40
0.0
 40
0.0
 40
0.0
 40
0.1698897256
 40
0.3944922347
 40
0.5268229026
 40
0.6720370445
 40
1.0
 40
1.0
 40
1.0
 40
1.0
 10
28.4210611081
 20
12.817222466
 30
0.0
 10
28.4978012152
 20
12.8187452405
 30
0.0
 10
28.6759973779
 20
12.8221857214
 30
0.0
 10
28.9139722904
 20
12.8265894783
 30
0.0
 10
29.1408053692
 20
12.8305319135
 30
0.0
 10
29.4143283702
 20
12.8353189345
 30
0.0
 10
29.6280589465
 20
12.8399553728
 30
0.0
 10
29.7762138848
 20
12.8421908335
 30
0.0
  0
SPLINE
  5
24E
100
AcDbEntity
  8
0
100
AcDbSpline
 62
7
  6
CONTINUOUS
 70
0
 71
3
 72
11
 73
7
 74
0
 42
0.0000001
 43
0.0000001
 44
0.0000000001
 40
0.0
 40
0.0
 40
0.0
 40
0.0
 40
0.2704327294
 40
0.53025104
 40
0.7721570076
 40
1.0
 40
1.0
 40
1.0
 40
1.0
 10
28.5939727841
 20
14.5626199013
 30
0.0
 10
28.5937425759
 20
14.5705477356
 30
0.0
 10
28.5959037456
 20
14.5862839738
 30
0.0
 10
28.6064386386
 20
14.6068778983
 30
0.0
 10
28.6232097095
 20
14.6211491826
 30
0.0
 10
28.6371526026
 20
14.6247138711
 30
0.0
 10
28.6438347186
 20
14.6247138711
 30
0.0
  0
SPLINE
  5
24F
100
AcDbEntity
  8
0
100
AcDbSpline
 62
7
  6
CONTINUOUS
 70
0
 71
3
 72
11
 73
7
 74
0
 42
0.0000001
 43
0.0000001
 44
0.0000000001
 40
0.0
 40
0.0
 40
0.0
 40
0.0
 40
0.2704327409
 40
0.5302510647
 40
0.7721570216
 40
1.0
 40
1.0
 40
1.0
 40
1.0
 10
40.0905481229
 20
14.5626199013
 30
0.0
 10
40.0907783311
 20
14.5705477359
 30
0.0
 10
40.0886171606
 20
14.5862839749
 30
0.0
 10
40.0780822671
 20
14.6068778994
 30
0.0
 10
40.0613111966
 20
14.6211491839
 30
0.0
 10
40.0473683039
 20
14.6247138711
 30
0.0
 10
40.0406861883
 20
14.6247138711
 30
0.0
  0
SPLINE
  5
250
100
AcDbEntity
  8
0
100
AcDbSpline
 62
7
  6
CONTINUOUS
 70
0
 71
3
 72
11
 73
7
 74
0
 42
0.0000001
 43
0.0000001
 44
0.0000000001
 40
0.0
 40
0.0
 40
0.0
 40
0.0
 40
0.2705697372
 40
0.5296407748
 40
0.7713766479
 40
1.0
 40
1.0
 40
1.0
 40
1.0
 10
40.0795136925
 20
14.1826199013
 30
0.0
 10
40.0792941483
 20
14.1750593104
 30
0.0
 10
40.0764889172
 20
14.1602217861
 30
0.0
 10
40.0656811471
 20
14.141057516
 30
0.0
 10
40.0493422434
 20
14.1279506361
 30
0.0
 10
40.0360429245
 20
14.1247138711
 30
0.0
 10
40.029651758
 20
14.1247138711
 30
0.0
  0
SPLINE
  5
251
100
AcDbEntity
  8
0
100
AcDbSpline
 62
7
  6
CONTINUOUS
 70
0
 71
3
 72
11
 73
7
 74
0
 42
0.0000001
 43
0.0000001
 44
0.0000000001
 40
0.0
 40
0.0
 40
0.0
 40
0.0
 40
0.2705697534
 40
0.5296408098
 40
0.7713766672
 40
1.0
 40
1.0
 40
1.0
 40
1.0
 10
28.6050072144
 20
14.1826199013
 30
0.0
 10
28.6052267587
 20
14.1750593099
 30
0.0
 10
28.6080319908
 20
14.1602217847
 30
0.0
 10
28.6188397615
 20
14.1410575145
 30
0.0
 10
28.6351786648
 20
14.1279506345
 30
0.0
 10
28.648477983
 20
14.1247138711
 30
0.0
 10
28.6548691489
 20
14.1247138711
 30
0.0
  0
SPLINE
  5
252
100
AcDbEntity
  8
0
100
AcDbSpline
 62
7
  6
CONTINUOUS
 70
0
 71
3
 72
17
 73
13
 74
0
 42
0.0000001
 43
0.0000001
 44
0.0000000001
 40
0.0
 40
0.0
 40
0.0
 40
0.0
 40
0.1854677856
 40
0.3614684133
 40
0.5235648227
 40
0.667346261
 40
0.7890420836
 40
0.8863121517
 40
0.9251794593
 40
0.9572129425
 40
0.9821988459
 40
1.0
 40
1.0
 40
1.0
 40
1.0
 10
28.4792725217
 20
12.3081893956
 30
0.0
 10
28.4881097134
 20
12.3174818309
 30
0.0
 10
28.5054191215
 20
12.335511086
 30
0.0
 10
28.5300727232
 20
12.3620194051
 30
0.0
 10
28.5528585342
 20
12.3863292091
 30
0.0
 10
28.5726429523
 20
12.4082980341
 30
0.0
 10
28.5895418237
 20
12.426830973
 30
0.0
 10
28.6018426209
 20
12.4397406396
 30
0.0
 10
28.6101414257
 20
12.4478853482
 30
0.0
 10
28.6150233892
 20
12.4523769134
 30
0.0
 10
28.6190096003
 20
12.4556710398
 30
0.0
 10
28.6214605602
 20
12.457357284
 30
0.0
 10
28.6225571614
 20
12.457916171
 30
0.0
  0
SPLINE
  5
253
100
AcDbEntity
  8
0
100
AcDbSpline
 62
7
  6
CONTINUOUS
 70
0
 71
3
 72
15
 73
11
 74
0
 42
0.0000001
 43
0.0000001
 44
0.0000000001
 40
0.0
 40
0.0
 40
0.0
 40
0.0
 40
0.0259254995
 40
0.0578417274
 40
0.1390448556
 40
0.2421943471
 40
0.3654293004
 40
0.5063922708
 40
0.6616230624
 40
1.0
 40
1.0
 40
1.0
 40
1.0
 10
28.6994191736
 20
12.340628704
 30
0.0
 10
28.6975911709
 20
12.3412788567
 30
0.0
 10
28.6933833194
 20
12.3423600388
 30
0.0
 10
28.6830855757
 20
12.3439139044
 30
0.0
 10
28.6668699522
 20
12.3445168075
 30
0.0
 10
28.6438617178
 20
12.3435681818
 30
0.0
 10
28.6164963686
 20
12.3407481988
 30
0.0
 10
28.5855018308
 20
12.335689964
 30
0.0
 10
28.539067087
 20
12.3256638276
 30
0.0
 10
28.5034831609
 20
12.3156123146
 30
0.0
 10
28.4792725217
 20
12.3081893956
 30
0.0
  0
SPLINE
  5
254
100
AcDbEntity
  8
0
100
AcDbSpline
 62
7
  6
CONTINUOUS
 70
0
 71
3
 72
24
 73
20
 74
0
 42
0.0000001
 43
0.0000001
 44
0.0000000001
 40
0.0
 40
0.0
 40
0.0
 40
0.0
 40
0.0620663063
 40
0.1241506039
 40
0.1862567022
 40
0.2483904603
 40
0.310561382
 40
0.3727847695
 40
0.4350659578
 40
0.4662983676
 40
0.4975785864
 40
0.5288983237
 40
0.5602441322
 40
0.6229748711
 40
0.6857588162
 40
0.7485757382
 40
0.811414611
 40
0.8742690286
 40
1.0
 40
1.0
 40
1.0
 40
1.0
 10
28.1846228586
 20
12.9463363939
 30
0.0
 10
28.1835429455
 20
12.9641562893
 30
0.0
 10
28.1810853841
 20
12.9997842584
 30
0.0
 10
28.1763279934
 20
13.0531511977
 30
0.0
 10
28.1702217138
 20
13.1064036079
 30
0.0
 10
28.1623869017
 20
13.1594575212
 30
0.0
 10
28.1520441404
 20
13.2121414676
 30
0.0
 10
28.1382146449
 20
13.2640432587
 30
0.0
 10
28.1222385935
 20
13.3061491597
 30
0.0
 10
28.1040349234
 20
13.3371761965
 30
0.0
 10
28.0881485455
 20
13.3590381056
 30
0.0
 10
28.0705093979
 20
13.3795388787
 30
0.0
 10
28.0454436959
 20
13.4054925646
 30
0.0
 10
28.0119115819
 20
13.4357630675
 30
0.0
 10
27.9692560329
 20
13.4692016294
 30
0.0
 10
27.9249374617
 20
13.5004382639
 30
0.0
 10
27.8793831195
 20
13.5298699819
 30
0.0
 10
27.8173484857
 20
13.5670598755
 30
0.0
 10
27.7696340243
 20
13.592930598
 30
0.0
 10
27.7374509722
 20
13.6094276526
 30
0.0
  0
LINE
  5
255
100
AcDbEntity
  8
0
100
AcDbLine
 62
7
  6
CONTINUOUS
 10
28.1915860974
 20
12.8347137745
 11
28.1846228586
 21
12.9463363939
  0
SPLINE
  5
256
100
AcDbEntity
  8
0
100
AcDbSpline
 62
7
  6
CONTINUOUS
 70
0
 71
3
 72
11
 73
7
 74
0
 42
0.0000001
 43
0.0000001
 44
0.0000000001
 40
0.0
 40
0.0
 40
0.0
 40
0.0
 40
0.2511846069
 40
0.5015848318
 40
0.7511527434
 40
1.0
 40
1.0
 40
1.0
 40
1.0
 10
28.4791378993
 20
12.3083186433
 30
0.0
 10
28.4375218076
 20
12.3390878947
 30
0.0
 10
28.3607300622
 20
12.4096616276
 30
0.0
 10
28.2714401812
 20
12.5375529977
 30
0.0
 10
28.212345742
 20
12.6813840967
 30
0.0
 10
28.1947710577
 20
12.783538755
 30
0.0
 10
28.1915860974
 20
12.8347137745
 30
0.0
  0
SPLINE
  5
257
100
AcDbEntity
  8
0
100
AcDbSpline
 62
7
  6
CONTINUOUS
 70
0
 71
3
 72
23
 73
19
 74
0
 42
0.0000001
 43
0.0000001
 44
0.0000000001
 40
0.0
 40
0.0
 40
0.0
 40
0.0
 40
0.0628150316
 40
0.125626174
 40
0.18841787
 40
0.2511784135
 40
0.3138996362
 40
0.3765762104
 40
0.5017171177
 40
0.6266324723
 40
0.6890312351
 40
0.7513606833
 40
0.8136177629
 40
0.8758011744
 40
0.9068748004
 40
0.9379307951
 40
0.9689733049
 40
1.0
 40
1.0
 40
1.0
 40
1.0
 10
34.0446723601
 20
7.3733186977
 30
0.0
 10
33.8824718216
 20
7.4005304287
 30
0.0
 10
33.5599135894
 20
7.4666871369
 30
0.0
 10
33.0848809004
 20
7.6013665643
 30
0.0
 10
32.6209731588
 20
7.7700089296
 30
0.0
 10
32.1701935908
 20
7.9704446761
 30
0.0
 10
31.7341790845
 20
8.200584773
 30
0.0
 10
31.1748839124
 20
8.5440971984
 30
0.0
 10
30.519438075
 20
9.038753776
 30
0.0
 10
29.9332724593
 20
9.6131857545
 30
0.0
 10
29.5163306285
 20
10.1172055393
 30
0.0
 10
29.232637701
 20
10.5168187459
 30
0.0
 10
28.9817504621
 20
10.9371877509
 30
0.0
 10
28.8034410746
 20
11.3039104104
 30
0.0
 10
28.6817277953
 20
11.6058960508
 30
0.0
 10
28.6016433342
 20
11.8364384684
 30
0.0
 10
28.5332409818
 20
12.0705758265
 30
0.0
 10
28.4957178482
 20
12.2287920239
 30
0.0
 10
28.4791378993
 20
12.3083186433
 30
0.0
  0
SPLINE
  5
258
100
AcDbEntity
  8
0
100
AcDbSpline
 62
7
  6
CONTINUOUS
 70
0
 71
3
 72
15
 73
11
 74
0
 42
0.0000001
 43
0.0000001
 44
0.0000000001
 40
0.0
 40
0.0
 40
0.0
 40
0.0
 40
0.0875509086
 40
0.1838981532
 40
0.2927511216
 40
0.4145094524
 40
0.5482067366
 40
0.6920496009
 40
0.8437571965
 40
1.0
 40
1.0
 40
1.0
 40
1.0
 10
34.7778358565
 20
7.4765704334
 30
0.0
 10
34.7852823737
 20
7.4745345717
 30
0.0
 10
34.8002684051
 20
7.4676358337
 30
0.0
 10
34.8201811395
 20
7.4508815673
 30
0.0
 10
34.8382572654
 20
7.4282363947
 30
0.0
 10
34.8542231247
 20
7.4002401869
 30
0.0
 10
34.8675670611
 20
7.3675668265
 30
0.0
 10
34.8778598502
 20
7.3310655841
 30
0.0
 10
34.8846385355
 20
7.2917524369
 30
0.0
 10
34.8871156492
 20
7.2646868996
 30
0.0
 10
34.887933557
 20
7.2509344889
 30
0.0
  0
SPLINE
  5
259
100
AcDbEntity
  8
0
100
AcDbSpline
 62
7
  6
CONTINUOUS
 70
0
 71
3
 72
15
 73
11
 74
0
 42
0.0000001
 43
0.0000001
 44
0.0000000001
 40
0.0
 40
0.0
 40
0.0
 40
0.0
 40
0.0163791362
 40
0.0400928249
 40
0.1088311064
 40
0.2047012289
 40
0.3256946865
 40
0.4691350449
 40
0.6321742199
 40
1.0
 40
1.0
 40
1.0
 40
1.0
 10
34.7778358565
 20
7.4765704334
 30
0.0
 10
34.7780268058
 20
7.4755665708
 30
0.0
 10
34.7783204556
 20
7.473078606
 30
0.0
 10
34.7788090595
 20
7.4663071056
 30
0.0
 10
34.7791080855
 20
7.4545558228
 30
0.0
 10
34.7790822928
 20
7.4367380634
 30
0.0
 10
34.7785918259
 20
7.4142629978
 30
0.0
 10
34.7776579532
 20
7.3876098142
 30
0.0
 10
34.7757097601
 20
7.3455856533
 30
0.0
 10
34.7738612205
 20
7.3125174292
 30
0.0
 10
34.772619325
 20
7.2896031372
 30
0.0
  0
SPLINE
  5
25A
100
AcDbEntity
  8
0
100
AcDbSpline
 62
7
  6
CONTINUOUS
 70
0
 71
3
 72
14
 73
10
 74
0
 42
0.0000001
 43
0.0000001
 44
0.0000000001
 40
0.0
 40
0.0
 40
0.0
 40
0.0
 40
0.0417495289
 40
0.1117230173
 40
0.2083046513
 40
0.3294687728
 40
0.4725680155
 40
0.6347997358
 40
1.0
 40
1.0
 40
1.0
 40
1.0
 10
34.073458559
 20
7.557783709
 30
0.0
 10
34.0732469066
 20
7.5551939699
 30
0.0
 10
34.0723743554
 20
7.5482922317
 30
0.0
 10
34.0706065316
 20
7.535450808
 30
0.0
 10
34.0679715614
 20
7.5177377821
 30
0.0
 10
34.0645576837
 20
7.4955411034
 30
0.0
 10
34.0604183502
 20
7.469321796
 30
0.0
 10
34.0537908682
 20
7.4281194485
 30
0.0
 10
34.0484615584
 20
7.3957289019
 30
0.0
 10
34.0447328253
 20
7.3733077995
 30
0.0
  0
SPLINE
  5
25B
100
AcDbEntity
  8
0
100
AcDbSpline
 62
7
  6
CONTINUOUS
 70
0
 71
3
 72
22
 73
18
 74
0
 42
0.0000001
 43
0.0000001
 44
0.0000000001
 40
0.0
 40
0.0
 40
0.0
 40
0.0
 40
0.214160784
 40
0.4086223317
 40
0.5795851663
 40
0.7239388284
 40
0.7853064997
 40
0.8391323721
 40
0.8851972869
 40
0.9233631517
 40
0.953572732
 40
0.9657047702
 40
0.9758881668
 40
0.98419094
 40
0.9907440488
 40
0.9958205706
 40
1.0
 40
1.0
 40
1.0
 40
1.0
 10
27.481716806
 20
13.9107828064
 30
0.0
 10
27.4610952564
 20
13.9101146968
 30
0.0
 10
27.4217554749
 20
13.9086254227
 30
0.0
 10
27.3659877027
 20
13.9057959674
 30
0.0
 10
27.3169816942
 20
13.9025354602
 30
0.0
 10
27.2808239452
 20
13.8993864909
 30
0.0
 10
27.255971914
 20
13.8966135752
 30
0.0
 10
27.2405684455
 20
13.8945819207
 30
0.0
 10
27.2274299103
 20
13.8924963798
 30
0.0
 10
27.2166105792
 20
13.890364437
 30
0.0
 10
27.2090841316
 20
13.8884554854
 30
0.0
 10
27.2042844566
 20
13.8868437651
 30
0.0
 10
27.2015553391
 20
13.8857169458
 30
0.0
 10
27.1994190195
 20
13.8845837941
 30
0.0
 10
27.1978676315
 20
13.8834364307
 30
0.0
 10
27.1968756461
 20
13.8822464944
 30
0.0
 10
27.1966360921
 20
13.8813432848
 30
0.0
 10
27.1966463784
 20
13.8809407677
 30
0.0
  0
SPLINE
  5
25C
100
AcDbEntity
  8
0
100
AcDbSpline
 62
7
  6
CONTINUOUS
 70
0
 71
3
 72
55
 73
51
 74
0
 42
0.0000001
 43
0.0000001
 44
0.0000000001
 40
0.0
 40
0.0
 40
0.0
 40
0.0
 40
0.0138538356
 40
0.028594121
 40
0.044203272
 40
0.06063699
 40
0.0958332074
 40
0.1338843375
 40
0.2172433023
 40
0.2618229487
 40
0.3078126621
 40
0.4024300048
 40
0.4978448885
 40
0.59071985
 40
0.6777905566
 40
0.7181766824
 40
0.7559688695
 40
0.7908539201
 40
0.8225092151
 40
0.8370107721
 40
0.8506940812
 40
0.863701258
 40
0.8761263634
 40
0.8879928587
 40
0.8993082879
 40
0.9202218685
 40
0.9387848643
 40
0.9471715292
 40
0.9549540828
 40
0.9621276708
 40
0.968687961
 40
0.9746312829
 40
0.9799543588
 40
0.9846542186
 40
0.988728425
 40
0.9921750793
 40
0.9936629119
 40
0.9949939584
 40
0.9961683542
 40
0.9971863413
 40
0.9980479684
 40
0.9987525199
 40
0.9990453413
 40
0.9992982945
 40
0.9995113418
 40
0.9996848075
 40
0.9998195119
 40
0.9999163103
 40
0.9999760821
 40
1.0
 40
1.0
 40
1.0
 40
1.0
 10
29.9738985793
 20
12.4650421221
 30
0.0
 10
30.0216646118
 20
12.4652005023
 30
0.0
 10
30.120252292
 20
12.4657169862
 30
0.0
 10
30.2726579418
 20
12.466437606
 30
0.0
 10
30.4339594108
 20
12.4670148546
 30
0.0
 10
30.665790067
 20
12.4677942814
 30
0.0
 10
30.9749981648
 20
12.4686084742
 30
0.0
 10
31.5149563199
 20
12.4695835976
 30
0.0
 10
32.0872679077
 20
12.4702279446
 30
0.0
 10
32.6869509071
 20
12.4706590089
 30
0.0
 10
33.3254515838
 20
12.4707119023
 30
0.0
 10
34.1392255647
 20
12.4700199069
 30
0.0
 10
35.114653475
 20
12.4688023019
 30
0.0
 10
36.0640605877
 20
12.4669630774
 30
0.0
 10
36.8237342913
 20
12.4648604438
 30
0.0
 10
37.3934888808
 20
12.4628888424
 30
0.0
 10
37.7833141235
 20
12.4613237764
 30
0.0
 10
38.1430359303
 20
12.4596855206
 30
0.0
 10
38.4224547425
 20
12.4582627959
 30
0.0
 10
38.6287719961
 20
12.4569513944
 30
0.0
 10
38.7707937941
 20
12.4559951948
 30
0.0
 10
38.9056571158
 20
12.4551930989
 30
0.0
 10
39.0342572636
 20
12.4545937034
 30
0.0
 10
39.1570246951
 20
12.4540604087
 30
0.0
 10
39.3090588086
 20
12.453345182
 30
0.0
 10
39.4841814536
 20
12.4525392422
 30
0.0
 10
39.6492067236
 20
12.4519036797
 30
0.0
 10
39.7689583582
 20
12.451493266
 30
0.0
 10
39.8494410342
 20
12.4512374582
 30
0.0
 10
39.9236266972
 20
12.4510237923
 30
0.0
 10
39.9914710058
 20
12.4508504993
 30
0.0
 10
40.0529350582
 20
12.4507176981
 30
0.0
 10
40.1079846453
 20
12.4506253047
 30
0.0
 10
40.1565898007
 20
12.4505695908
 30
0.0
 10
40.1987253097
 20
12.4505409438
 30
0.0
 10
40.229786157
 20
12.4505277378
 30
0.0
 10
40.251388933
 20
12.4505240625
 30
0.0
 10
40.2651572479
 20
12.4505263179
 30
0.0
 10
40.2773055862
 20
12.4505333282
 30
0.0
 10
40.2878354379
 20
12.4505472784
 30
0.0
 10
40.2967452536
 20
12.4505685785
 30
0.0
 10
40.3031549197
 20
12.450589522
 30
0.0
 10
40.3074657214
 20
12.4505968533
 30
0.0
 10
40.3100824235
 20
12.4505951641
 30
0.0
 10
40.3122861195
 20
12.4505887285
 30
0.0
 10
40.3140861719
 20
12.4505705468
 30
0.0
 10
40.3154746928
 20
12.4505700489
 30
0.0
 10
40.3164965778
 20
12.4505391281
 30
0.0
 10
40.3170865622
 20
12.4505953057
 30
0.0
 10
40.3174120299
 20
12.4505587964
 30
0.0
 10
40.3174747279
 20
12.4506123649
 30
0.0
  0
SPLINE
  5
25D
100
AcDbEntity
  8
0
100
AcDbSpline
 62
7
  6
CONTINUOUS
 70
0
 71
3
 72
10
 73
6
 74
0
 42
0.0000001
 43
0.0000001
 44
0.0000000001
 40
0.0
 40
0.0
 40
0.0
 40
0.0
 40
0.260918375
 40
0.5164144356
 40
1.0
 40
1.0
 40
1.0
 40
1.0
 10
30.045701264
 20
12.3515078755
 30
0.0
 10
30.0428794586
 20
12.3630447789
 30
0.0
 10
30.0354997576
 20
12.3854998236
 30
0.0
 10
30.0146148135
 20
12.4260562126
 30
0.0
 10
29.9915495118
 20
12.451888915
 30
0.0
 10
29.9738985793
 20
12.4650421221
 30
0.0
  0
SPLINE
  5
25E
100
AcDbEntity
  8
0
100
AcDbSpline
 62
7
  6
CONTINUOUS
 70
0
 71
3
 72
9
 73
5
 74
0
 42
0.0000001
 43
0.0000001
 44
0.0000000001
 40
0.0
 40
0.0
 40
0.0
 40
0.0
 40
0.5022417539
 40
1.0
 40
1.0
 40
1.0
 40
1.0
 10
28.6994213938
 20
12.340619014
 30
0.0
 10
28.6940964638
 20
12.3638623968
 30
0.0
 10
28.6749557865
 20
12.4085160593
 30
0.0
 10
28.6416767964
 20
12.4439793683
 30
0.0
 10
28.6225792363
 20
12.4579000825
 30
0.0
  0
LINE
  5
25F
100
AcDbEntity
  8
0
100
AcDbLine
 62
7
  6
CONTINUOUS
 10
28.6225741814
 20
12.4578927497
 11
29.973900243
 21
12.4650394576
  0
SPLINE
  5
260
100
AcDbEntity
  8
0
100
AcDbSpline
 62
7
  6
CONTINUOUS
 70
0
 71
3
 72
13
 73
9
 74
0
 42
0.0000001
 43
0.0000001
 44
0.0000000001
 40
0.0
 40
0.0
 40
0.0
 40
0.0
 40
0.2564188226
 40
0.5118885794
 40
0.6381409383
 40
0.7619741328
 40
0.8826986877
 40
1.0
 40
1.0
 40
1.0
 40
1.0
 10
27.5645046825
 20
13.8413681167
 30
0.0
 10
27.5614597072
 20
13.850799022
 30
0.0
 10
27.5534322073
 20
13.8690830699
 30
0.0
 10
27.5377728795
 20
13.8886589975
 30
0.0
 10
27.5220648127
 20
13.900444747
 30
0.0
 10
27.5091058346
 20
13.906780804
 30
0.0
 10
27.4954959054
 20
13.9103628492
 30
0.0
 10
27.4862479661
 20
13.9109302892
 30
0.0
 10
27.481716806
 20
13.9107828064
 30
0.0
  0
SPLINE
  5
261
100
AcDbEntity
  8
0
100
AcDbSpline
 62
7
  6
CONTINUOUS
 70
0
 71
3
 72
25
 73
21
 74
0
 42
0.0000001
 43
0.0000001
 44
0.0000000001
 40
0.0
 40
0.0
 40
0.0
 40
0.0
 40
0.0621781011
 40
0.1243954169
 40
0.1866569459
 40
0.2489746207
 40
0.3113457294
 40
0.3425552134
 40
0.3737792547
 40
0.4050129741
 40
0.4362452027
 40
0.4674702734
 40
0.4986935563
 40
0.5611404445
 40
0.6236717365
 40
0.6862738221
 40
0.7489436443
 40
0.8116644984
 40
0.8744225512
 40
1.0
 40
1.0
 40
1.0
 40
1.0
 10
28.4139319444
 20
12.9303647971
 30
0.0
 10
28.4124696809
 20
12.9532895208
 30
0.0
 10
28.409069456
 20
12.9991251862
 30
0.0
 10
28.4022476267
 20
13.0677548299
 30
0.0
 10
28.3932251521
 20
13.1361888962
 30
0.0
 10
28.3812678822
 20
13.2042416105
 30
0.0
 10
28.3678880839
 20
13.2603143189
 30
0.0
 10
28.3546161105
 20
13.3044837779
 30
0.0
 10
28.3431350892
 20
13.3371447125
 30
0.0
 10
28.3297955408
 20
13.3691091702
 30
0.0
 10
28.3143236865
 20
13.4001038931
 30
0.0
 10
28.2967447463
 20
13.4299476935
 30
0.0
 10
28.2707527998
 20
13.4681096936
 30
0.0
 10
28.2337360763
 20
13.5125597733
 30
0.0
 10
28.1844644596
 20
13.5613948609
 30
0.0
 10
28.1316140848
 20
13.6064342011
 30
0.0
 10
28.0760282946
 20
13.6481310544
 30
0.0
 10
28.0184545561
 20
13.68711954
 30
0.0
 10
27.9396055757
 20
13.7359952323
 30
0.0
 10
27.8786141915
 20
13.7696018557
 30
0.0
 10
27.8373896382
 20
13.7908838062
 30
0.0
  0
SPLINE
  5
262
100
AcDbEntity
  8
0
100
AcDbSpline
 62
7
  6
CONTINUOUS
 70
0
 71
3
 72
11
 73
7
 74
0
 42
0.0000001
 43
0.0000001
 44
0.0000000001
 40
0.0
 40
0.0
 40
0.0
 40
0.0
 40
0.2608711797
 40
0.5163821351
 40
0.7632834376
 40
1.0
 40
1.0
 40
1.0
 40
1.0
 10
29.7764509341
 20
12.8421943181
 30
0.0
 10
29.7796812693
 20
12.8042688477
 30
0.0
 10
29.7933024434
 20
12.7296092152
 30
0.0
 10
29.8344596382
 20
12.6253299868
 30
0.0
 10
29.8944538084
 20
12.5347524827
 30
0.0
 10
29.9461020741
 20
12.485542038
 30
0.0
 10
29.9738988285
 20
12.4650421101
 30
0.0
  0
SPLINE
  5
263
100
AcDbEntity
  8
0
100
AcDbSpline
 62
7
  6
CONTINUOUS
 70
0
 71
3
 72
11
 73
7
 74
0
 42
0.0000001
 43
0.0000001
 44
0.0000000001
 40
0.0
 40
0.0
 40
0.0
 40
0.0
 40
0.2524319349
 40
0.5037092139
 40
0.7530064571
 40
1.0
 40
1.0
 40
1.0
 40
1.0
 10
28.6225763344
 20
12.4578951817
 30
0.0
 10
28.593063147
 20
12.4782560703
 30
0.0
 10
28.5384427501
 20
12.5255610512
 30
0.0
 10
28.4751131515
 20
12.6129177852
 30
0.0
 10
28.4340417326
 20
12.711862185
 30
0.0
 10
28.4226874655
 20
12.7821774903
 30
0.0
 10
28.4210608772
 20
12.8172224795
 30
0.0
  0
SPLINE
  5
264
100
AcDbEntity
  8
0
100
AcDbSpline
 62
7
  6
CONTINUOUS
 70
0
 71
3
 72
9
 73
5
 74
0
 42
0.0000001
 43
0.0000001
 44
0.0000000001
 40
0.0
 40
0.0
 40
0.0
 40
0.0
 40
0.4996519733
 40
1.0
 40
1.0
 40
1.0
 40
1.0
 10
27.806288008
 20
13.8090308812
 30
0.0
 10
27.7881628395
 20
13.8214142386
 30
0.0
 10
27.7546843665
 20
13.8505945828
 30
0.0
 10
27.7296675965
 20
13.8874973427
 30
0.0
 10
27.7201461866
 20
13.9073103567
 30
0.0
  0
LINE
  5
265
100
AcDbEntity
  8
0
100
AcDbLine
 62
7
  6
CONTINUOUS
 10
29.2048422611
 20
13.9073095386
 11
27.7201461866
 21
13.9073103567
  0
LINE
  5
266
100
AcDbEntity
  8
0
100
AcDbLine
 62
7
  6
CONTINUOUS
 10
41.214284599
 20
13.9073095014
 11
29.2048417398
 21
13.9073094572
  0
SPLINE
  5
267
100
AcDbEntity
  8
0
100
AcDbSpline
 62
7
  6
CONTINUOUS
 70
0
 71
3
 72
41
 73
37
 74
0
 42
0.0000001
 43
0.0000001
 44
0.0000000001
 40
0.0
 40
0.0
 40
0.0
 40
0.0
 40
0.0000229337
 40
0.0000907123
 40
0.0002032961
 40
0.0003606448
 40
0.0008094761
 40
0.0014368832
 40
0.0022425436
 40
0.0032261344
 40
0.0043873332
 40
0.0057258175
 40
0.0089333532
 40
0.012846007
 40
0.0174591015
 40
0.0227666459
 40
0.0287626239
 40
0.0354410187
 40
0.0508177122
 40
0.0688303037
 40
0.0894056482
 40
0.1124551195
 40
0.1378816511
 40
0.1655775411
 40
0.1954266465
 40
0.227301961
 40
0.2610673214
 40
0.2965880363
 40
0.333725126
 40
0.4121581462
 40
0.4949610437
 40
0.5806671492
 40
0.6677702494
 40
0.754757572
 40
0.8401056935
 40
1.0
 40
1.0
 40
1.0
 40
1.0
 10
37.2416895391
 20
7.4885108739
 30
0.0
 10
37.24167303
 20
7.4885018062
 30
0.0
 10
37.2415929261
 20
7.4885220122
 30
0.0
 10
37.2414313254
 20
7.4885013464
 30
0.0
 10
37.2411509434
 20
7.4885114992
 30
0.0
 10
37.2405624625
 20
7.4885026971
 30
0.0
 10
37.2395479648
 20
7.4885044872
 30
0.0
 10
37.2380030327
 20
7.4884968544
 30
0.0
 10
37.2360179973
 20
7.4884906158
 30
0.0
 10
37.233594914
 20
7.4884807155
 30
0.0
 10
37.2307341083
 20
7.4884685225
 30
0.0
 10
37.2260468543
 20
7.4884465079
 30
0.0
 10
37.2190998639
 20
7.4884096559
 30
0.0
 10
37.2094635442
 20
7.4883502667
 30
0.0
 10
37.1981025694
 20
7.48827316
 30
0.0
 10
37.185030645
 20
7.4881792589
 30
0.0
 10
37.1702625692
 20
7.4880692024
 30
0.0
 10
37.1472249967
 20
7.4878934874
 30
0.0
 10
37.1143185499
 20
7.487637132
 30
0.0
 10
37.0699989799
 20
7.4872859495
 30
0.0
 10
37.0193780146
 20
7.4868807416
 30
0.0
 10
36.9626683173
 20
7.4864124006
 30
0.0
 10
36.9001109502
 20
7.4858709675
 30
0.0
 10
36.8319693736
 20
7.4852702243
 30
0.0
 10
36.7585316318
 20
7.484623702
 30
0.0
 10
36.680109105
 20
7.4839496486
 30
0.0
 10
36.5970285419
 20
7.4832518265
 30
0.0
 10
36.5096261545
 20
7.4825762211
 30
0.0
 10
36.3855381333
 20
7.4818093964
 30
0.0
 10
36.2226173592
 20
7.4809380871
 30
0.0
 10
36.0198061908
 20
7.4801586537
 30
0.0
 10
35.8098740559
 20
7.4794536807
 30
0.0
 10
35.5965052873
 20
7.4787348265
 30
0.0
 10
35.3834305086
 20
7.4780207466
 30
0.0
 10
35.1105726788
 20
7.4771861939
 30
0.0
 10
34.9091563632
 20
7.4766980815
 30
0.0
 10
34.7778357909
 20
7.4765704313
 30
0.0
  0
SPLINE
  5
268
100
AcDbEntity
  8
0
100
AcDbSpline
 62
7
  6
CONTINUOUS
 70
0
 71
3
 72
16
 73
12
 74
0
 42
0.0000001
 43
0.0000001
 44
0.0000000001
 40
0.0
 40
0.0
 40
0.0
 40
0.0
 40
0.037594619
 40
0.0765783603
 40
0.1623863949
 40
0.2634594146
 40
0.3818579966
 40
0.5172755815
 40
0.6677359025
 40
0.8302066493
 40
1.0
 40
1.0
 40
1.0
 40
1.0
 10
27.375004334
 20
14.1247123825
 30
0.0
 10
27.3782107361
 20
14.1247124551
 30
0.0
 10
27.3847602
 20
14.1240125737
 30
0.0
 10
27.3980350235
 20
14.1197963705
 30
0.0
 10
27.4143807691
 20
14.1089210059
 30
0.0
 10
27.4315520633
 20
14.0890913742
 30
0.0
 10
27.4468809871
 20
14.062841656
 30
0.0
 10
27.459941254
 20
14.0308366996
 30
0.0
 10
27.4704256655
 20
13.993995183
 30
0.0
 10
27.4779282983
 20
13.9534624988
 30
0.0
 10
27.4808084078
 20
13.9252359328
 30
0.0
 10
27.4817174052
 20
13.9107830089
 30
0.0
  0
SPLINE
  5
269
100
AcDbEntity
  8
0
100
AcDbSpline
 62
7
  6
CONTINUOUS
 70
0
 71
3
 72
14
 73
10
 74
0
 42
0.0000001
 43
0.0000001
 44
0.0000000001
 40
0.0
 40
0.0
 40
0.0
 40
0.0
 40
0.0519386728
 40
0.1283702986
 40
0.2278980303
 40
0.3488422278
 40
0.4891287944
 40
0.6465684032
 40
1.0
 40
1.0
 40
1.0
 40
1.0
 10
27.7201275325
 20
13.907301514
 30
0.0
 10
27.7173136531
 20
13.9064952069
 30
0.0
 10
27.7104715052
 20
13.9041252129
 30
0.0
 10
27.6984675068
 20
13.8995615765
 30
0.0
 10
27.6829506744
 20
13.8932948811
 30
0.0
 10
27.6641960344
 20
13.8854446649
 30
0.0
 10
27.6425162352
 20
13.8761314524
 30
0.0
 10
27.6089048002
 20
13.861400923
 30
0.0
 10
27.5826395168
 20
13.8496060992
 30
0.0
 10
27.5645045095
 20
13.8413680137
 30
0.0
  0
SPLINE
  5
26A
100
AcDbEntity
  8
0
100
AcDbSpline
 62
7
  6
CONTINUOUS
 70
0
 71
3
 72
17
 73
13
 74
0
 42
0.0000001
 43
0.0000001
 44
0.0000000001
 40
0.0
 40
0.0
 40
0.0
 40
0.0
 40
0.0168643056
 40
0.0410396172
 40
0.0724404076
 40
0.1109220913
 40
0.2082300845
 40
0.3304344935
 40
0.4745758486
 40
0.6370969979
 40
0.8139834035
 40
1.0
 40
1.0
 40
1.0
 40
1.0
 10
27.8062875868
 20
13.809030277
 30
0.0
 10
27.8053133069
 20
13.8083810588
 30
0.0
 10
27.8031212525
 20
13.8065440413
 30
0.0
 10
27.799506536
 20
13.8030498351
 30
0.0
 10
27.7950195976
 20
13.7983017887
 30
0.0
 10
27.7872919968
 20
13.7896409732
 30
0.0
 10
27.7757970689
 20
13.7759003001
 30
0.0
 10
27.7600267573
 20
13.7561852276
 30
0.0
 10
27.7418048042
 20
13.732637826
 30
0.0
 10
27.7215809384
 20
13.7058434209
 30
0.0
 10
27.6999016392
 20
13.6765076803
 30
0.0
 10
27.6851043084
 20
13.6561168713
 30
0.0
 10
27.6775622321
 20
13.6456343002
 30
0.0
  0
SPLINE
  5
26B
100
AcDbEntity
  8
0
100
AcDbSpline
 62
7
  6
CONTINUOUS
 70
0
 71
3
 72
17
 73
13
 74
0
 42
0.0000001
 43
0.0000001
 44
0.0000000001
 40
0.0
 40
0.0
 40
0.0
 40
0.0
 40
0.0143140557
 40
0.0363847353
 40
0.0660774212
 40
0.1032289158
 40
0.1989668436
 40
0.3209450127
 40
0.4660810222
 40
0.6306558047
 40
0.8104645823
 40
1.0
 40
1.0
 40
1.0
 40
1.0
 10
27.8373896252
 20
13.790883784
 30
0.0
 10
27.8367310265
 20
13.7901461739
 30
0.0
 10
27.8352428842
 20
13.7881122633
 30
0.0
 10
27.8327154195
 20
13.7843137537
 30
0.0
 10
27.82946952
 20
13.7790967526
 30
0.0
 10
27.8237013042
 20
13.7694599749
 30
0.0
 10
27.8149502082
 20
13.7541799388
 30
0.0
 10
27.8027652014
 20
13.7322741555
 30
0.0
 10
27.7885068956
 20
13.7060809463
 30
0.0
 10
27.7725378835
 20
13.6762715457
 30
0.0
 10
27.7553029297
 20
13.6436613415
 30
0.0
 10
27.7434880547
 20
13.621046369
 30
0.0
 10
27.7374509718
 20
13.6094276516
 30
0.0
  0
SPLINE
  5
26C
100
AcDbEntity
  8
0
100
AcDbSpline
 62
7
  6
CONTINUOUS
 70
0
 71
3
 72
11
 73
7
 74
0
 42
0.0000001
 43
0.0000001
 44
0.0000000001
 40
0.0
 40
0.0
 40
0.0
 40
0.0
 40
0.2496430485
 40
0.499488208
 40
0.7496790959
 40
1.0
 40
1.0
 40
1.0
 40
1.0
 10
27.7201458976
 20
13.9073102344
 30
0.0
 10
27.7052883198
 20
13.9398280985
 30
0.0
 10
27.6657290497
 20
14.0008868825
 30
0.0
 10
27.5825823206
 20
14.0711163354
 30
0.0
 10
27.4829357982
 20
14.1149627995
 30
0.0
 10
27.4108527781
 20
14.1247154565
 30
0.0
 10
27.3750043515
 20
14.1247141549
 30
0.0
  0
SPLINE
  5
26D
100
AcDbEntity
  8
0
100
AcDbSpline
 62
7
  6
CONTINUOUS
 70
0
 71
3
 72
15
 73
11
 74
0
 42
0.0000001
 43
0.0000001
 44
0.0000000001
 40
0.0
 40
0.0
 40
0.0
 40
0.0
 40
0.0265484696
 40
0.0588460025
 40
0.1406810751
 40
0.2446343319
 40
0.3684898224
 40
0.5095165725
 40
0.6644246265
 40
1.0
 40
1.0
 40
1.0
 40
1.0
 10
28.4140338099
 20
12.9287894606
 30
0.0
 10
28.4122862214
 20
12.9298618234
 30
0.0
 10
28.4081962768
 20
12.9318836566
 30
0.0
 10
28.3979880675
 20
12.9356338525
 30
0.0
 10
28.381563447
 20
12.9395717953
 30
0.0
 10
28.3579196938
 20
12.9432203061
 30
0.0
 10
28.3295520516
 20
12.9459586428
 30
0.0
 10
28.2971706084
 20
12.9476964235
 30
0.0
 10
28.2484003817
 20
12.948628258
 30
0.0
 10
28.2105066995
 20
12.947645395
 30
0.0
 10
28.1846228586
 20
12.946336394
 30
0.0
  0
SPLINE
  5
26E
100
AcDbEntity
  8
0
100
AcDbSpline
 62
7
  6
CONTINUOUS
 70
0
 71
3
 72
15
 73
11
 74
0
 42
0.0000001
 43
0.0000001
 44
0.0000000001
 40
0.0
 40
0.0
 40
0.0
 40
0.0
 40
0.0265025756
 40
0.0587489349
 40
0.1404902817
 40
0.2443824643
 40
0.3682173694
 40
0.5092645934
 40
0.6642301541
 40
1.0
 40
1.0
 40
1.0
 40
1.0
 10
28.4210611081
 20
12.8172224667
 30
0.0
 10
28.4193218566
 20
12.8183031572
 30
0.0
 10
28.4152454301
 20
12.8203404877
 30
0.0
 10
28.4050576207
 20
12.8241168204
 30
0.0
 10
28.3886463077
 20
12.8280760002
 30
0.0
 10
28.3650079975
 20
12.8317352128
 30
0.0
 10
28.3366330324
 20
12.8344712153
 30
0.0
 10
28.3042330964
 20
12.8361935147
 30
0.0
 10
28.2554212809
 20
12.8370868119
 30
0.0
 10
28.2174936151
 20
12.8360587062
 30
0.0
 10
28.1915860974
 20
12.8347137745
 30
0.0
  0
SPLINE
  5
26F
100
AcDbEntity
  8
0
100
AcDbSpline
 62
7
  6
CONTINUOUS
 70
0
 71
3
 72
11
 73
7
 74
0
 42
0.0000001
 43
0.0000001
 44
0.0000000001
 40
0.0
 40
0.0
 40
0.0
 40
0.0
 40
0.2569458865
 40
0.5092754448
 40
0.7563636252
 40
1.0
 40
1.0
 40
1.0
 40
1.0
 10
34.3714229193
 20
6.1575028204
 30
0.0
 10
34.3694775551
 20
6.1857375162
 30
0.0
 10
34.3564819329
 20
6.2415232144
 30
0.0
 10
34.3112351871
 20
6.3133352038
 30
0.0
 10
34.2453660843
 20
6.3646949926
 30
0.0
 10
34.1923337098
 20
6.3810002857
 30
0.0
 10
34.1656743171
 20
6.3840708549
 30
0.0
  0
SPLINE
  5
270
100
AcDbEntity
  8
0
100
AcDbSpline
 62
7
  6
CONTINUOUS
 70
0
 71
3
 72
9
 73
5
 74
0
 42
0.0000001
 43
0.0000001
 44
0.0000000001
 40
0.0
 40
0.0
 40
0.0
 40
0.0
 40
0.4998969797
 40
1.0
 40
1.0
 40
1.0
 40
1.0
 10
34.7778357909
 20
7.4765704313
 30
0.0
 10
34.6599168137
 20
7.4846360739
 30
0.0
 10
34.4243152609
 20
7.5054697726
 30
0.0
 10
34.1899967135
 20
7.538074569
 30
0.0
 10
34.0734101806
 20
7.5577986244
 30
0.0
  0
SPLINE
  5
271
100
AcDbEntity
  8
0
100
AcDbSpline
 62
7
  6
CONTINUOUS
 70
0
 71
3
 72
9
 73
5
 74
0
 42
0.0000001
 43
0.0000001
 44
0.0000000001
 40
0.0
 40
0.0
 40
0.0
 40
0.0
 40
0.4854788363
 40
1.0
 40
1.0
 40
1.0
 40
1.0
 10
34.887933557
 20
7.2509344889
 30
0.0
 10
34.86975704
 20
7.2585128455
 30
0.0
 10
34.8316876302
 20
7.2726333503
 30
0.0
 10
34.7927888909
 20
7.2842371544
 30
0.0
 10
34.772619325
 20
7.2896031372
 30
0.0
  0
SPLINE
  5
272
100
AcDbEntity
  8
0
100
AcDbSpline
 62
7
  6
CONTINUOUS
 70
0
 71
3
 72
10
 73
6
 74
0
 42
0.0000001
 43
0.0000001
 44
0.0000000001
 40
0.0
 40
0.0
 40
0.0
 40
0.0
 40
0.2301771313
 40
0.4774845881
 40
1.0
 40
1.0
 40
1.0
 40
1.0
 10
34.7625910704
 20
6.6543945998
 30
0.0
 10
34.7521399628
 20
6.6595963934
 30
0.0
 10
34.7300713397
 20
6.6696169857
 30
0.0
 10
34.6827530619
 20
6.6879171915
 30
0.0
 10
34.645281243
 20
6.6991793166
 30
0.0
 10
34.6195798815
 20
6.7056395973
 30
0.0
  0
SPLINE
  5
273
100
AcDbEntity
  8
___COSMETIC_SKETCH
100
AcDbSpline
 62
8
  6
PHANTOM
 70
0
 71
3
 72
12
 73
8
 74
0
 42
0.0000001
 43
0.0000001
 44
0.0000000001
 40
0.0
 40
0.0
 40
0.0
 40
0.0
 40
0.2
 40
0.4
 40
0.6
 40
0.8
 40
1.0
 40
1.0
 40
1.0
 40
1.0
 10
36.2912604535
 20
8.8685126523
 30
0.0
 10
36.4405403696
 20
8.9152239368
 30
0.0
 10
36.7325132198
 20
9.0263062357
 30
0.0
 10
37.1441097815
 20
9.2460486718
 30
0.0
 10
37.5438637332
 20
9.5354752151
 30
0.0
 10
37.9291242726
 20
9.9074109862
 30
0.0
 10
38.1745100516
 20
10.2272288924
 30
0.0
 10
38.2912604535
 20
10.4058296826
 30
0.0
  0
SPLINE
  5
274
100
AcDbEntity
  8
___COSMETIC_SKETCH
100
AcDbSpline
 62
8
  6
PHANTOM
 70
0
 71
3
 72
18
 73
14
 74
0
 42
0.0000001
 43
0.0000001
 44
0.0000000001
 40
0.0
 40
0.0
 40
0.0
 40
0.0
 40
0.0909090909
 40
0.1818181818
 40
0.2727272727
 40
0.3636363636
 40
0.4545454545
 40
0.5454545455
 40
0.6363636364
 40
0.7272727273
 40
0.8181818182
 40
0.9090909091
 40
1.0
 40
1.0
 40
1.0
 40
1.0
 10
38.2912604535
 20
8.4732971629
 30
0.0
 10
38.2507829985
 20
8.4354078073
 30
0.0
 10
38.1680984645
 20
8.3614872759
 30
0.0
 10
38.0381480714
 20
8.2561240349
 30
0.0
 10
37.9033567292
 20
8.1576464393
 30
0.0
 10
37.7645487928
 20
8.066845777
 30
0.0
 10
37.6209825923
 20
7.9832764163
 30
0.0
 10
37.4650058317
 20
7.9033595664
 30
0.0
 10
37.2899167068
 20
7.8260396962
 30
0.0
 10
37.087304327
 20
7.7513290584
 30
0.0
 10
36.8540848986
 20
7.6832799516
 30
0.0
 10
36.5910236039
 20
7.6275328576
 30
0.0
 10
36.3946486007
 20
7.5993175968
 30
0.0
 10
36.2912604535
 20
7.5877633059
 30
0.0
  0
SPLINE
  5
275
100
AcDbEntity
  8
___COSMETIC_SKETCH
100
AcDbSpline
 62
8
  6
PHANTOM
 70
0
 71
3
 72
11
 73
7
 74
0
 42
0.0000001
 43
0.0000001
 44
0.0000000001
 40
0.0
 40
0.0
 40
0.0
 40
0.0
 40
0.25
 40
0.5
 40
0.75
 40
1.0
 40
1.0
 40
1.0
 40
1.0
 10
32.5692604535
 20
9.5556582359
 30
0.0
 10
32.7411763773
 20
9.474096008
 30
0.0
 10
33.0832121039
 20
9.3340484568
 30
0.0
 10
33.5844447155
 20
9.1849944011
 30
0.0
 10
34.0773060819
 20
9.0879580041
 30
0.0
 10
34.4056145816
 20
9.0550924176
 30
0.0
 10
34.5692604535
 20
9.0468732578
 30
0.0
  0
SPLINE
  5
276
100
AcDbEntity
  8
___COSMETIC_SKETCH
100
AcDbSpline
 62
8
  6
PHANTOM
 70
0
 71
3
 72
15
 73
11
 74
0
 42
0.0000001
 43
0.0000001
 44
0.0000000001
 40
0.0
 40
0.0
 40
0.0
 40
0.0
 40
0.125
 40
0.25
 40
0.375
 40
0.5
 40
0.625
 40
0.75
 40
0.875
 40
1.0
 40
1.0
 40
1.0
 40
1.0
 10
34.5692604535
 20
7.5985532236
 30
0.0
 10
34.5214965106
 20
7.6037835689
 30
0.0
 10
34.4260606665
 20
7.6151177815
 30
0.0
 10
34.2831158505
 20
7.6348688539
 30
0.0
 10
34.1406307819
 20
7.6574326301
 30
0.0
 10
33.9987162651
 20
7.6828931059
 30
0.0
 10
33.8575645659
 20
7.7112989137
 30
0.0
 10
33.7171083657
 20
7.7427422857
 30
0.0
 10
33.5773380296
 20
7.7773037795
 30
0.0
 10
33.4845738614
 20
7.8024836335
 30
0.0
 10
33.4383038256
 20
7.8156194821
 30
0.0
  0
ENDSEC
  0
SECTION
  2
OBJECTS
  0
DICTIONARY
  5
C
100
AcDbDictionary
280
0
281
1
  3
ACAD_GROUP
350
D
  3
ACAD_MLINESTYLE
350
17
  3
ACAD_LAYOUT
350
1A
  3
ACAD_PLOTSETTINGS
350
19
  3
ACAD_PLOTSTYLENAME
350
E
  0
DICTIONARY
  5
D
102
{ACAD_REACTORS
330
C
102
}
100
AcDbDictionary
280
0
281
1
  0
ACDBDICTIONARYWDFLT
  5
E
102
{ACAD_REACTORS
330
C
102
}
100
AcDbDictionary
281
1
  3
Normal
350
F
100
AcDbDictionaryWithDefault
340
F
  0
DICTIONARY
  5
17
102
{ACAD_REACTORS
330
C
102
}
100
AcDbDictionary
280
0
281
1
  3
Standard
350
18
  0
DICTIONARY
  5
19
102
{ACAD_REACTORS
330
C
102
}
100
AcDbDictionary
281
1
  0
DICTIONARY
  5
1A
102
{ACAD_REACTORS
330
C
102
}
100
AcDbDictionary
281
1
  3
Model
350
277
  3
Layout1
350
278
  0
ACDBPLACEHOLDER
  5
F
102
{ACAD_REACTORS
330
E
102
}
  0
MLINESTYLE
  5
18
102
{ACAD_REACTORS
330
17
102
}
100
AcDbMlineStyle
  2
STANDARD
 70
0
  3

 62
256
 51
90.0
 52
90.0
 71
2
 49
0.5
 62
256
  6
BYLAYER
 49
-0.5
 62
256
  6
BYLAYER
  0
LAYOUT
  5
277
102
{ACAD_REACTORS
330
1A
102
}
100
AcDbPlotSettings
  1

  2
none_device
  4
ANSI_E_(44.00_x_34.00_Inches)
  6

 40
0.0
 41
0.0
 42
0.0
 43
0.0
 44
1117.6
 45
863.6
 46
0.0
 47
0.0
 48
0.0
 49
0.0
140
0.0
141
0.0
142
1.0
143
1.0
 70
1024
 72
0
 73
0
 74
0
  7

 75
0
147
1.0
148
0.0
149
0.0
100
AcDbLayout
  1
Model
 70
0
 71
0
 10
0.0
 20
0.0
 11
44.0
 21
34.0
 12
0.0
 22
0.0
 32
0.0
 14
0.0
 24
0.0
 34
0.0
 15
0.0
 25
0.0
 35
0.0
146
0.0
 13
0.0
 23
0.0
 33
0.0
 16
1.0
 26
0.0
 36
0.0
 17
0.0
 27
1.0
 37
0.0
 76
0
330
20E
345
0
346
0
  0
LAYOUT
  5
278
102
{ACAD_REACTORS
330
1A
102
}
100
AcDbPlotSettings
  1

  2
none_device
  4
ANSI_E_(44.00_x_34.00_Inches)
  6

 40
0.0
 41
0.0
 42
0.0
 43
0.0
 44
1117.6
 45
863.6
 46
0.0
 47
0.0
 48
0.0
 49
0.0
140
0.0
141
0.0
142
1.0
143
1.0
 70
0
 72
0
 73
0
 74
0
  7

 75
0
147
1.0
148
0.0
149
0.0
100
AcDbLayout
  1
Layout1
 70
0
 71
1
 10
0.0
 20
0.0
 11
44.0
 21
34.0
 12
0.0
 22
0.0
 32
0.0
 14
0.0
 24
0.0
 34
0.0
 15
0.0
 25
0.0
 35
0.0
146
0.0
 13
0.0
 23
0.0
 33
0.0
 16
1.0
 26
0.0
 36
0.0
 17
0.0
 27
1.0
 37
0.0
 76
0
330
20F
345
0
346
0
  0
ENDSEC
  0
EOF
