999
DXF file: 2350frt.dxf
999
Pro/ENGINEER 2013150 by Parametric Technology Corporation
  0
SECTION
  2
HEADER
  9
$ACADVER
  1
AC1015
  9
$DWGCODEPAGE
  3
ANSI_1252
  9
$EXTMAX
 10
44.0
 20
34.0
 30
0.0
  9
$EXTMIN
 10
0.0
 20
0.0
 30
0.0
  9
$LIMMIN
 10
0.0
 20
0.0
  9
$LIMMAX
 10
44.0
 20
34.0
  9
$VIEWCTR
 10
22.0
 20
17.0
  9
$VIEWSIZE
 40
34.0
  9
$CLAYER
  8
0
  9
$LTSCALE
 40
2.42
  9
$CELTYPE
  6
BYLAYER
  9
$DIMSCALE
 40
1.0
  9
$DIMASZ
 40
0.1875
  9
$DIMEXO
 40
0.0625
  9
$DIMDLI
 40
1.672
  9
$DIMEXE
 40
0.125
  9
$DIMCEN
 40
0.396
  9
$DIMLFAC
 40
1.0
  9
$DIMBLK
  1
_FILLED
  9
$DIMTXT
 40
0.15625
  9
$DIMTOL
 70
1
  9
$DIMLIM
 70
0
  9
$DIMTFAC
 40
1.0
  9
$DIMTP
 40
0.01
  9
$DIMTM
 40
0.01
  9
$DIMGAP
 40
0.09
  9
$DIMDSEP
 70
46
  9
$PDMODE
 70
3
  9
$PDSIZE
 40
0.3125
  9
$HANDSEED
  5
238
  9
$TILEMODE
 70
1
  9
$MEASUREMENT
 70
0
  9
$INSUNITS
 70
1
  0
ENDSEC
  0
SECTION
  2
CLASSES
  0
CLASS
  1
ACDBDICTIONARYWDFLT
  2
AcDbDictionaryWithDefault
  3
AutoCAD 2000
 90
0
280
0
281
0
  0
CLASS
  1
ACDBPLACEHOLDER
  2
AcDbPlaceHolder
  3
AutoCAD 2000
 90
0
280
0
281
0
  0
CLASS
  1
LAYOUT
  2
AcDbLayout
  3
AutoCAD 2000
 90
0
280
0
281
0
  0
ENDSEC
  0
SECTION
  2
TABLES
  0
TABLE
  2
VPORT
  5
8
100
AcDbSymbolTable
 70
2
  0
VPORT
  5
1F4
100
AcDbSymbolTableRecord
100
AcDbViewportTableRecord
  2
*ACTIVE
 70
0
 10
0.0
 20
0.0
 11
1.0
 21
1.0
 12
22.0
 22
17.0
 13
0.0
 23
0.0
 14
1.0
 24
1.0
 15
0.0
 25
0.0
 16
0.0
 26
0.0
 36
1.0
 17
0.0
 27
0.0
 37
0.0
 40
34.0
 41
1.2941176471
 42
50.0
 43
0.0
 44
0.0
 50
0.0
 51
0.0
 71
0
 72
100
 73
1
 74
1
 75
0
 76
0
 77
0
 78
0
  0
ENDTAB
  0
TABLE
  2
LTYPE
  5
5
100
AcDbSymbolTable
 70
6
  0
LTYPE
  5
14
100
AcDbSymbolTableRecord
100
AcDbLinetypeTableRecord
  2
BYBLOCK
 70
0
  3

 72
65
 73
0
 40
0.0
  0
LTYPE
  5
15
100
AcDbSymbolTableRecord
100
AcDbLinetypeTableRecord
  2
BYLAYER
 70
0
  3

 72
65
 73
0
 40
0.0
  0
LTYPE
  5
16
100
AcDbSymbolTableRecord
100
AcDbLinetypeTableRecord
  2
CONTINUOUS
 70
64
  3
Solid line
 72
65
 73
0
 40
0.0
  0
LTYPE
  5
1F5
100
AcDbSymbolTableRecord
100
AcDbLinetypeTableRecord
  2
CENTER
 70
64
  3
____ _ ____ _ ____ _ ____ _ ____ _ ____ _ ____
 72
65
 73
4
 40
0.6
 49
0.375
 74
0
 49
-0.075
 74
0
 49
0.075
 74
0
 49
-0.075
 74
0
  0
LTYPE
  5
1F6
100
AcDbSymbolTableRecord
100
AcDbLinetypeTableRecord
  2
HIDDEN
 70
64
  3
- - - - - - - - - - - - - - - - - - - -
 72
65
 73
2
 40
0.2
 49
0.1
 74
0
 49
-0.1
 74
0
  0
LTYPE
  5
1F7
100
AcDbSymbolTableRecord
100
AcDbLinetypeTableRecord
  2
PHANTOM
 70
64
  3
_____ _ _ _____ _ _ _____ _ _ _____
 72
65
 73
6
 40
0.8
 49
0.45
 74
0
 49
-0.05
 74
0
 49
0.1
 74
0
 49
-0.05
 74
0
 49
0.1
 74
0
 49
-0.05
 74
0
  0
LTYPE
  5
1F8
100
AcDbSymbolTableRecord
100
AcDbLinetypeTableRecord
  2
DOT
 70
64
  3
. . . . . . . . . . . . . . . . . . . .
 72
65
 73
2
 40
0.2
 49
0.1
 74
0
 49
-0.1
 74
0
  0
LTYPE
  5
1F9
100
AcDbSymbolTableRecord
100
AcDbLinetypeTableRecord
  2
DASHED
 70
64
  3
- - - - - - - - - - - - - - - - - - - -
 72
65
 73
2
 40
0.2
 49
0.1
 74
0
 49
-0.1
 74
0
  0
ENDTAB
  0
TABLE
  2
LAYER
  5
2
100
AcDbSymbolTable
 70
36
  0
LAYER
  5
10
100
AcDbSymbolTableRecord
100
AcDbLayerTableRecord
  2
0
 70
0
 62
7
  6
CONTINUOUS
370
-3
390
F
  0
LAYER
  5
1FA
100
AcDbSymbolTableRecord
100
AcDbLayerTableRecord
  2
DEFAULT_1
 70
0
 62
7
  6
CENTER
370
-3
390
F
  0
LAYER
  5
1FB
100
AcDbSymbolTableRecord
100
AcDbLayerTableRecord
  2
DEFAULT_2
 70
0
 62
8
  6
HIDDEN
370
-3
390
F
  0
LAYER
  5
1FC
100
AcDbSymbolTableRecord
100
AcDbLayerTableRecord
  2
DEFAULT_3
 70
0
 62
7
  6
PHANTOM
370
-3
390
F
  0
LAYER
  5
1FD
100
AcDbSymbolTableRecord
100
AcDbLayerTableRecord
  2
COLOR1
 70
0
 62
7
  6
CONTINUOUS
370
-3
390
F
  0
LAYER
  5
1FE
100
AcDbSymbolTableRecord
100
AcDbLayerTableRecord
  2
DATUMS
 70
0
 62
7
  6
CONTINUOUS
370
-3
390
F
  0
LAYER
  5
1FF
100
AcDbSymbolTableRecord
100
AcDbLayerTableRecord
  2
DATUM_AXIS
 70
0
 62
7
  6
CONTINUOUS
370
-3
390
F
  0
LAYER
  5
200
100
AcDbSymbolTableRecord
100
AcDbLayerTableRecord
  2
DATUM_CSYS
 70
0
 62
7
  6
CONTINUOUS
370
-3
390
F
  0
LAYER
  5
201
100
AcDbSymbolTableRecord
100
AcDbLayerTableRecord
  2
DATUM_PLANE
 70
0
 62
7
  6
CONTINUOUS
370
-3
390
F
  0
LAYER
  5
202
100
AcDbSymbolTableRecord
100
AcDbLayerTableRecord
  2
DATUM_POINT
 70
0
 62
7
  6
CONTINUOUS
370
-3
390
F
  0
LAYER
  5
203
100
AcDbSymbolTableRecord
100
AcDbLayerTableRecord
  2
IMPORT
 70
0
 62
7
  6
CONTINUOUS
370
-3
390
F
  0
LAYER
  5
204
100
AcDbSymbolTableRecord
100
AcDbLayerTableRecord
  2
INTF_14
 70
0
 62
7
  6
CONTINUOUS
370
-3
390
F
  0
LAYER
  5
205
100
AcDbSymbolTableRecord
100
AcDbLayerTableRecord
  2
INTF_RED
 70
0
 62
7
  6
CONTINUOUS
370
-3
390
F
  0
LAYER
  5
206
100
AcDbSymbolTableRecord
100
AcDbLayerTableRecord
  2
INTF_YELLOW
 70
0
 62
7
  6
CONTINUOUS
370
-3
390
F
  0
LAYER
  5
207
100
AcDbSymbolTableRecord
100
AcDbLayerTableRecord
  2
NODE_401
 70
0
 62
7
  6
CONTINUOUS
370
-3
390
F
  0
LAYER
  5
208
100
AcDbSymbolTableRecord
100
AcDbLayerTableRecord
  2
_CURVE
 70
0
 62
7
  6
CONTINUOUS
370
-3
390
F
  0
LAYER
  5
209
100
AcDbSymbolTableRecord
100
AcDbLayerTableRecord
  2
_SURFACE
 70
0
 62
7
  6
CONTINUOUS
370
-3
390
F
  0
LAYER
  5
20A
100
AcDbSymbolTableRecord
100
AcDbLayerTableRecord
  2
___COSMETIC_SKETCH
 70
0
 62
7
  6
CONTINUOUS
370
-3
390
F
  0
LAYER
  5
20B
100
AcDbSymbolTableRecord
100
AcDbLayerTableRecord
  2
___NOTE
 70
0
 62
7
  6
CONTINUOUS
370
-3
390
F
  0
ENDTAB
  0
TABLE
  2
STYLE
  5
3
100
AcDbSymbolTable
 70
1
  0
STYLE
  5
11
100
AcDbSymbolTableRecord
100
AcDbTextStyleTableRecord
  2
STANDARD
 70
0
 40
0.0
 41
0.8
 50
0.0
 71
0
 42
0.2
  3
txt
  4

  0
STYLE
  5
20C
100
AcDbSymbolTableRecord
100
AcDbTextStyleTableRecord
  2
TEXTSTYLE_1
 70
0
 40
0.0
 41
0.8
 50
0.0
 71
0
 42
0.2
  3
gdt
  4

  0
ENDTAB
  0
TABLE
  2
VIEW
  5
6
100
AcDbSymbolTable
 70
0
  0
ENDTAB
  0
TABLE
  2
UCS
  5
7
100
AcDbSymbolTable
 70
0
  0
ENDTAB
  0
TABLE
  2
APPID
  5
9
100
AcDbSymbolTable
 70
1
  0
APPID
  5
20D
100
AcDbSymbolTableRecord
100
AcDbRegAppTableRecord
  2
ACAD
 70
0
  0
ENDTAB
  0
TABLE
  2
BLOCK_RECORD
  5
1
100
AcDbSymbolTable
 70
0
  0
BLOCK_RECORD
  5
20E
100
AcDbSymbolTableRecord
100
AcDbBlockTableRecord
  2
*Model_Space
  0
BLOCK_RECORD
  5
20F
100
AcDbSymbolTableRecord
100
AcDbBlockTableRecord
  2
*Paper_Space
  0
ENDTAB
  0
TABLE
  2
DIMSTYLE
  5
A
100
AcDbSymbolTable
 70
1
100
AcDbDimStyleTable
 71
0
  0
DIMSTYLE
105
210
100
AcDbSymbolTableRecord
100
AcDbDimStyleTableRecord
  2
STANDARD
 70
0
  3

  4

 40
1.0
 41
0.1875
 42
0.0625
 43
0.38
 44
0.125
 45
0.0
 46
0.0
 47
0.01
 48
0.01
140
0.15625
141
0.09
142
0.0
143
25.4
144
1.0
145
0.0
146
1.0
147
0.09
 71
1.0
 72
0.0
 73
1
 74
1
 75
0
 76
0
 77
0
 78
4
170
0
171
2
172
0
173
0
174
0
175
0
176
0
177
0
178
0
270
2
271
3
272
3
273
2
274
2
275
0
280
0
281
0
282
0
283
1
284
4
285
0
286
0
287
3
288
0
340
11
278
46
  0
ENDTAB
  0
ENDSEC
  0
SECTION
  2
BLOCKS
  0
BLOCK
  5
20
100
AcDbEntity
  8
0
100
AcDbBlockBegin
  2
*Model_Space
 70
0
 10
0.0
 20
0.0
 30
0.0
  3
*Model_Space
  1

  0
ENDBLK
  5
21
100
AcDbEntity
  8
0
100
AcDbBlockEnd
  0
BLOCK
  5
1C
100
AcDbEntity
  8
0
100
AcDbBlockBegin
  2
*Paper_Space
 70
0
 10
0.0
 20
0.0
 30
0.0
  3
*Paper_Space
  1

  0
ENDBLK
  5
1D
100
AcDbEntity
  8
0
100
AcDbBlockEnd
  0
ENDSEC
  0
SECTION
  2
ENTITIES
  0
LINE
  5
211
100
AcDbEntity
  8
___COSMETIC_SKETCH
100
AcDbLine
 62
7
  6
CONTINUOUS
 10
11.7090795271
 20
31.5113229625
 11
11.7090795271
 21
31.6831593537
  0
LINE
  5
212
100
AcDbEntity
  8
___COSMETIC_SKETCH
100
AcDbLine
 62
7
  6
CONTINUOUS
 10
12.7090795271
 20
31.6831593537
 11
12.7090795271
 21
31.5113229625
  0
ARC
  5
213
100
AcDbEntity
  8
___COSMETIC_SKETCH
100
AcDbCircle
 62
7
  6
CONTINUOUS
 10
8.6365033347
 20
10.6890503855
 40
21.2177621405
100
AcDbArc
 50
80.3065471542
 51
81.6736347657
  0
ARC
  5
214
100
AcDbEntity
  8
___COSMETIC_SKETCH
100
AcDbCircle
 62
7
  6
CONTINUOUS
 10
15.7816557298
 20
10.6890503873
 40
21.2177621403
100
AcDbArc
 50
98.3263652626
 51
99.6934528742
  0
ARC
  5
215
100
AcDbEntity
  8
___COSMETIC_SKETCH
100
AcDbCircle
 62
7
  6
CONTINUOUS
 10
9.0529273532
 20
13.1546240864
 40
18.7172674643
100
AcDbArc
 50
78.7356557749
 51
80.2922619695
  0
ARC
  5
216
100
AcDbEntity
  8
___COSMETIC_SKETCH
100
AcDbCircle
 62
7
  6
CONTINUOUS
 10
15.3652317059
 20
13.1546240873
 40
18.7172674642
100
AcDbArc
 50
99.7077380457
 51
101.2643442402
  0
ARC
  5
217
100
AcDbEntity
  8
0
100
AcDbCircle
 62
7
  6
CONTINUOUS
 10
12.2090795271
 20
28.8663321127
 40
11.031026965
100
AcDbArc
 50
236.2571352312
 51
303.7428647688
  0
ARC
  5
218
100
AcDbEntity
  8
0
100
AcDbCircle
 62
7
  6
CONTINUOUS
 10
12.2090795271
 20
22.0175145452
 40
11.031026965
100
AcDbArc
 50
56.2571352312
 51
123.7428647688
  0
ARC
  5
219
100
AcDbEntity
  8
COLOR1
100
AcDbCircle
 62
7
  6
CONTINUOUS
 10
12.2102555271
 20
28.739005329
 40
10.1364708242
100
AcDbArc
 50
238.4717312633
 51
301.5282687368
  0
ARC
  5
21A
100
AcDbEntity
  8
COLOR1
100
AcDbCircle
 62
7
  6
CONTINUOUS
 10
12.2102555271
 20
22.163549329
 40
10.1364708242
100
AcDbArc
 50
58.4717312632
 51
121.5282687367
  0
ARC
  5
21B
100
AcDbEntity
  8
0
100
AcDbCircle
 62
7
  6
CONTINUOUS
 10
12.2076548875
 20
28.8711516608
 40
9.8845305447
100
AcDbArc
 50
272.2655514894
 51
302.3949010842
  0
ARC
  5
21C
100
AcDbEntity
  8
0
100
AcDbCircle
 62
7
  6
CONTINUOUS
 10
12.2099245975
 20
28.8693696478
 40
9.8826893617
100
AcDbArc
 50
237.5985247193
 51
267.7405405454
  0
ARC
  5
21D
100
AcDbEntity
  8
0
100
AcDbCircle
 62
7
  6
CONTINUOUS
 10
12.2091300932
 20
28.8613886327
 40
9.874638041
100
AcDbArc
 50
267.7433212288
 51
272.2598223706
  0
ARC
  5
21E
100
AcDbEntity
  8
0
100
AcDbCircle
 62
7
  6
CONTINUOUS
 10
12.2090118963
 20
22.0240504897
 40
9.8730455766
100
AcDbArc
 50
88.1765803403
 51
91.8243736759
  0
ARC
  5
21F
100
AcDbEntity
  8
___COSMETIC_SKETCH
100
AcDbCircle
 62
7
  6
CONTINUOUS
 10
12.2089421836
 20
22.01918848
 40
9.6769039682
100
AcDbArc
 50
87.0374272664
 51
92.9625727336
  0
ARC
  5
220
100
AcDbEntity
  8
___COSMETIC_SKETCH
100
AcDbCircle
 62
7
  6
CONTINUOUS
 10
12.2089341336
 20
22.0187457654
 40
9.5057439088
100
AcDbArc
 50
86.9839858211
 51
93.0160141789
  0
ARC
  5
221
100
AcDbEntity
  8
0
100
AcDbCircle
 62
7
  6
CONTINUOUS
 10
13.1326901546
 20
27.4372764015
 40
8.1782701662
100
AcDbArc
 50
302.3046924336
 51
303.9137206465
  0
ARC
  5
222
100
AcDbEntity
  8
0
100
AcDbCircle
 62
7
  6
CONTINUOUS
 10
11.2838845402
 20
27.4348715187
 40
8.1753904216
100
AcDbArc
 50
236.0860903848
 51
237.6909994669
  0
ARC
  5
223
100
AcDbEntity
  8
0
100
AcDbCircle
 62
7
  6
CONTINUOUS
 10
14.4965795271
 20
25.441923329
 40
6.9128681812
100
AcDbArc
 50
303.7428647681
 51
56.2571352317
  0
ARC
  5
224
100
AcDbEntity
  8
0
100
AcDbCircle
 62
7
  6
CONTINUOUS
 10
9.9215795271
 20
25.441923329
 40
6.9128681812
100
AcDbArc
 50
123.7428647682
 51
236.2571352318
  0
ARC
  5
225
100
AcDbEntity
  8
0
100
AcDbCircle
 62
7
  6
CONTINUOUS
 10
14.122665684
 20
25.9690906832
 40
6.4075037969
100
AcDbArc
 50
303.892309952
 51
306.5360848389
  0
ARC
  5
226
100
AcDbEntity
  8
0
100
AcDbCircle
 62
7
  6
CONTINUOUS
 10
10.2954669514
 20
25.9690526384
 40
6.4074574844
100
AcDbArc
 50
233.4637484215
 51
236.1076964407
  0
ARC
  5
227
100
AcDbEntity
  8
COLOR1
100
AcDbCircle
 62
7
  6
CONTINUOUS
 10
9.8977605271
 20
25.451277329
 40
6.1300001974
100
AcDbArc
 50
119.1730228049
 51
240.8269771951
  0
ARC
  5
228
100
AcDbEntity
  8
COLOR1
100
AcDbCircle
 62
7
  6
CONTINUOUS
 10
14.5227505271
 20
25.451277329
 40
6.1300001974
100
AcDbArc
 50
299.1730228049
 51
60.8269771951
  0
ARC
  5
229
100
AcDbEntity
  8
0
100
AcDbCircle
 62
7
  6
CONTINUOUS
 10
12.2090704434
 20
21.6740442445
 40
1.7415062808
100
AcDbArc
 50
267.8446420477
 51
270.0002988538
  0
ARC
  5
22A
100
AcDbEntity
  8
0
100
AcDbCircle
 62
7
  6
CONTINUOUS
 10
12.2094562777
 20
21.6545719186
 40
1.7220339961
100
AcDbArc
 50
269.9874646971
 51
272.1620606054
  0
CIRCLE
  5
22B
100
AcDbEntity
  8
0
100
AcDbCircle
 62
7
  6
CONTINUOUS
 10
12.2090795271
 20
26.721923329
 40
0.875
  0
SPLINE
  5
22C
100
AcDbEntity
  8
0
100
AcDbSpline
 62
7
  6
CONTINUOUS
 70
0
 71
3
 72
31
 73
27
 74
0
 42
0.0000001
 43
0.0000001
 44
0.0000000001
 40
0.0
 40
0.0
 40
0.0
 40
0.0
 40
0.0102705929
 40
0.021688524
 40
0.0356123462
 40
0.0528084741
 40
0.0735979827
 40
0.0980627651
 40
0.126173392
 40
0.1577571231
 40
0.2302609912
 40
0.3130083787
 40
0.4027502652
 40
0.4959367569
 40
0.5889340705
 40
0.6782221379
 40
0.7606093844
 40
0.8333212219
 40
0.8653659761
 40
0.8942289858
 40
0.9197604859
 40
0.9418968189
 40
0.9606515622
 40
0.9762003054
 40
0.989009765
 40
1.0
 40
1.0
 40
1.0
 40
1.0
 10
11.5215795271
 20
20.0176614874
 30
0.0
 10
11.5215795271
 20
20.0153872395
 30
0.0
 10
11.520459493
 20
20.0105244863
 30
0.0
 10
11.5155363348
 20
20.0041501152
 30
0.0
 10
11.507810879
 20
19.9986189353
 30
0.0
 10
11.4973225618
 20
19.9938073062
 30
0.0
 10
11.4841021656
 20
19.9896688162
 30
0.0
 10
11.4682123147
 20
19.986213821
 30
0.0
 10
11.4497683148
 20
19.9834764889
 30
0.0
 10
11.420621266
 20
19.9806627249
 30
0.0
 10
11.3792376074
 20
19.9792504425
 30
0.0
 10
11.3249825094
 20
19.9803517091
 30
0.0
 10
11.2662530499
 20
19.9840379547
 30
0.0
 10
11.2054409409
 20
19.9900773097
 30
0.0
 10
11.1449736004
 20
19.9982036259
 30
0.0
 10
11.0871976585
 20
20.0081325361
 30
0.0
 10
11.034285743
 20
20.0195638316
 30
0.0
 10
10.9942798102
 20
20.0305006415
 30
0.0
 10
10.9662439455
 20
20.0399842192
 30
0.0
 10
10.9484192654
 20
20.0469835296
 30
0.0
 10
10.9330373919
 20
20.0541268169
 30
0.0
 10
10.9202092283
 20
20.0613620779
 30
0.0
 10
10.9100185718
 20
20.068655099
 30
0.0
 10
10.902536102
 20
20.0760083496
 30
0.0
 10
10.8977857007
 20
20.0834370953
 30
0.0
 10
10.8965795271
 20
20.0887299867
 30
0.0
 10
10.8965795271
 20
20.0911635871
 30
0.0
  0
SPLINE
  5
22D
100
AcDbEntity
  8
0
100
AcDbSpline
 62
7
  6
CONTINUOUS
 70
0
 71
3
 72
18
 73
14
 74
0
 42
0.0000001
 43
0.0000001
 44
0.0000000001
 40
0.0
 40
0.0
 40
0.0
 40
0.0
 40
0.0225807375
 40
0.04763137
 40
0.0771922197
 40
0.1124897728
 40
0.1541688317
 40
0.2024632244
 40
0.318873562
 40
0.4604308032
 40
0.6239544786
 40
0.8054072028
 40
1.0
 40
1.0
 40
1.0
 40
1.0
 10
12.5215795271
 20
19.9955684534
 30
0.0
 10
12.5215795271
 20
19.9935792203
 30
0.0
 10
12.5207387648
 20
19.9893523946
 30
0.0
 10
12.5171616803
 20
19.9834558863
 30
0.0
 10
12.5114635924
 20
19.9778729224
 30
0.0
 10
12.503684519
 20
19.9725629009
 30
0.0
 10
12.4938464258
 20
19.9675183905
 30
0.0
 10
12.4769641256
 20
19.960721053
 30
0.0
 10
12.4509441764
 20
19.9533498275
 30
0.0
 10
12.4144860376
 20
19.94620631
 30
0.0
 10
12.3719922551
 20
19.9404500119
 30
0.0
 10
12.3246398447
 20
19.936183598
 30
0.0
 10
12.2915521329
 20
19.9344134738
 30
0.0
 10
12.2744219413
 20
19.9337638102
 30
0.0
  0
SPLINE
  5
22E
100
AcDbEntity
  8
0
100
AcDbSpline
 62
7
  6
CONTINUOUS
 70
0
 71
3
 72
31
 73
27
 74
0
 42
0.0000001
 43
0.0000001
 44
0.0000000001
 40
0.0
 40
0.0
 40
0.0
 40
0.0
 40
0.0109904275
 40
0.0238004563
 40
0.0393495824
 40
0.0581040307
 40
0.0802400072
 40
0.1057716814
 40
0.1346359411
 40
0.1666826444
 40
0.239391908
 40
0.3217614583
 40
0.4110242615
 40
0.504002402
 40
0.5972050725
 40
0.6869742415
 40
0.7697405861
 40
0.8422475158
 40
0.8738283408
 40
0.9019367893
 40
0.9264013785
 40
0.9471918575
 40
0.9643890407
 40
0.9783125422
 40
0.9897296371
 40
1.0
 40
1.0
 40
1.0
 40
1.0
 10
13.5215795271
 20
20.0911635871
 30
0.0
 10
13.5215795271
 20
20.0887299434
 30
0.0
 10
13.5203730512
 20
20.0834369089
 30
0.0
 10
13.515622258
 20
20.076008153
 30
0.0
 10
13.5081397764
 20
20.0686547355
 30
0.0
 10
13.4979493699
 20
20.0613614492
 30
0.0
 10
13.4851212478
 20
20.0541262941
 30
0.0
 10
13.4697390686
 20
20.0469830961
 30
0.0
 10
13.4519135871
 20
20.0399837632
 30
0.0
 10
13.4238774677
 20
20.0305004961
 30
0.0
 10
13.3838755665
 20
20.0195643468
 30
0.0
 10
13.3309735568
 20
20.0081348509
 30
0.0
 10
13.2732112638
 20
19.9982077452
 30
0.0
 10
13.2127502882
 20
19.9900809439
 30
0.0
 10
13.1519328987
 20
19.9840401467
 30
0.0
 10
13.0931896675
 20
19.9803521067
 30
0.0
 10
13.0389236465
 20
19.9792507404
 30
0.0
 10
12.9975357045
 20
19.9806623142
 30
0.0
 10
12.9683891158
 20
19.9834763909
 30
0.0
 10
12.9499463384
 20
19.9862140278
 30
0.0
 10
12.9340568651
 20
19.9896693333
 30
0.0
 10
12.9208361464
 20
19.9938080812
 30
0.0
 10
12.9103472202
 20
19.9986192242
 30
0.0
 10
12.902621507
 20
20.0041501284
 30
0.0
 10
12.8976990036
 20
20.010524728
 30
0.0
 10
12.8965795271
 20
20.0153872898
 30
0.0
 10
12.8965795271
 20
20.0176614874
 30
0.0
  0
SPLINE
  5
22F
100
AcDbEntity
  8
0
100
AcDbSpline
 62
7
  6
CONTINUOUS
 70
0
 71
3
 72
18
 73
14
 74
0
 42
0.0000001
 43
0.0000001
 44
0.0000000001
 40
0.0
 40
0.0
 40
0.0
 40
0.0
 40
0.1946133499
 40
0.376071148
 40
0.5395896939
 40
0.6811362916
 40
0.7975367857
 40
0.84582667
 40
0.8875026937
 40
0.9227991901
 40
0.9523608065
 40
0.9774144279
 40
1.0
 40
1.0
 40
1.0
 40
1.0
 10
12.1435737487
 20
19.9337700394
 30
0.0
 10
12.1264523983
 20
19.9344210812
 30
0.0
 10
12.0933830488
 20
19.9361934709
 30
0.0
 10
12.0460585423
 20
19.9404623409
 30
0.0
 10
12.00359257
 20
19.9462196499
 30
0.0
 10
11.967160119
 20
19.9533631815
 30
0.0
 10
11.9411594159
 20
19.9607330781
 30
0.0
 10
11.9242902084
 20
19.9675287576
 30
0.0
 10
11.9144598733
 20
19.9725717599
 30
0.0
 10
11.9066868818
 20
19.9778798596
 30
0.0
 10
11.9009933931
 20
19.9834608393
 30
0.0
 10
11.8974194385
 20
19.9893551207
 30
0.0
 10
11.8965795271
 20
19.9935800237
 30
0.0
 10
11.8965795271
 20
19.9955684534
 30
0.0
  0
SPLINE
  5
230
100
AcDbEntity
  8
0
100
AcDbSpline
 62
7
  6
CONTINUOUS
 70
0
 71
3
 72
35
 73
31
 74
0
 42
0.0000001
 43
0.0000001
 44
0.0000000001
 40
0.0
 40
0.0
 40
0.0
 40
0.0
 40
0.0677928971
 40
0.1542598907
 40
0.1974933874
 40
0.2407268842
 40
0.2632083025
 40
0.2839603809
 40
0.2952010901
 40
0.3055771293
 40
0.3271938777
 40
0.3487796986
 40
0.3703655194
 40
0.3928147731
 40
0.4135371612
 40
0.4567088029
 40
0.4998804447
 40
0.5430520864
 40
0.5862237282
 40
0.6725670116
 40
0.7589102951
 40
0.8020819369
 40
0.8452535786
 40
0.8884252204
 40
0.9315968621
 40
0.9540461158
 40
0.9747685039
 40
0.9859931307
 40
0.9963543247
 40
1.0
 40
1.0
 40
1.0
 40
1.0
 10
12.523165344
 20
31.8920967284
 30
0.0
 10
12.9031151602
 20
31.880002491
 30
0.0
 10
13.7660962703
 20
31.8025881712
 30
0.0
 10
14.8496031334
 20
31.5593027557
 30
0.0
 10
15.7671619745
 20
31.2437167957
 30
0.0
 10
16.3291051396
 20
31.0028488728
 30
0.0
 10
16.7635424427
 20
30.7872438462
 30
0.0
 10
17.0318203735
 20
30.6414841966
 30
0.0
 10
17.2373139432
 20
30.522359148
 30
0.0
 10
17.4456741495
 20
30.3965920046
 30
0.0
 10
17.6982672128
 20
30.2353535993
 30
0.0
 10
17.987491594
 20
30.0300894524
 30
0.0
 10
18.2649921641
 20
29.8049440793
 30
0.0
 10
18.5257770658
 20
29.5651101208
 30
0.0
 10
18.852621246
 20
29.2253490727
 30
0.0
 10
19.2186048175
 20
28.7681037456
 30
0.0
 10
19.5903065064
 20
28.164990189
 30
0.0
 10
19.8853590505
 20
27.5208688128
 30
0.0
 10
20.1707025729
 20
26.6204829864
 30
0.0
 10
20.3162019189
 20
25.4419232084
 30
0.0
 10
20.1707029916
 20
24.2633640333
 30
0.0
 10
19.8853582969
 20
23.3629772422
 30
0.0
 10
19.5903093955
 20
22.7188587598
 30
0.0
 10
19.2185940149
 20
22.1157343517
 30
0.0
 10
18.8467504268
 20
21.6511481303
 30
0.0
 10
18.5189610994
 20
21.3121003407
 30
0.0
 10
18.2996385946
 20
21.1113502333
 30
0.0
 10
18.1223247788
 20
20.9631609717
 30
0.0
 10
18.0143277711
 20
20.8785063428
 30
0.0
 10
17.9532206323
 20
20.8326416914
 30
0.0
 10
17.9372381095
 20
20.8207761903
 30
0.0
  0
SPLINE
  5
231
100
AcDbEntity
  8
0
100
AcDbSpline
 62
7
  6
CONTINUOUS
 70
0
 71
3
 72
35
 73
31
 74
0
 42
0.0000001
 43
0.0000001
 44
0.0000000001
 40
0.0
 40
0.0
 40
0.0
 40
0.0
 40
0.0036446632
 40
0.0140059694
 40
0.0252307178
 40
0.0459533303
 40
0.0684028271
 40
0.1115749364
 40
0.1547470456
 40
0.1979191549
 40
0.2410912642
 40
0.3274354827
 40
0.4137797012
 40
0.4569518105
 40
0.5001239198
 40
0.543296029
 40
0.5864681383
 40
0.6071907508
 40
0.6296402476
 40
0.6512263022
 40
0.6728123568
 40
0.6944293393
 40
0.7048054909
 40
0.7160463218
 40
0.736798625
 40
0.7592802867
 40
0.8025142517
 40
0.8457482167
 40
0.9322161466
 40
1.0
 40
1.0
 40
1.0
 40
1.0
 10
6.4809071148
 20
20.8207864577
 30
0.0
 10
6.4649292467
 20
20.832648578
 30
0.0
 10
6.4038267822
 20
20.8785098709
 30
0.0
 10
6.2958342754
 20
20.9631609717
 30
0.0
 10
6.1185204596
 20
21.1113502333
 30
0.0
 10
5.8991979548
 20
21.3121003407
 30
0.0
 10
5.5714086274
 20
21.6511481303
 30
0.0
 10
5.1995650394
 20
22.1157343517
 30
0.0
 10
4.8278496588
 20
22.7188587598
 30
0.0
 10
4.5328007574
 20
23.3629772422
 30
0.0
 10
4.2474560626
 20
24.2633640333
 30
0.0
 10
4.1019571353
 20
25.4419232084
 30
0.0
 10
4.2474564813
 20
26.6204829864
 30
0.0
 10
4.5328000037
 20
27.5208688128
 30
0.0
 10
4.8278525478
 20
28.164990189
 30
0.0
 10
5.1995542367
 20
28.7681037456
 30
0.0
 10
5.5655378083
 20
29.2253490727
 30
0.0
 10
5.8923819884
 20
29.5651101208
 30
0.0
 10
6.1531668901
 20
29.8049440793
 30
0.0
 10
6.4306674602
 20
30.0300894524
 30
0.0
 10
6.7198918414
 20
30.2353535993
 30
0.0
 10
6.9724849047
 20
30.3965920046
 30
0.0
 10
7.180845111
 20
30.522359148
 30
0.0
 10
7.3863386807
 20
30.6414841966
 30
0.0
 10
7.6546166116
 20
30.7872438462
 30
0.0
 10
8.0890539146
 20
31.0028488728
 30
0.0
 10
8.6509970797
 20
31.2437167957
 30
0.0
 10
9.5685559208
 20
31.5593027557
 30
0.0
 10
10.6520091402
 20
31.8025761264
 30
0.0
 10
11.5149344941
 20
31.8799926767
 30
0.0
 10
11.89482931
 20
31.892091494
 30
0.0
  0
SPLINE
  5
232
100
AcDbEntity
  8
0
100
AcDbSpline
 62
7
  6
CONTINUOUS
 70
0
 71
3
 72
19
 73
15
 74
0
 42
0.0000001
 43
0.0000001
 44
0.0000000001
 40
0.0
 40
0.0
 40
0.0
 40
0.0
 40
0.185256285
 40
0.3635973829
 40
0.5277483529
 40
0.6722858304
 40
0.735849846
 40
0.7929856494
 40
0.8433922568
 40
0.8869564714
 40
0.9237100697
 40
0.9540050978
 40
0.978799414
 40
1.0
 40
1.0
 40
1.0
 40
1.0
 10
12.2090795271
 20
20.0736773203
 30
0.0
 10
12.2296889024
 20
20.0736780573
 30
0.0
 10
12.270146617
 20
20.0725820652
 30
0.0
 10
12.3286937547
 20
20.0678003382
 30
0.0
 10
12.3823673447
 20
20.0601626347
 30
0.0
 10
12.4229187746
 20
20.0515276138
 30
0.0
 10
12.4513015693
 20
20.0434209031
 30
0.0
 10
12.469313759
 20
20.037231447
 30
0.0
 10
12.4848384496
 20
20.0307459144
 30
0.0
 10
12.4977687472
 20
20.0240442248
 30
0.0
 10
12.5080306868
 20
20.0171901654
 30
0.0
 10
12.5155669923
 20
20.0102033899
 30
0.0
 10
12.5203624427
 20
20.0030679379
 30
0.0
 10
12.5215795271
 20
19.9979269743
 30
0.0
 10
12.5215795271
 20
19.9955684534
 30
0.0
  0
SPLINE
  5
233
100
AcDbEntity
  8
0
100
AcDbSpline
 62
7
  6
CONTINUOUS
 70
0
 71
3
 72
31
 73
27
 74
0
 42
0.0000001
 43
0.0000001
 44
0.0000000001
 40
0.0
 40
0.0
 40
0.0
 40
0.0
 40
0.0106269744
 40
0.0226397481
 40
0.0371822589
 40
0.0548925982
 40
0.0760424597
 40
0.1007019213
 40
0.1288504222
 40
0.160346263
 40
0.2324058897
 40
0.3145525659
 40
0.4036342977
 40
0.4961080618
 40
0.5883138394
 40
0.6768300923
 40
0.7586425762
 40
0.8311818897
 40
0.86333457
 40
0.8924409901
 40
0.9183368338
 40
0.94091884
 40
0.9601433161
 40
0.9760998374
 40
0.9891292924
 40
1.0
 40
1.0
 40
1.0
 40
1.0
 10
10.8965795271
 20
20.0911635871
 30
0.0
 10
10.8965795271
 20
20.093546502
 30
0.0
 10
10.8977409501
 20
20.0986669076
 30
0.0
 10
10.9026201082
 20
20.1056009199
 30
0.0
 10
10.9103117779
 20
20.1119921782
 30
0.0
 10
10.9207818007
 20
20.1178924838
 30
0.0
 10
10.9339878756
 20
20.1232965455
 30
0.0
 10
10.9498644534
 20
20.1281486991
 30
0.0
 10
10.9683039181
 20
20.1323701561
 30
0.0
 10
10.9974358011
 20
20.1372939434
 30
0.0
 10
11.038951442
 20
20.1411768675
 30
0.0
 10
11.0935287585
 20
20.1423068833
 30
0.0
 10
11.15264395
 20
20.1398662127
 30
0.0
 10
11.2137716187
 20
20.1339184162
 30
0.0
 10
11.2743648784
 20
20.1247131443
 30
0.0
 10
11.3320391325
 20
20.1127632559
 30
0.0
 10
11.384677428
 20
20.0986831623
 30
0.0
 10
11.4243356008
 20
20.0852763886
 30
0.0
 10
11.4520997808
 20
20.0738822675
 30
0.0
 10
11.4698061864
 20
20.0655893334
 30
0.0
 10
11.4851101271
 20
20.05729029
 30
0.0
 10
11.4978947069
 20
20.0490705431
 30
0.0
 10
11.5080659632
 20
20.0410048465
 30
0.0
 10
11.5155445478
 20
20.0331290381
 30
0.0
 10
11.5203074421
 20
20.0254664748
 30
0.0
 10
11.5215795271
 20
20.0200990553
 30
0.0
 10
11.5215795271
 20
20.0176614874
 30
0.0
  0
SPLINE
  5
234
100
AcDbEntity
  8
0
100
AcDbSpline
 62
7
  6
CONTINUOUS
 70
0
 71
3
 72
19
 73
15
 74
0
 42
0.0000001
 43
0.0000001
 44
0.0000000001
 40
0.0
 40
0.0
 40
0.0
 40
0.0
 40
0.0212011631
 40
0.0459972603
 40
0.0762944155
 40
0.1130501142
 40
0.1566172897
 40
0.2070263789
 40
0.2641633767
 40
0.3277301901
 40
0.4722712389
 40
0.636420099
 40
0.814749118
 40
1.0
 40
1.0
 40
1.0
 40
1.0
 10
11.8965795271
 20
19.9955684534
 30
0.0
 10
11.8965795271
 20
19.9979270373
 30
0.0
 10
11.8977969533
 20
20.003068232
 30
0.0
 10
11.9025929915
 20
20.0102038487
 30
0.0
 10
11.910129792
 20
20.0171910438
 30
0.0
 10
11.9203923736
 20
20.0240455941
 30
0.0
 10
11.9333235822
 20
20.0307473524
 30
0.0
 10
11.9488490402
 20
20.0372329204
 30
0.0
 10
11.9668619504
 20
20.04342248
 30
0.0
 10
11.995245732
 20
20.0515287418
 30
0.0
 10
12.0357976034
 20
20.0601638119
 30
0.0
 10
12.0894701077
 20
20.0678005592
 30
0.0
 10
12.1480149928
 20
20.0725826055
 30
0.0
 10
12.1884707634
 20
20.0736780573
 30
0.0
 10
12.2090795271
 20
20.0736773203
 30
0.0
  0
SPLINE
  5
235
100
AcDbEntity
  8
0
100
AcDbSpline
 62
7
  6
CONTINUOUS
 70
0
 71
3
 72
31
 73
27
 74
0
 42
0.0000001
 43
0.0000001
 44
0.0000000001
 40
0.0
 40
0.0
 40
0.0
 40
0.0
 40
0.010870881
 40
0.023900801
 40
0.0398576712
 40
0.0590820456
 40
0.0816638508
 40
0.1075596831
 40
0.1366665478
 40
0.1688201403
 40
0.2413597536
 40
0.3231695857
 40
0.4116866387
 40
0.503894926
 40
0.5963653879
 40
0.68544477
 40
0.7675937963
 40
0.8396527984
 40
0.8711473656
 40
0.8992951952
 40
0.9239556616
 40
0.945107324
 40
0.962819026
 40
0.9773613342
 40
0.9893733117
 40
1.0
 40
1.0
 40
1.0
 40
1.0
 10
12.8965795271
 20
20.0176614874
 30
0.0
 10
12.8965795271
 20
20.0200990948
 30
0.0
 10
12.8978518269
 20
20.0254666369
 30
0.0
 10
12.9026149999
 20
20.033129263
 30
0.0
 10
12.9100936665
 20
20.0410052044
 30
0.0
 10
12.9202648266
 20
20.0490710472
 30
0.0
 10
12.9330493731
 20
20.0572907342
 30
0.0
 10
12.9483534178
 20
20.0655897033
 30
0.0
 10
12.9660601752
 20
20.0738826113
 30
0.0
 10
12.9938247963
 20
20.0852766474
 30
0.0
 10
13.0334825975
 20
20.0986835041
 30
0.0
 10
13.086120534
 20
20.1127636986
 30
0.0
 10
13.1437950779
 20
20.1247130033
 30
0.0
 10
13.2043883173
 20
20.133918371
 30
0.0
 10
13.2655152527
 20
20.1398667416
 30
0.0
 10
13.3246297619
 20
20.1423065415
 30
0.0
 10
13.3792069238
 20
20.14117667
 30
0.0
 10
13.4207227419
 20
20.1372943832
 30
0.0
 10
13.4498540732
 20
20.1323706802
 30
0.0
 10
13.468293252
 20
20.1281488904
 30
0.0
 10
13.4841702234
 20
20.1232963818
 30
0.0
 10
13.4973771756
 20
20.1178920392
 30
0.0
 10
13.5078480661
 20
20.1119919351
 30
0.0
 10
13.5155399866
 20
20.1056007751
 30
0.0
 10
13.5204186003
 20
20.0986666465
 30
0.0
 10
13.5215795271
 20
20.0935464384
 30
0.0
 10
13.5215795271
 20
20.0911635871
 30
0.0
  0
ENDSEC
  0
SECTION
  2
OBJECTS
  0
DICTIONARY
  5
C
100
AcDbDictionary
280
0
281
1
  3
ACAD_GROUP
350
D
  3
ACAD_MLINESTYLE
350
17
  3
ACAD_LAYOUT
350
1A
  3
ACAD_PLOTSETTINGS
350
19
  3
ACAD_PLOTSTYLENAME
350
E
  0
DICTIONARY
  5
D
102
{ACAD_REACTORS
330
C
102
}
100
AcDbDictionary
280
0
281
1
  0
ACDBDICTIONARYWDFLT
  5
E
102
{ACAD_REACTORS
330
C
102
}
100
AcDbDictionary
281
1
  3
Normal
350
F
100
AcDbDictionaryWithDefault
340
F
  0
DICTIONARY
  5
17
102
{ACAD_REACTORS
330
C
102
}
100
AcDbDictionary
280
0
281
1
  3
Standard
350
18
  0
DICTIONARY
  5
19
102
{ACAD_REACTORS
330
C
102
}
100
AcDbDictionary
281
1
  0
DICTIONARY
  5
1A
102
{ACAD_REACTORS
330
C
102
}
100
AcDbDictionary
281
1
  3
Model
350
236
  3
Layout1
350
237
  0
ACDBPLACEHOLDER
  5
F
102
{ACAD_REACTORS
330
E
102
}
  0
MLINESTYLE
  5
18
102
{ACAD_REACTORS
330
17
102
}
100
AcDbMlineStyle
  2
STANDARD
 70
0
  3

 62
256
 51
90.0
 52
90.0
 71
2
 49
0.5
 62
256
  6
BYLAYER
 49
-0.5
 62
256
  6
BYLAYER
  0
LAYOUT
  5
236
102
{ACAD_REACTORS
330
1A
102
}
100
AcDbPlotSettings
  1

  2
none_device
  4
ANSI_E_(44.00_x_34.00_Inches)
  6

 40
0.0
 41
0.0
 42
0.0
 43
0.0
 44
1117.6
 45
863.6
 46
0.0
 47
0.0
 48
0.0
 49
0.0
140
0.0
141
0.0
142
1.0
143
1.0
 70
1024
 72
0
 73
0
 74
0
  7

 75
0
147
1.0
148
0.0
149
0.0
100
AcDbLayout
  1
Model
 70
0
 71
0
 10
0.0
 20
0.0
 11
44.0
 21
34.0
 12
0.0
 22
0.0
 32
0.0
 14
0.0
 24
0.0
 34
0.0
 15
0.0
 25
0.0
 35
0.0
146
0.0
 13
0.0
 23
0.0
 33
0.0
 16
1.0
 26
0.0
 36
0.0
 17
0.0
 27
1.0
 37
0.0
 76
0
330
20E
345
0
346
0
  0
LAYOUT
  5
237
102
{ACAD_REACTORS
330
1A
102
}
100
AcDbPlotSettings
  1

  2
none_device
  4
ANSI_E_(44.00_x_34.00_Inches)
  6

 40
0.0
 41
0.0
 42
0.0
 43
0.0
 44
1117.6
 45
863.6
 46
0.0
 47
0.0
 48
0.0
 49
0.0
140
0.0
141
0.0
142
1.0
143
1.0
 70
0
 72
0
 73
0
 74
0
  7

 75
0
147
1.0
148
0.0
149
0.0
100
AcDbLayout
  1
Layout1
 70
0
 71
1
 10
0.0
 20
0.0
 11
44.0
 21
34.0
 12
0.0
 22
0.0
 32
0.0
 14
0.0
 24
0.0
 34
0.0
 15
0.0
 25
0.0
 35
0.0
146
0.0
 13
0.0
 23
0.0
 33
0.0
 16
1.0
 26
0.0
 36
0.0
 17
0.0
 27
1.0
 37
0.0
 76
0
330
20F
345
0
346
0
  0
ENDSEC
  0
EOF
