999
DXF file: 2350frt2.dxf
999
Pro/ENGINEER 2013150 by Parametric Technology Corporation
  0
SECTION
  2
HEADER
  9
$ACADVER
  1
AC1015
  9
$DWGCODEPAGE
  3
ANSI_1252
  9
$EXTMAX
 10
44.0
 20
34.0
 30
0.0
  9
$EXTMIN
 10
0.0
 20
0.0
 30
0.0
  9
$LIMMIN
 10
0.0
 20
0.0
  9
$LIMMAX
 10
44.0
 20
34.0
  9
$VIEWCTR
 10
22.0
 20
17.0
  9
$VIEWSIZE
 40
34.0
  9
$CLAYER
  8
0
  9
$LTSCALE
 40
2.42
  9
$CELTYPE
  6
BYLAYER
  9
$DIMSCALE
 40
1.0
  9
$DIMASZ
 40
0.1875
  9
$DIMEXO
 40
0.0625
  9
$DIMDLI
 40
1.672
  9
$DIMEXE
 40
0.125
  9
$DIMCEN
 40
0.396
  9
$DIMLFAC
 40
1.0
  9
$DIMBLK
  1
_FILLED
  9
$DIMTXT
 40
0.15625
  9
$DIMTOL
 70
1
  9
$DIMLIM
 70
0
  9
$DIMTFAC
 40
1.0
  9
$DIMTP
 40
0.01
  9
$DIMTM
 40
0.01
  9
$DIMGAP
 40
0.09
  9
$DIMDSEP
 70
46
  9
$PDMODE
 70
3
  9
$PDSIZE
 40
0.3125
  9
$HANDSEED
  5
2C5
  9
$TILEMODE
 70
1
  9
$MEASUREMENT
 70
0
  9
$INSUNITS
 70
1
  0
ENDSEC
  0
SECTION
  2
CLASSES
  0
CLASS
  1
ACDBDICTIONARYWDFLT
  2
AcDbDictionaryWithDefault
  3
AutoCAD 2000
 90
0
280
0
281
0
  0
CLASS
  1
ACDBPLACEHOLDER
  2
AcDbPlaceHolder
  3
AutoCAD 2000
 90
0
280
0
281
0
  0
CLASS
  1
LAYOUT
  2
AcDbLayout
  3
AutoCAD 2000
 90
0
280
0
281
0
  0
ENDSEC
  0
SECTION
  2
TABLES
  0
TABLE
  2
VPORT
  5
8
100
AcDbSymbolTable
 70
2
  0
VPORT
  5
1F4
100
AcDbSymbolTableRecord
100
AcDbViewportTableRecord
  2
*ACTIVE
 70
0
 10
0.0
 20
0.0
 11
1.0
 21
1.0
 12
22.0
 22
17.0
 13
0.0
 23
0.0
 14
1.0
 24
1.0
 15
0.0
 25
0.0
 16
0.0
 26
0.0
 36
1.0
 17
0.0
 27
0.0
 37
0.0
 40
34.0
 41
1.2941176471
 42
50.0
 43
0.0
 44
0.0
 50
0.0
 51
0.0
 71
0
 72
100
 73
1
 74
1
 75
0
 76
0
 77
0
 78
0
  0
ENDTAB
  0
TABLE
  2
LTYPE
  5
5
100
AcDbSymbolTable
 70
6
  0
LTYPE
  5
14
100
AcDbSymbolTableRecord
100
AcDbLinetypeTableRecord
  2
BYBLOCK
 70
0
  3

 72
65
 73
0
 40
0.0
  0
LTYPE
  5
15
100
AcDbSymbolTableRecord
100
AcDbLinetypeTableRecord
  2
BYLAYER
 70
0
  3

 72
65
 73
0
 40
0.0
  0
LTYPE
  5
16
100
AcDbSymbolTableRecord
100
AcDbLinetypeTableRecord
  2
CONTINUOUS
 70
64
  3
Solid line
 72
65
 73
0
 40
0.0
  0
LTYPE
  5
1F5
100
AcDbSymbolTableRecord
100
AcDbLinetypeTableRecord
  2
CENTER
 70
64
  3
____ _ ____ _ ____ _ ____ _ ____ _ ____ _ ____
 72
65
 73
4
 40
0.6
 49
0.375
 74
0
 49
-0.075
 74
0
 49
0.075
 74
0
 49
-0.075
 74
0
  0
LTYPE
  5
1F6
100
AcDbSymbolTableRecord
100
AcDbLinetypeTableRecord
  2
HIDDEN
 70
64
  3
- - - - - - - - - - - - - - - - - - - -
 72
65
 73
2
 40
0.2
 49
0.1
 74
0
 49
-0.1
 74
0
  0
LTYPE
  5
1F7
100
AcDbSymbolTableRecord
100
AcDbLinetypeTableRecord
  2
PHANTOM
 70
64
  3
_____ _ _ _____ _ _ _____ _ _ _____
 72
65
 73
6
 40
0.8
 49
0.45
 74
0
 49
-0.05
 74
0
 49
0.1
 74
0
 49
-0.05
 74
0
 49
0.1
 74
0
 49
-0.05
 74
0
  0
LTYPE
  5
1F8
100
AcDbSymbolTableRecord
100
AcDbLinetypeTableRecord
  2
DOT
 70
64
  3
. . . . . . . . . . . . . . . . . . . .
 72
65
 73
2
 40
0.2
 49
0.1
 74
0
 49
-0.1
 74
0
  0
LTYPE
  5
1F9
100
AcDbSymbolTableRecord
100
AcDbLinetypeTableRecord
  2
DASHED
 70
64
  3
- - - - - - - - - - - - - - - - - - - -
 72
65
 73
2
 40
0.2
 49
0.1
 74
0
 49
-0.1
 74
0
  0
ENDTAB
  0
TABLE
  2
LAYER
  5
2
100
AcDbSymbolTable
 70
36
  0
LAYER
  5
10
100
AcDbSymbolTableRecord
100
AcDbLayerTableRecord
  2
0
 70
0
 62
7
  6
CONTINUOUS
370
-3
390
F
  0
LAYER
  5
1FA
100
AcDbSymbolTableRecord
100
AcDbLayerTableRecord
  2
DEFAULT_1
 70
0
 62
7
  6
CENTER
370
-3
390
F
  0
LAYER
  5
1FB
100
AcDbSymbolTableRecord
100
AcDbLayerTableRecord
  2
DEFAULT_2
 70
0
 62
8
  6
HIDDEN
370
-3
390
F
  0
LAYER
  5
1FC
100
AcDbSymbolTableRecord
100
AcDbLayerTableRecord
  2
DEFAULT_3
 70
0
 62
7
  6
PHANTOM
370
-3
390
F
  0
LAYER
  5
1FD
100
AcDbSymbolTableRecord
100
AcDbLayerTableRecord
  2
COLOR1
 70
0
 62
7
  6
CONTINUOUS
370
-3
390
F
  0
LAYER
  5
1FE
100
AcDbSymbolTableRecord
100
AcDbLayerTableRecord
  2
DATUMS
 70
0
 62
7
  6
CONTINUOUS
370
-3
390
F
  0
LAYER
  5
1FF
100
AcDbSymbolTableRecord
100
AcDbLayerTableRecord
  2
DATUM_AXIS
 70
0
 62
7
  6
CONTINUOUS
370
-3
390
F
  0
LAYER
  5
200
100
AcDbSymbolTableRecord
100
AcDbLayerTableRecord
  2
DATUM_CSYS
 70
0
 62
7
  6
CONTINUOUS
370
-3
390
F
  0
LAYER
  5
201
100
AcDbSymbolTableRecord
100
AcDbLayerTableRecord
  2
DATUM_PLANE
 70
0
 62
7
  6
CONTINUOUS
370
-3
390
F
  0
LAYER
  5
202
100
AcDbSymbolTableRecord
100
AcDbLayerTableRecord
  2
DATUM_POINT
 70
0
 62
7
  6
CONTINUOUS
370
-3
390
F
  0
LAYER
  5
203
100
AcDbSymbolTableRecord
100
AcDbLayerTableRecord
  2
IMPORT
 70
0
 62
7
  6
CONTINUOUS
370
-3
390
F
  0
LAYER
  5
204
100
AcDbSymbolTableRecord
100
AcDbLayerTableRecord
  2
INTF_14
 70
0
 62
7
  6
CONTINUOUS
370
-3
390
F
  0
LAYER
  5
205
100
AcDbSymbolTableRecord
100
AcDbLayerTableRecord
  2
INTF_RED
 70
0
 62
7
  6
CONTINUOUS
370
-3
390
F
  0
LAYER
  5
206
100
AcDbSymbolTableRecord
100
AcDbLayerTableRecord
  2
INTF_YELLOW
 70
0
 62
7
  6
CONTINUOUS
370
-3
390
F
  0
LAYER
  5
207
100
AcDbSymbolTableRecord
100
AcDbLayerTableRecord
  2
NODE_401
 70
0
 62
7
  6
CONTINUOUS
370
-3
390
F
  0
LAYER
  5
208
100
AcDbSymbolTableRecord
100
AcDbLayerTableRecord
  2
_CURVE
 70
0
 62
7
  6
CONTINUOUS
370
-3
390
F
  0
LAYER
  5
209
100
AcDbSymbolTableRecord
100
AcDbLayerTableRecord
  2
_SURFACE
 70
0
 62
7
  6
CONTINUOUS
370
-3
390
F
  0
LAYER
  5
20A
100
AcDbSymbolTableRecord
100
AcDbLayerTableRecord
  2
___COSMETIC_SKETCH
 70
0
 62
7
  6
CONTINUOUS
370
-3
390
F
  0
LAYER
  5
20B
100
AcDbSymbolTableRecord
100
AcDbLayerTableRecord
  2
___NOTE
 70
0
 62
7
  6
CONTINUOUS
370
-3
390
F
  0
ENDTAB
  0
TABLE
  2
STYLE
  5
3
100
AcDbSymbolTable
 70
1
  0
STYLE
  5
11
100
AcDbSymbolTableRecord
100
AcDbTextStyleTableRecord
  2
STANDARD
 70
0
 40
0.0
 41
0.8
 50
0.0
 71
0
 42
0.2
  3
txt
  4

  0
STYLE
  5
20C
100
AcDbSymbolTableRecord
100
AcDbTextStyleTableRecord
  2
TEXTSTYLE_1
 70
0
 40
0.0
 41
0.8
 50
0.0
 71
0
 42
0.2
  3
gdt
  4

  0
ENDTAB
  0
TABLE
  2
VIEW
  5
6
100
AcDbSymbolTable
 70
0
  0
ENDTAB
  0
TABLE
  2
UCS
  5
7
100
AcDbSymbolTable
 70
0
  0
ENDTAB
  0
TABLE
  2
APPID
  5
9
100
AcDbSymbolTable
 70
1
  0
APPID
  5
20D
100
AcDbSymbolTableRecord
100
AcDbRegAppTableRecord
  2
ACAD
 70
0
  0
ENDTAB
  0
TABLE
  2
BLOCK_RECORD
  5
1
100
AcDbSymbolTable
 70
0
  0
BLOCK_RECORD
  5
20E
100
AcDbSymbolTableRecord
100
AcDbBlockTableRecord
  2
*Model_Space
  0
BLOCK_RECORD
  5
20F
100
AcDbSymbolTableRecord
100
AcDbBlockTableRecord
  2
*Paper_Space
  0
ENDTAB
  0
TABLE
  2
DIMSTYLE
  5
A
100
AcDbSymbolTable
 70
1
100
AcDbDimStyleTable
 71
0
  0
DIMSTYLE
105
210
100
AcDbSymbolTableRecord
100
AcDbDimStyleTableRecord
  2
STANDARD
 70
0
  3

  4

 40
1.0
 41
0.1875
 42
0.0625
 43
0.38
 44
0.125
 45
0.0
 46
0.0
 47
0.01
 48
0.01
140
0.15625
141
0.09
142
0.0
143
25.4
144
1.0
145
0.0
146
1.0
147
0.09
 71
1.0
 72
0.0
 73
1
 74
1
 75
0
 76
0
 77
0
 78
4
170
0
171
2
172
0
173
0
174
0
175
0
176
0
177
0
178
0
270
2
271
3
272
3
273
2
274
2
275
0
280
0
281
0
282
0
283
1
284
4
285
0
286
0
287
3
288
0
340
11
278
46
  0
ENDTAB
  0
ENDSEC
  0
SECTION
  2
BLOCKS
  0
BLOCK
  5
20
100
AcDbEntity
  8
0
100
AcDbBlockBegin
  2
*Model_Space
 70
0
 10
0.0
 20
0.0
 30
0.0
  3
*Model_Space
  1

  0
ENDBLK
  5
21
100
AcDbEntity
  8
0
100
AcDbBlockEnd
  0
BLOCK
  5
1C
100
AcDbEntity
  8
0
100
AcDbBlockBegin
  2
*Paper_Space
 70
0
 10
0.0
 20
0.0
 30
0.0
  3
*Paper_Space
  1

  0
ENDBLK
  5
1D
100
AcDbEntity
  8
0
100
AcDbBlockEnd
  0
ENDSEC
  0
SECTION
  2
ENTITIES
  0
LINE
  5
211
100
AcDbEntity
  8
_SURFACE
100
AcDbLine
 62
7
  6
CONTINUOUS
 10
3.0087478963
 20
14.5626199012
 11
3.0220177887
 21
14.1826199012
  0
LINE
  5
212
100
AcDbEntity
  8
_SURFACE
100
AcDbLine
 62
7
  6
CONTINUOUS
 10
4.4417047894
 20
12.9347138705
 11
4.4491476958
 21
12.8586105023
  0
LWPOLYLINE
  5
213
100
AcDbEntity
  8
0
100
AcDbPolyline
 62
7
  6
CONTINUOUS
 90
14
 70
0
 10
4.4491991892
 20
12.858619616
 10
4.4526520309
 20
12.8311734657
 10
4.4605868557
 20
12.7907816018
 10
4.4716968932
 20
12.7515443868
 10
4.4858185965
 20
12.7136956598
 10
4.502775311
 20
12.6774456941
 10
4.5223845058
 20
12.6429752403
 10
4.5444390545
 20
12.6104705844
 10
4.5687028779
 20
12.5801129035
 10
4.594980723
 20
12.5519975666
 10
4.6230243335
 20
12.5262554726
 10
4.6524828576
 20
12.5030556256
 10
4.6830696912
 20
12.4824531559
 10
4.7047962477
 20
12.4697010396
  0
LINE
  5
214
100
AcDbEntity
  8
0
100
AcDbLine
 62
7
  6
CONTINUOUS
 10
6.0817318705
 20
14.5626199013
 11
6.0891028536
 21
14.1826199013
  0
LWPOLYLINE
  5
215
100
AcDbEntity
  8
_SURFACE
100
AcDbPolyline
 62
7
  6
CONTINUOUS
 90
14
 70
0
 10
4.7970848929
 20
12.3597039422
 10
4.8797530045
 20
12.1337627337
 10
4.9993151454
 20
11.8470355757
 10
5.1361528234
 20
11.5592117469
 10
5.2905593614
 20
11.2709943904
 10
5.4625487602
 20
10.9835625461
 10
5.6517301237
 20
10.6985802891
 10
5.8579317164
 20
10.4171358874
 10
6.0810436764
 20
10.1401591763
 10
6.3205283301
 20
9.8690603998
 10
6.5766516391
 20
9.604334067
 10
6.8485449108
 20
9.3476994716
 10
7.133563547
 20
9.1021518008
 10
7.4332052209
 20
8.866950667
  0
LINE
  5
216
100
AcDbEntity
  8
___COSMETIC_SKETCH
100
AcDbLine
 62
8
  6
PHANTOM
 10
7.7090795271
 20
8.6810211252
 11
7.7090795271
 21
9.1920995614
  0
LINE
  5
217
100
AcDbEntity
  8
0
100
AcDbLine
 62
7
  6
CONTINUOUS
 10
13.4095379934
 20
5.9947138711
 11
11.008621061
 21
5.9947138711
  0
LINE
  5
218
100
AcDbEntity
  8
0
100
AcDbLine
 62
7
  6
CONTINUOUS
 10
13.5340624663
 20
6.1088193887
 11
10.8840965879
 21
6.1088193887
  0
LWPOLYLINE
  5
219
100
AcDbEntity
  8
_SURFACE
100
AcDbPolyline
 62
7
  6
CONTINUOUS
 90
9
 70
0
 10
7.7447634147
 20
8.6448489518
 10
8.0582043068
 20
8.4425252789
 10
8.3708198674
 20
8.2603624222
 10
8.6827199407
 20
8.0970912992
 10
8.987202108
 20
7.9547720591
 10
9.2794026229
 20
7.833636731
 10
9.5618828686
 20
7.730745793
 10
9.8391536839
 20
7.6433627338
 10
10.112268601
 20
7.5706289863
  0
LINE
  5
21A
100
AcDbEntity
  8
_SURFACE
100
AcDbLine
 62
7
  6
CONTINUOUS
 10
7.4332052209
 20
8.866950667
 11
7.7447634147
 21
8.6448489518
  0
LWPOLYLINE
  5
21B
100
AcDbEntity
  8
0
100
AcDbPolyline
 62
7
  6
CONTINUOUS
 90
11
 70
0
 10
14.0395381758
 20
7.5127329175
 10
14.3058904165
 20
7.5706289774
 10
14.5790053368
 20
7.643362724
 10
14.8562761621
 20
7.7307457851
 10
15.1387564222
 20
7.8336367274
 10
15.4309569491
 20
7.9547720604
 10
15.735439124
 20
8.0970913044
 10
16.0473392025
 20
8.2603624309
 10
16.3599547654
 20
8.4425252899
 10
16.673395656
 20
8.644848963
 10
16.9849538458
 20
8.8669506763
  0
LINE
  5
21C
100
AcDbEntity
  8
0
100
AcDbLine
 62
7
  6
CONTINUOUS
 10
13.8442072248
 20
7.4786760777
 11
14.0395381758
 21
7.5127329175
  0
LINE
  5
21D
100
AcDbEntity
  8
0
100
AcDbLine
 62
7
  6
CONTINUOUS
 10
13.8442203142
 20
7.4786780836
 11
13.8442083174
 21
7.4786762479
  0
LINE
  5
21E
100
AcDbEntity
  8
0
100
AcDbLine
 62
7
  6
CONTINUOUS
 10
10.5739507333
 20
7.4786762484
 11
10.5739360127
 21
7.4786785048
  0
LWPOLYLINE
  5
21F
100
AcDbEntity
  8
0
100
AcDbPolyline
 62
7
  6
CONTINUOUS
 90
28
 70
0
 10
10.5739368343
 20
7.4786786162
 10
10.5769774448
 20
7.4781850854
 10
10.5851596808
 20
7.4766605711
 10
10.5940942938
 20
7.4746658818
 10
10.6037227304
 20
7.4721230561
 10
10.6140103866
 20
7.4689420982
 10
10.6244828412
 20
7.4651925766
 10
10.6349872554
 20
7.4608884497
 10
10.6456000155
 20
7.4559559169
 10
10.656210959
 20
7.4503980023
 10
10.6667719484
 20
7.4441959238
 10
10.6772420338
 20
7.4373275413
 10
10.6875273464
 20
7.4298103948
 10
10.6975820471
 20
7.4216368043
 10
10.707357003
 20
7.4128031453
 10
10.7167615717
 20
7.4033514353
 10
10.725743095
 20
7.3933001436
 10
10.734265209
 20
7.3826530802
 10
10.7422699828
 20
7.3714441577
 10
10.7497160777
 20
7.3596922599
 10
10.7565597503
 20
7.3474236589
 10
10.7627472201
 20
7.3346928846
 10
10.7682424926
 20
7.3215326135
 10
10.7730107454
 20
7.307978942
 10
10.7770113576
 20
7.2941000036
 10
10.7802183131
 20
7.279938501
 10
10.7826078763
 20
7.265539303
 10
10.7839395778
 20
7.2536194232
  0
LWPOLYLINE
  5
220
100
AcDbEntity
  8
_SURFACE
100
AcDbPolyline
 62
7
  6
CONTINUOUS
 90
3
 70
0
 10
10.112268601
 20
7.5706289863
 10
10.3786208431
 20
7.5127329243
 10
10.5739518276
 20
7.4786760779
  0
LINE
  5
221
100
AcDbEntity
  8
___COSMETIC_SKETCH
100
AcDbLine
 62
8
  6
PHANTOM
 10
10.2090795271
 20
8.1246736305
 11
10.2090795271
 21
7.5985532236
  0
LINE
  5
222
100
AcDbEntity
  8
0
100
AcDbLine
 62
7
  6
CONTINUOUS
 10
10.783939381
 20
7.2536215018
 11
10.8840965879
 21
6.1088193887
  0
LINE
  5
223
100
AcDbEntity
  8
0
100
AcDbLine
 62
7
  6
CONTINUOUS
 10
10.6229547343
 20
14.1247138709
 11
10.6229542941
 21
13.8809398789
  0
LINE
  5
224
100
AcDbEntity
  8
0
100
AcDbLine
 62
7
  6
CONTINUOUS
 10
10.7839397416
 20
7.2536173811
 11
10.7839406787
 21
7.2536284161
  0
LWPOLYLINE
  5
225
100
AcDbEntity
  8
_SURFACE
100
AcDbPolyline
 62
7
  6
CONTINUOUS
 90
17
 70
0
 10
3.8542174589
 20
13.7908826839
 10
3.9258857234
 20
13.7518317985
 10
3.9917229943
 20
13.7129096204
 10
4.05235905
 20
13.6738853147
 10
4.1085927221
 20
13.6342082883
 10
4.1630486185
 20
13.5914655909
 10
4.2157730026
 20
13.5442411925
 10
4.2626760811
 20
13.4950484731
 10
4.3008488612
 20
13.4465034498
 10
4.3322665836
 20
13.3961503037
 10
4.3587997052
 20
13.3402054068
 10
4.3809141971
 20
13.2779114516
 10
4.3985148835
 20
13.2135011882
 10
4.4125538385
 20
13.1475469464
 10
4.4242279554
 20
13.0782033304
 10
4.4340164633
 20
13.0054766611
 10
4.4417047891
 20
12.9347138705
  0
LINE
  5
226
100
AcDbEntity
  8
0
100
AcDbLine
 62
7
  6
CONTINUOUS
 10
13.6342183755
 20
7.253628416
 11
13.634219313
 21
7.2536173844
  0
LINE
  5
227
100
AcDbEntity
  8
0
100
AcDbLine
 62
7
  6
CONTINUOUS
 10
13.7952043199
 20
14.1247138709
 11
13.7952047601
 21
13.8809398789
  0
LINE
  5
228
100
AcDbEntity
  8
___COSMETIC_SKETCH
100
AcDbLine
 62
8
  6
PHANTOM
 10
14.2090795271
 20
7.5985532236
 11
14.2090795271
 21
8.1246736305
  0
LINE
  5
229
100
AcDbEntity
  8
0
100
AcDbLine
 62
7
  6
CONTINUOUS
 10
13.5340624663
 20
6.1088193887
 11
13.6342196732
 21
7.2536215017
  0
LWPOLYLINE
  5
22A
100
AcDbEntity
  8
0
100
AcDbPolyline
 62
7
  6
CONTINUOUS
 90
27
 70
0
 10
13.6342194767
 20
7.2536194272
 10
13.6361661962
 20
7.2697856341
 10
13.638991999
 20
7.2850192663
 10
13.6427178405
 20
7.2999134832
 10
13.6473045966
 20
7.3144183457
 10
13.6527108659
 20
7.3284878367
 10
13.6588821728
 20
7.3420572202
 10
13.6657695787
 20
7.355090404
 10
13.6733232629
 20
7.3675557776
 10
13.6814779832
 20
7.3794057163
 10
13.6901802219
 20
7.3906203209
 10
13.699375713
 20
7.401182469
 10
13.708991349
 20
7.4110605002
 10
13.7189737814
 20
7.4202511463
 10
13.7292677053
 20
7.4287515895
 10
13.7397922532
 20
7.4365441174
 10
13.7505029061
 20
7.4436445219
 10
13.7613416607
 20
7.4500604805
 10
13.7722024726
 20
7.4557795635
 10
13.7831043826
 20
7.4608590051
 10
13.7939369724
 20
7.4652923885
 10
13.8043838652
 20
7.469020302
 10
13.8144509796
 20
7.4721272405
 10
13.8240382876
 20
7.474659454
 10
13.8326473726
 20
7.4765885253
 10
13.840073595
 20
7.4779954155
 10
13.8442195802
 20
7.4786782088
  0
LWPOLYLINE
  5
22B
100
AcDbEntity
  8
0
100
AcDbPolyline
 62
7
  6
CONTINUOUS
 90
14
 70
0
 10
19.7133626631
 20
12.4697035979
 10
19.7350595192
 20
12.4824366655
 10
19.765638752
 20
12.5030294495
 10
19.7950935042
 20
12.5262204512
 10
19.8231367547
 20
12.551955141
 10
19.8494169588
 20
12.5800648499
 10
19.8736853688
 20
12.610419131
 10
19.8957462558
 20
12.6429230964
 10
19.9153628403
 20
12.6773957489
 10
19.932327332
 20
12.7136509507
 10
19.9464565896
 20
12.7515081935
 10
19.9575732804
 20
12.7907573644
 10
19.965513107
 20
12.8311646045
 10
19.9689678786
 20
12.8586217594
  0
LWPOLYLINE
  5
22C
100
AcDbEntity
  8
0
100
AcDbPolyline
 62
7
  6
CONTINUOUS
 90
12
 70
0
 10
3.4030476558
 20
14.1247115882
 10
3.4423648169
 20
14.1226447708
 10
3.4812961082
 20
14.1164569619
 10
3.519363007
 20
14.1062164414
 10
3.5561448014
 20
14.0920362931
 10
3.5912350278
 20
14.0740731205
 10
3.6242459473
 20
14.0525252891
 10
3.6548127214
 20
14.0276307887
 10
3.6825974297
 20
13.9996646608
 10
3.7072928965
 20
13.968935919
 10
3.7286261012
 20
13.9357841099
 10
3.7433209801
 20
13.9073130446
  0
LWPOLYLINE
  5
22D
100
AcDbEntity
  8
0
100
AcDbPolyline
 62
7
  6
CONTINUOUS
 90
14
 70
0
 10
16.9849538458
 20
8.8669506763
 10
17.2845955162
 20
9.1021518081
 10
17.56961415
 20
9.3476994776
 10
17.8415074198
 20
9.6043340717
 10
18.0976307276
 20
9.8690604035
 10
18.3371153809
 20
10.14015918
 10
18.560227341
 20
10.4171358916
 10
18.7664289338
 20
10.6985802938
 10
18.9556102973
 20
10.9835625514
 10
19.1275996962
 20
11.2709943963
 10
19.2820062339
 20
11.5592117528
 10
19.4188439111
 20
11.8470355807
 10
19.5384060511
 20
12.1337627371
 10
19.6210741614
 20
12.3597039423
  0
LINE
  5
22E
100
AcDbEntity
  8
0
100
AcDbLine
 62
7
  6
CONTINUOUS
 10
13.7952047601
 20
13.8809398789
 11
10.6229542941
 21
13.8809398789
  0
LINE
  5
22F
100
AcDbEntity
  8
0
100
AcDbLine
 62
7
  6
CONTINUOUS
 10
3.0819812383
 20
14.1247138711
 11
21.3360780886
 21
14.1247138711
  0
LINE
  5
230
100
AcDbEntity
  8
0
100
AcDbLine
 62
7
  6
CONTINUOUS
 10
3.0220177887
 20
14.1826199012
 11
21.3961412655
 21
14.1826199012
  0
LINE
  5
231
100
AcDbEntity
  8
0
100
AcDbLine
 62
7
  6
CONTINUOUS
 10
21.4094111579
 20
14.5626199012
 11
3.0087478963
 21
14.5626199012
  0
LINE
  5
232
100
AcDbEntity
  8
0
100
AcDbLine
 62
7
  6
CONTINUOUS
 10
21.3493477902
 20
14.6247138711
 11
3.068811264
 21
14.6247138711
  0
LINE
  5
233
100
AcDbEntity
  8
___COSMETIC_SKETCH
100
AcDbLine
 62
8
  6
PHANTOM
 10
17.2090795271
 20
9.5556582359
 11
17.2090795271
 21
9.0468732578
  0
LINE
  5
234
100
AcDbEntity
  8
0
100
AcDbLine
 62
7
  6
CONTINUOUS
 10
18.3364271837
 20
14.5626199013
 11
18.3290562006
 21
14.1826199013
  0
LWPOLYLINE
  5
235
100
AcDbEntity
  8
0
100
AcDbPolyline
 62
7
  6
CONTINUOUS
 90
12
 70
0
 10
20.6748105373
 20
13.9073192087
 10
20.6895218141
 20
13.93581731
 10
20.7108698818
 20
13.9689820791
 10
20.7355829258
 20
13.9997205141
 10
20.7633873436
 20
14.0276926851
 10
20.793975288
 20
14.0525892608
 10
20.8270081303
 20
14.074135005
 10
20.8621204147
 20
14.0920919054
 10
20.8989238508
 20
14.1062616633
 10
20.9370113751
 20
14.1164877741
 10
20.9759616189
 20
14.1226573173
 10
21.0150716887
 20
14.1247023726
  0
LINE
  5
236
100
AcDbEntity
  8
0
100
AcDbLine
 62
7
  6
CONTINUOUS
 10
19.9690124385
 20
12.8586215463
 11
19.9764542648
 21
12.9347138705
  0
LWPOLYLINE
  5
237
100
AcDbEntity
  8
0
100
AcDbPolyline
 62
7
  6
CONTINUOUS
 90
17
 70
0
 10
19.9764542651
 20
12.9347138705
 10
19.984142591
 20
13.0054766617
 10
19.9939310989
 20
13.0782033312
 10
20.0056052158
 20
13.1475469471
 10
20.0196441708
 20
13.2135011886
 10
20.0372448571
 20
13.2779114516
 10
20.0593593488
 20
13.3402054063
 10
20.0858924701
 20
13.3961503028
 10
20.1173101921
 20
13.4465034484
 10
20.1554829715
 20
13.4950484712
 10
20.2023860491
 20
13.5442411901
 10
20.2551104323
 20
13.591465588
 10
20.3095663277
 20
13.6342082851
 10
20.365799999
 20
13.6738853111
 10
20.4264360537
 20
13.7129096166
 10
20.4922733237
 20
13.7518317945
 10
20.563941541
 20
13.7908826554
  0
LINE
  5
238
100
AcDbEntity
  8
0
100
AcDbLine
 62
7
  6
CONTINUOUS
 10
21.3961412655
 20
14.1826199012
 11
21.4094111579
 21
14.5626199012
  0
ARC
  5
239
100
AcDbEntity
  8
0
100
AcDbCircle
 62
7
  6
CONTINUOUS
 10
11.8450084039
 20
1434.720760486
 40
1422.2638926924
100
AcDbArc
 50
269.8062590403
 51
269.9308185533
  0
ARC
  5
23A
100
AcDbEntity
  8
0
100
AcDbCircle
 62
7
  6
CONTINUOUS
 10
12.7866268866
 20
1340.294375129
 40
1327.8372915176
100
AcDbArc
 50
270.0648898171
 51
270.1982956834
  0
ARC
  5
23B
100
AcDbEntity
  8
0
100
AcDbCircle
 62
7
  6
CONTINUOUS
 10
12.6774277067
 20
888.6235089578
 40
876.2843410841
100
AcDbArc
 50
270.1042655432
 51
270.3044142666
  0
ARC
  5
23C
100
AcDbEntity
  8
0
100
AcDbCircle
 62
7
  6
CONTINUOUS
 10
11.5443171511
 20
833.341529742
 40
821.0021043409
100
AcDbArc
 50
269.6887952534
 51
269.9024262052
  0
ARC
  5
23D
100
AcDbEntity
  8
0
100
AcDbCircle
 62
7
  6
CONTINUOUS
 10
11.8511922692
 20
441.6984203601
 40
428.8848099042
100
AcDbArc
 50
269.3396258018
 51
269.7625023882
  0
ARC
  5
23E
100
AcDbEntity
  8
0
100
AcDbCircle
 62
7
  6
CONTINUOUS
 10
12.2174800699
 20
-6.8175273647
 40
13.2127362208
100
AcDbArc
 50
90.0364281607
 51
92.3528140288
  0
ARC
  5
23F
100
AcDbEntity
  8
0
100
AcDbCircle
 62
7
  6
CONTINUOUS
 10
12.2006790296
 20
-6.8175252224
 40
13.2127340785
100
AcDbArc
 50
87.647185777
 51
89.9635720296
  0
ARC
  5
240
100
AcDbEntity
  8
0
100
AcDbCircle
 62
7
  6
CONTINUOUS
 10
12.2161690031
 20
-2.7831788205
 40
8.9523452268
100
AcDbArc
 50
90.045373261
 51
92.9251017936
  0
ARC
  5
241
100
AcDbEntity
  8
0
100
AcDbCircle
 62
7
  6
CONTINUOUS
 10
12.2019900978
 20
-2.78317702
 40
8.9523434262
100
AcDbArc
 50
87.0748979167
 51
89.9546270287
  0
ARC
  5
242
100
AcDbEntity
  8
___COSMETIC_SKETCH
100
AcDbCircle
 62
8
  6
PHANTOM
 10
12.1533102306
 20
16.7170538382
 40
8.8348855386
100
AcDbArc
 50
283.4553619032
 51
289.0839507723
  0
ARC
  5
243
100
AcDbEntity
  8
___COSMETIC_SKETCH
100
AcDbCircle
 62
8
  6
PHANTOM
 10
12.2641881688
 20
16.71478928
 40
8.8325281583
100
AcDbArc
 50
250.9152963652
 51
256.5453878922
  0
ARC
  5
244
100
AcDbEntity
  8
___COSMETIC_SKETCH
100
AcDbCircle
 62
8
  6
PHANTOM
 10
11.7737118042
 20
15.3143165388
 40
7.3486683157
100
AcDbArc
 50
236.419215747
 51
250.9590410495
  0
ARC
  5
245
100
AcDbEntity
  8
___COSMETIC_SKETCH
100
AcDbCircle
 62
8
  6
PHANTOM
 10
12.6508191969
 20
15.3014491475
 40
7.3343610127
100
AcDbArc
 50
289.0266991047
 51
308.4257291609
  0
ARC
  5
246
100
AcDbEntity
  8
0
100
AcDbCircle
 62
7
  6
CONTINUOUS
 10
13.6442043882
 20
7.2280325863
 40
0.2504979975
100
AcDbArc
 50
97.1937362306
 51
165.7711935983
  0
ARC
  5
247
100
AcDbEntity
  8
0
100
AcDbCircle
 62
7
  6
CONTINUOUS
 10
10.7739547373
 20
7.2280326587
 40
0.2504979277
100
AcDbArc
 50
14.2288284968
 51
82.8062717899
  0
ARC
  5
248
100
AcDbEntity
  8
0
100
AcDbCircle
 62
7
  6
CONTINUOUS
 10
3.9701578693
 20
14.0123732514
 40
0.2500000083
100
AcDbArc
 50
204.85135932
 51
242.3699528278
  0
ARC
  5
249
100
AcDbEntity
  8
0
100
AcDbCircle
 62
7
  6
CONTINUOUS
 10
20.4480011092
 20
14.012373251
 40
0.2500000074
100
AcDbArc
 50
297.6300485459
 51
335.1472773175
  0
ARC
  5
24A
100
AcDbEntity
  8
0
100
AcDbCircle
 62
7
  6
CONTINUOUS
 10
19.810237402
 20
12.294713871
 40
0.2000006949
100
AcDbArc
 50
118.9672919283
 51
161.0399173815
  0
ARC
  5
24B
100
AcDbEntity
  8
0
100
AcDbCircle
 62
7
  6
CONTINUOUS
 10
4.6079216521
 20
12.2947138709
 40
0.2000006949
100
AcDbArc
 50
18.9600826179
 51
61.0312581841
  0
ARC
  5
24C
100
AcDbEntity
  8
0
100
AcDbCircle
 62
7
  6
CONTINUOUS
 10
11.0086209239
 20
6.1197138711
 40
0.125
100
AcDbArc
 50
185.000006715
 51
270.0000627844
  0
ARC
  5
24D
100
AcDbEntity
  8
0
100
AcDbCircle
 62
7
  6
CONTINUOUS
 10
13.4095381304
 20
6.1197138711
 40
0.125
100
AcDbArc
 50
269.9999372154
 51
354.999993285
  0
ARC
  5
24E
100
AcDbEntity
  8
0
100
AcDbCircle
 62
7
  6
CONTINUOUS
 10
21.3494477083
 20
14.5647138711
 40
0.06
100
AcDbArc
 50
357.9999998696
 51
90.0000036511
  0
ARC
  5
24F
100
AcDbEntity
  8
0
100
AcDbCircle
 62
7
  6
CONTINUOUS
 10
3.0687113459
 20
14.5647138711
 40
0.06
100
AcDbArc
 50
89.9999963491
 51
182.0000001304
  0
ARC
  5
250
100
AcDbEntity
  8
0
100
AcDbCircle
 62
7
  6
CONTINUOUS
 10
3.0819812383
 20
14.1847138711
 40
0.06
100
AcDbArc
 50
182.0000001302
 51
270.000003644
  0
ARC
  5
251
100
AcDbEntity
  8
0
100
AcDbCircle
 62
7
  6
CONTINUOUS
 10
21.3361778159
 20
14.1847138711
 40
0.06
100
AcDbArc
 50
269.9999963561
 51
357.9999998698
  0
SPLINE
  5
252
100
AcDbEntity
  8
0
100
AcDbSpline
 62
7
  6
CONTINUOUS
 70
0
 71
3
 72
26
 73
22
 74
0
 42
0.0000001
 43
0.0000001
 44
0.0000000001
 40
0.0
 40
0.0
 40
0.0
 40
0.0
 40
0.0003908367
 40
0.001212027
 40
0.0043040399
 40
0.0093716001
 40
0.0164259097
 40
0.0254703887
 40
0.0365033617
 40
0.049520825
 40
0.0645183842
 40
0.1004352323
 40
0.1442160716
 40
0.1958199946
 40
0.2551896577
 40
0.3222602243
 40
0.3969667048
 40
0.4792439212
 40
0.5690033548
 40
0.7704030245
 40
1.0
 40
1.0
 40
1.0
 40
1.0
 10
13.6342189196
 20
7.2536186341
 30
0.0
 10
13.6342166355
 20
7.2535921421
 30
0.0
 10
13.6341319966
 20
7.2535399614
 30
0.0
 10
13.6338668112
 20
7.2534629845
 30
0.0
 10
13.6332453488
 20
7.2533651722
 30
0.0
 10
13.632225383
 20
7.2532617801
 30
0.0
 10
13.6307849391
 20
7.2531530722
 30
0.0
 10
13.6289438763
 20
7.253044938
 30
0.0
 10
13.6266942509
 20
7.252936521
 30
0.0
 10
13.6240400152
 20
7.2528289059
 30
0.0
 10
13.6196929798
 20
7.2526774279
 30
0.0
 10
13.6132529573
 20
7.2524971607
 30
0.0
 10
13.6043221258
 20
7.2522969936
 30
0.0
 10
13.5937952466
 20
7.2521043182
 30
0.0
 10
13.5816834983
 20
7.2519203788
 30
0.0
 10
13.5679996939
 20
7.2517466004
 30
0.0
 10
13.5527571509
 20
7.2515842439
 30
0.0
 10
13.535970789
 20
7.2514345285
 30
0.0
 10
13.5105649604
 20
7.2512462647
 30
0.0
 10
13.4751360926
 20
7.2510576106
 30
0.0
 10
13.4458136061
 20
7.250967579
 30
0.0
 10
13.4301931473
 20
7.2509345353
 30
0.0
  0
SPLINE
  5
253
100
AcDbEntity
  8
0
100
AcDbSpline
 62
7
  6
CONTINUOUS
 70
0
 71
3
 72
29
 73
25
 74
0
 42
0.0000001
 43
0.0000001
 44
0.0000000001
 40
0.0
 40
0.0
 40
0.0
 40
0.0
 40
0.002991554
 40
0.0066868663
 40
0.0110709028
 40
0.0161230162
 40
0.0281376314
 40
0.0425403504
 40
0.0591464796
 40
0.0777863155
 40
0.0983071461
 40
0.1205722928
 40
0.1444622483
 40
0.1698714069
 40
0.2248891583
 40
0.2850176419
 40
0.3497945788
 40
0.4188679264
 40
0.4919631584
 40
0.5688545725
 40
0.6493291655
 40
0.8199175946
 40
0.9091754122
 40
1.0
 40
1.0
 40
1.0
 40
1.0
 10
12.7430989553
 20
6.3840702286
 30
0.0
 10
12.7419507225
 20
6.3915334053
 30
0.0
 10
12.7404168643
 20
6.408369665
 30
0.0
 10
12.7396776015
 20
6.4363110046
 30
0.0
 10
12.7402166249
 20
6.469460213
 30
0.0
 10
12.7426956236
 20
6.5235519825
 30
0.0
 10
12.7489009566
 20
6.6027579253
 30
0.0
 10
12.7597826922
 20
6.7108096753
 30
0.0
 10
12.7740928832
 20
6.835311771
 30
0.0
 10
12.791440669
 20
6.9750007997
 30
0.0
 10
12.8115113511
 20
7.1287420749
 30
0.0
 10
12.8340273883
 20
7.2955263478
 30
0.0
 10
12.8587651178
 20
7.4744602165
 30
0.0
 10
12.8954458947
 20
7.7351994057
 30
0.0
 10
12.9458558995
 20
8.0863766026
 30
0.0
 10
13.0112972865
 20
8.5357815746
 30
0.0
 10
13.0824889779
 20
9.0202006919
 30
0.0
 10
13.1588205008
 20
9.5369451737
 30
0.0
 10
13.2397806082
 20
10.0839158975
 30
0.0
 10
13.3249717714
 20
10.6593518163
 30
0.0
 10
13.4459587664
 20
11.4782532443
 30
0.0
 10
13.570773505
 20
12.3281422562
 30
0.0
 10
13.6979255287
 20
13.2040911726
 30
0.0
 10
13.7626350606
 20
13.654008174
 30
0.0
 10
13.7951594412
 20
13.8809398789
 30
0.0
  0
SPLINE
  5
254
100
AcDbEntity
  8
0
100
AcDbSpline
 62
7
  6
CONTINUOUS
 70
0
 71
3
 72
22
 73
18
 74
0
 42
0.0000001
 43
0.0000001
 44
0.0000000001
 40
0.0
 40
0.0
 40
0.0
 40
0.0
 40
0.0781185086
 40
0.1660095888
 40
0.2145912635
 40
0.2670779976
 40
0.3240587264
 40
0.3544491297
 40
0.3862610376
 40
0.4542027444
 40
0.5272000296
 40
0.6034999675
 40
0.6815339272
 40
0.7605516651
 40
0.8401085266
 40
0.9199662652
 40
1.0
 40
1.0
 40
1.0
 40
1.0
 10
9.9388623751
 20
13.7908838061
 30
0.0
 10
9.9410900247
 20
13.768381437
 30
0.0
 10
9.9461588097
 20
13.7205941423
 30
0.0
 10
9.9536731391
 20
13.6589311939
 30
0.0
 10
9.9609900383
 20
13.6047254147
 30
0.0
 10
9.967523146
 20
13.5594446895
 30
0.0
 10
9.9734063141
 20
13.5193908762
 30
0.0
 10
9.9785085816
 20
13.4852712333
 30
0.0
 10
9.9840506379
 20
13.4480094005
 30
0.0
 10
9.9909800817
 20
13.3984846694
 30
0.0
 10
9.99865876
 20
13.3360716756
 30
0.0
 10
10.0068294749
 20
13.270777265
 30
0.0
 10
10.0155531041
 20
13.2037960478
 30
0.0
 10
10.024775415
 20
13.1359300797
 30
0.0
 10
10.0345226533
 20
13.0676043095
 30
0.0
 10
10.0445901396
 20
12.9990278974
 30
0.0
 10
10.0515220003
 20
12.9532672654
 30
0.0
 10
10.0550113138
 20
12.9303647978
 30
0.0
  0
SPLINE
  5
255
100
AcDbEntity
  8
0
100
AcDbSpline
 62
7
  6
CONTINUOUS
 70
0
 71
3
 72
23
 73
19
 74
0
 42
0.0000001
 43
0.0000001
 44
0.0000000001
 40
0.0
 40
0.0
 40
0.0
 40
0.0
 40
0.1326271591
 40
0.1983528703
 40
0.2636353666
 40
0.3284346075
 40
0.3927110194
 40
0.4564297929
 40
0.5195608003
 40
0.5820740814
 40
0.6439423654
 40
0.7051443434
 40
0.7354912696
 40
0.7656632851
 40
0.825447382
 40
0.8844294828
 40
0.9425870187
 40
1.0
 40
1.0
 40
1.0
 40
1.0
 10
10.0550113138
 20
12.9303647978
 30
0.0
 10
9.9146257634
 20
12.9329047108
 30
0.0
 10
9.7046311314
 20
12.9345569677
 30
0.0
 10
9.4255290794
 20
12.9347104202
 30
0.0
 10
9.2182333898
 20
12.9343979565
 30
0.0
 10
9.0124720712
 20
12.93421852
 30
0.0
 10
8.8083662343
 20
12.934849099
 30
0.0
 10
8.6060328638
 20
12.9365015108
 30
0.0
 10
8.4055672341
 20
12.938226539
 30
0.0
 10
8.2070547271
 20
12.9392592826
 30
0.0
 10
8.0105809111
 20
12.9387731994
 30
0.0
 10
7.8481724217
 20
12.9364597324
 30
0.0
 10
7.7193558212
 20
12.9329772564
 30
0.0
 10
7.5920638346
 20
12.9287648498
 30
0.0
 10
7.4344863411
 20
12.9231943389
 30
0.0
 10
7.2472078762
 20
12.9192131108
 30
0.0
 10
7.0623815223
 20
12.9212284551
 30
0.0
 10
6.9401725864
 20
12.928808911
 30
0.0
 10
6.8796786443
 20
12.9347138703
 30
0.0
  0
LINE
  5
256
100
AcDbEntity
  8
0
100
AcDbLine
 62
7
  6
CONTINUOUS
 10
9.9388626575
 20
13.7908831428
 11
6.5516065807
 21
13.7908831428
  0
LINE
  5
257
100
AcDbEntity
  8
0
100
AcDbLine
 62
7
  6
CONTINUOUS
 10
6.5516066729
 20
13.7908830563
 11
3.8542167474
 21
13.7908830563
  0
SPLINE
  5
258
100
AcDbEntity
  8
0
100
AcDbSpline
 62
7
  6
CONTINUOUS
 70
0
 71
3
 72
18
 73
14
 74
0
 42
0.0000001
 43
0.0000001
 44
0.0000000001
 40
0.0
 40
0.0
 40
0.0
 40
0.0
 40
0.1565960305
 40
0.2321038765
 40
0.3056036453
 40
0.3769735154
 40
0.4461008631
 40
0.5129154306
 40
0.5773562559
 40
0.6988665527
 40
0.8101331563
 40
0.9106694591
 40
1.0
 40
1.0
 40
1.0
 40
1.0
 10
6.8796786443
 20
12.9347138703
 30
0.0
 10
6.7807340044
 20
12.9380150573
 30
0.0
 10
6.6339688874
 20
12.9396650212
 30
0.0
 10
6.4407740872
 20
12.9382920222
 30
0.0
 10
6.3014633258
 20
12.9364347937
 30
0.0
 10
6.1661870076
 20
12.9346113458
 30
0.0
 10
6.0351266988
 20
12.9337397374
 30
0.0
 10
5.90844484
 20
12.9335913707
 30
0.0
 10
5.748647216
 20
12.933994859
 30
0.0
 10
5.5607489151
 20
12.9349491687
 30
0.0
 10
5.3500284314
 20
12.9350580552
 30
0.0
 10
5.1596527836
 20
12.9347443153
 30
0.0
 10
5.0396193472
 20
12.9346450662
 30
0.0
 10
4.9831447596
 20
12.9346390197
 30
0.0
  0
LINE
  5
259
100
AcDbEntity
  8
0
100
AcDbLine
 62
7
  6
CONTINUOUS
 10
4.9831447596
 20
12.9346390197
 11
4.9791878876
 21
12.9346386452
  0
LINE
  5
25A
100
AcDbEntity
  8
0
100
AcDbLine
 62
7
  6
CONTINUOUS
 10
4.9791878876
 20
12.9346386452
 11
4.4417280174
 21
12.9347150349
  0
SPLINE
  5
25B
100
AcDbEntity
  8
0
100
AcDbSpline
 62
7
  6
CONTINUOUS
 70
0
 71
3
 72
29
 73
25
 74
0
 42
0.0000001
 43
0.0000001
 44
0.0000000001
 40
0.0
 40
0.0
 40
0.0
 40
0.0
 40
0.002991554
 40
0.0066868663
 40
0.0110709028
 40
0.0161230161
 40
0.0281376314
 40
0.0425403504
 40
0.0591464796
 40
0.0777863155
 40
0.0983071461
 40
0.1205722928
 40
0.1444622483
 40
0.1698714069
 40
0.2248891584
 40
0.285017642
 40
0.3497945788
 40
0.4188679264
 40
0.4919631584
 40
0.5688545726
 40
0.6493291655
 40
0.8199175946
 40
0.9091754122
 40
1.0
 40
1.0
 40
1.0
 40
1.0
 10
11.675060101
 20
6.3840702287
 30
0.0
 10
11.6762083338
 20
6.3915334053
 30
0.0
 10
11.6777421908
 20
6.4083696652
 30
0.0
 10
11.6784814522
 20
6.4363110047
 30
0.0
 10
11.6779424291
 20
6.4694602131
 30
0.0
 10
11.6754634309
 20
6.5235519827
 30
0.0
 10
11.6692580975
 20
6.6027579255
 30
0.0
 10
11.6583763621
 20
6.7108096755
 30
0.0
 10
11.644066171
 20
6.8353117712
 30
0.0
 10
11.6267183852
 20
6.9750007999
 30
0.0
 10
11.6066477031
 20
7.1287420752
 30
0.0
 10
11.5841316659
 20
7.2955263481
 30
0.0
 10
11.5593939364
 20
7.4744602168
 30
0.0
 10
11.5227131595
 20
7.735199406
 30
0.0
 10
11.4723031547
 20
8.0863766029
 30
0.0
 10
11.4068617676
 20
8.535781575
 30
0.0
 10
11.3356700763
 20
9.0202006922
 30
0.0
 10
11.2593385534
 20
9.5369451741
 30
0.0
 10
11.178378446
 20
10.0839158979
 30
0.0
 10
11.0931872827
 20
10.6593518166
 30
0.0
 10
10.9722002878
 20
11.4782532445
 30
0.0
 10
10.8473855492
 20
12.3281422564
 30
0.0
 10
10.7202335255
 20
13.2040911727
 30
0.0
 10
10.6555239936
 20
13.654008174
 30
0.0
 10
10.622999613
 20
13.8809398789
 30
0.0
  0
SPLINE
  5
25C
100
AcDbEntity
  8
0
100
AcDbSpline
 62
7
  6
CONTINUOUS
 70
0
 71
3
 72
9
 73
5
 74
0
 42
0.0000001
 43
0.0000001
 44
0.0000000001
 40
0.0
 40
0.0
 40
0.0
 40
0.0
 40
0.271791961
 40
1.0
 40
1.0
 40
1.0
 40
1.0
 10
10.1567516546
 20
13.6456337384
 30
0.0
 10
10.157036192
 20
13.6423567589
 30
0.0
 10
10.158050093
 20
13.6302970654
 30
0.0
 10
10.1589296148
 20
13.6182254194
 30
0.0
 10
10.1594474966
 20
13.6094276526
 30
0.0
  0
SPLINE
  5
25D
100
AcDbEntity
  8
0
100
AcDbSpline
 62
7
  6
CONTINUOUS
 70
0
 71
3
 72
10
 73
6
 74
0
 42
0.0000001
 43
0.0000001
 44
0.0000000001
 40
0.0
 40
0.0
 40
0.0
 40
0.0
 40
0.4997091759
 40
0.7499749804
 40
1.0
 40
1.0
 40
1.0
 40
1.0
 10
11.0167654463
 20
7.2896044926
 30
0.0
 10
11.0426115798
 20
7.1917960051
 30
0.0
 10
11.0822677372
 20
7.0452234339
 30
0.0
 10
11.1383723916
 20
6.8506995424
 30
0.0
 10
11.1680110425
 20
6.7538396932
 30
0.0
 10
11.1834661818
 20
6.7056394736
 30
0.0
  0
SPLINE
  5
25E
100
AcDbEntity
  8
0
100
AcDbSpline
 62
7
  6
CONTINUOUS
 70
0
 71
3
 72
11
 73
7
 74
0
 42
0.0000001
 43
0.0000001
 44
0.0000000001
 40
0.0
 40
0.0
 40
0.0
 40
0.0
 40
0.3244482239
 40
0.595066058
 40
0.8178440508
 40
1.0
 40
1.0
 40
1.0
 40
1.0
 10
11.0351852896
 20
7.3733195422
 30
0.0
 10
11.0344950624
 20
7.3640187896
 30
0.0
 10
11.0328133267
 20
7.3469845171
 30
0.0
 10
11.0288426641
 20
7.3237852876
 30
0.0
 10
11.0237439607
 20
7.3050129558
 30
0.0
 10
11.0192376081
 20
7.2942202543
 30
0.0
 10
11.0167654463
 20
7.2896044926
 30
0.0
  0
SPLINE
  5
25F
100
AcDbEntity
  8
0
100
AcDbSpline
 62
7
  6
CONTINUOUS
 70
0
 71
3
 72
23
 73
19
 74
0
 42
0.0000001
 43
0.0000001
 44
0.0000000001
 40
0.0
 40
0.0
 40
0.0
 40
0.0
 40
0.1885754563
 40
0.3631618438
 40
0.5209078281
 40
0.5929998613
 40
0.6603804913
 40
0.7228930732
 40
0.7803277485
 40
0.8324226099
 40
0.87885067
 40
0.9192115494
 40
0.9369869266
 40
0.9530869783
 40
0.9674649798
 40
0.9800829082
 40
0.9909237558
 40
1.0
 40
1.0
 40
1.0
 40
1.0
 10
10.3395294155
 20
12.3084997907
 30
0.0
 10
10.3901541002
 20
11.9991647666
 30
0.0
 10
10.4867165739
 20
11.403289003
 30
0.0
 10
10.6222462586
 20
10.5481070108
 30
0.0
 10
10.7248712372
 20
9.8837497064
 30
0.0
 10
10.7983834191
 20
9.39521208
 30
0.0
 10
10.8473610768
 20
9.0630631884
 30
0.0
 10
10.8916478656
 20
8.7548513015
 30
0.0
 10
10.9309700249
 20
8.4715979641
 30
0.0
 10
10.9650074588
 20
8.2146068449
 30
0.0
 10
10.9932871286
 20
7.985489581
 30
0.0
 10
11.0123290934
 20
7.8127191819
 30
0.0
 10
11.0238665551
 20
7.6898613211
 30
0.0
 10
11.0302811775
 20
7.6099081371
 30
0.0
 10
11.0347532316
 20
7.5384092104
 30
0.0
 10
11.0372020203
 20
7.4755559423
 30
0.0
 10
11.0375704006
 20
7.4214677484
 30
0.0
 10
11.0363073994
 20
7.38836429
 30
0.0
 10
11.0351852896
 20
7.3733195422
 30
0.0
  0
SPLINE
  5
260
100
AcDbEntity
  8
0
100
AcDbSpline
 62
7
  6
CONTINUOUS
 70
0
 71
3
 72
16
 73
12
 74
0
 42
0.0000001
 43
0.0000001
 44
0.0000000001
 40
0.0
 40
0.0
 40
0.0
 40
0.0
 40
0.127623184
 40
0.1903021019
 40
0.2521447287
 40
0.3739686251
 40
0.4947038611
 40
0.6160470527
 40
0.7397198512
 40
0.8673973491
 40
1.0
 40
1.0
 40
1.0
 40
1.0
 10
12.6588325528
 20
6.1575023609
 30
0.0
 10
12.6953087616
 20
6.1556948988
 30
0.0
 10
12.7501658132
 20
6.1584312081
 30
0.0
 10
12.8210060039
 20
6.1725557039
 30
0.0
 10
12.8885729933
 20
6.1930112332
 30
0.0
 10
12.9680541673
 20
6.2299390407
 30
0.0
 10
13.0536326325
 20
6.2901457136
 30
0.0
 10
13.1284271363
 20
6.364001916
 30
0.0
 10
13.1920378945
 20
6.4501149534
 30
0.0
 10
13.2437630551
 20
6.5474674163
 30
0.0
 10
13.2690197989
 20
6.6178601647
 30
0.0
 10
13.2792729125
 20
6.6543945996
 30
0.0
  0
SPLINE
  5
261
100
AcDbEntity
  8
0
100
AcDbSpline
 62
7
  6
CONTINUOUS
 70
0
 71
3
 72
10
 73
6
 74
0
 42
0.0000001
 43
0.0000001
 44
0.0000000001
 40
0.0
 40
0.0
 40
0.0
 40
0.0
 40
0.2501818025
 40
0.500393569
 40
1.0
 40
1.0
 40
1.0
 40
1.0
 10
13.2792729125
 20
6.6543945996
 30
0.0
 10
13.2931742066
 20
6.7037942666
 30
0.0
 10
13.3198934892
 20
6.8029052023
 30
0.0
 10
13.3706324881
 20
7.0016577393
 30
0.0
 10
13.4066599828
 20
7.151191743
 30
0.0
 10
13.4301931473
 20
7.2509345353
 30
0.0
  0
SPLINE
  5
262
100
AcDbEntity
  8
0
100
AcDbSpline
 62
7
  6
CONTINUOUS
 70
0
 71
3
 72
26
 73
22
 74
0
 42
0.0000001
 43
0.0000001
 44
0.0000000001
 40
0.0
 40
0.0
 40
0.0
 40
0.0
 40
0.2295967868
 40
0.4309962915
 40
0.5207556627
 40
0.6030328355
 40
0.6777392916
 40
0.7448098519
 40
0.8041795254
 40
0.855783474
 40
0.8995643534
 40
0.9354812563
 40
0.9504788486
 40
0.9634963487
 40
0.9745293624
 40
0.983573886
 40
0.9906282439
 40
0.9956958562
 40
0.9987879243
 40
0.9996091423
 40
1.0
 40
1.0
 40
1.0
 40
1.0
 10
10.9879659194
 20
7.2509345805
 30
0.0
 10
10.9723454728
 20
7.2509676259
 30
0.0
 10
10.9430230091
 20
7.2510576514
 30
0.0
 10
10.9075941679
 20
7.2512462847
 30
0.0
 10
10.8821883564
 20
7.2514345339
 30
0.0
 10
10.8654020026
 20
7.2515842427
 30
0.0
 10
10.8501594639
 20
7.2517465962
 30
0.0
 10
10.8364756603
 20
7.2519203739
 30
0.0
 10
10.8243639094
 20
7.252104314
 30
0.0
 10
10.8138370246
 20
7.2522969905
 30
0.0
 10
10.8049061845
 20
7.2524971581
 30
0.0
 10
10.798466153
 20
7.2526774256
 30
0.0
 10
10.7941191089
 20
7.2528289036
 30
0.0
 10
10.7914648656
 20
7.2529365186
 30
0.0
 10
10.7892152318
 20
7.2530449354
 30
0.0
 10
10.7873741596
 20
7.2531530699
 30
0.0
 10
10.785933706
 20
7.2532617768
 30
0.0
 10
10.7849137291
 20
7.2533651709
 30
0.0
 10
10.784292258
 20
7.2534629797
 30
0.0
 10
10.784027065
 20
7.2535399601
 30
0.0
 10
10.7839424221
 20
7.2535921374
 30
0.0
 10
10.7839401349
 20
7.2536186307
 30
0.0
  0
SPLINE
  5
263
100
AcDbEntity
  8
0
100
AcDbSpline
 62
7
  6
CONTINUOUS
 70
0
 71
3
 72
10
 73
6
 74
0
 42
0.0000001
 43
0.0000001
 44
0.0000000001
 40
0.0
 40
0.0
 40
0.0
 40
0.0
 40
0.4996064509
 40
0.7498181721
 40
1.0
 40
1.0
 40
1.0
 40
1.0
 10
10.9879659194
 20
7.2509345805
 30
0.0
 10
11.0114991504
 20
7.1511917928
 30
0.0
 10
11.0475264214
 20
7.0016577295
 30
0.0
 10
11.0982656644
 20
6.8029052399
 30
0.0
 10
11.1249849165
 20
6.7037942949
 30
0.0
 10
11.1388861417
 20
6.6543945996
 30
0.0
  0
SPLINE
  5
264
100
AcDbEntity
  8
0
100
AcDbSpline
 62
7
  6
CONTINUOUS
 70
0
 71
3
 72
16
 73
12
 74
0
 42
0.0000001
 43
0.0000001
 44
0.0000000001
 40
0.0
 40
0.0
 40
0.0
 40
0.0
 40
0.132613349
 40
0.2602830571
 40
0.383955272
 40
0.5053020494
 40
0.6260393922
 40
0.7478625627
 40
0.8097037918
 40
0.8723792357
 40
1.0
 40
1.0
 40
1.0
 40
1.0
 10
11.1388861417
 20
6.6543945996
 30
0.0
 10
11.1491691225
 20
6.6178654404
 30
0.0
 10
11.1743526935
 20
6.5474489744
 30
0.0
 10
11.2261158847
 20
6.4501080353
 30
0.0
 10
11.2897451585
 20
6.3640157803
 30
0.0
 10
11.3645223009
 20
6.2901400255
 30
0.0
 10
11.4501105912
 20
6.2299418683
 30
0.0
 10
11.5295951555
 20
6.1930240144
 30
0.0
 10
11.5971596422
 20
6.1725669804
 30
0.0
 10
11.667994783
 20
6.1584305143
 30
0.0
 10
11.7228513888
 20
6.1556879197
 30
0.0
 10
11.7593265014
 20
6.1575023609
 30
0.0
  0
LINE
  5
265
100
AcDbEntity
  8
0
100
AcDbLine
 62
7
  6
CONTINUOUS
 10
14.3447388113
 20
12.817222466
 11
14.3631378108
 21
12.9303647615
  0
SPLINE
  5
266
100
AcDbEntity
  8
0
100
AcDbSpline
 62
7
  6
CONTINUOUS
 70
0
 71
3
 72
11
 73
7
 74
0
 42
0.0000001
 43
0.0000001
 44
0.0000000001
 40
0.0
 40
0.0
 40
0.0
 40
0.0
 40
0.2886725642
 40
0.559985648
 40
0.8008903713
 40
1.0
 40
1.0
 40
1.0
 40
1.0
 10
10.264111816
 20
12.8347126368
 30
0.0
 10
10.2725231149
 20
12.7842505816
 30
0.0
 10
10.2883607999
 20
12.6862805164
 30
0.0
 10
10.3095270768
 20
12.5459309124
 30
0.0
 10
10.3266764588
 20
12.4210390716
 30
0.0
 10
10.3359231931
 20
12.343601046
 30
0.0
 10
10.3395294155
 20
12.3084997907
 30
0.0
  0
SPLINE
  5
267
100
AcDbEntity
  8
0
100
AcDbSpline
 62
7
  6
CONTINUOUS
 70
0
 71
3
 72
38
 73
34
 74
0
 42
0.0000001
 43
0.0000001
 44
0.0000000001
 40
0.0
 40
0.0
 40
0.0
 40
0.0
 40
0.1122262697
 40
0.2194138926
 40
0.3210684498
 40
0.4168652131
 40
0.5063942323
 40
0.5893219884
 40
0.6653380727
 40
0.7341552938
 40
0.7955067841
 40
0.8233113424
 40
0.8491667263
 40
0.8730460302
 40
0.8949222025
 40
0.9147701266
 40
0.9325730934
 40
0.9483167263
 40
0.9619869395
 40
0.9735728123
 40
0.9785814046
 40
0.9830656661
 40
0.9870245369
 40
0.9904569764
 40
0.9933620364
 40
0.9957392456
 40
0.9975884763
 40
0.998315189
 40
0.9989101172
 40
0.9993735725
 40
0.9997063107
 40
0.9999106665
 40
1.0
 40
1.0
 40
1.0
 40
1.0
 10
17.5103159081
 20
12.8421908335
 30
0.0
 10
17.6022980766
 20
12.8428975202
 30
0.0
 10
17.7821225333
 20
12.8453563897
 30
0.0
 10
18.0452662464
 20
12.8482412535
 30
0.0
 10
18.2949464606
 20
12.8508309214
 30
0.0
 10
18.5301545093
 20
12.8531940032
 30
0.0
 10
18.750016603
 20
12.855146737
 30
0.0
 10
18.9536677125
 20
12.856790297
 30
0.0
 10
19.1403441778
 20
12.8581701385
 30
0.0
 10
19.3093367684
 20
12.8593676623
 30
0.0
 10
19.4388145143
 20
12.8602647549
 30
0.0
 10
19.5330802634
 20
12.8608727959
 30
0.0
 10
19.5966332429
 20
12.8612493285
 30
0.0
 10
19.6553274478
 20
12.861549183
 30
0.0
 10
19.7090980761
 20
12.8617594887
 30
0.0
 10
19.7578886141
 20
12.8618670107
 30
0.0
 10
19.8016528184
 20
12.861870031
 30
0.0
 10
19.8403534312
 20
12.8617688565
 30
0.0
 10
19.8739577842
 20
12.8615607841
 30
0.0
 10
19.8987625658
 20
12.8612957773
 30
0.0
 10
19.9160375082
 20
12.8610323798
 30
0.0
 10
19.9270611357
 20
12.8608260183
 30
0.0
 10
19.9367923147
 20
12.860603346
 30
0.0
 10
19.9452282526
 20
12.8603664143
 30
0.0
 10
19.9523671246
 20
12.8601178717
 30
0.0
 10
19.9582061481
 20
12.8598589935
 30
0.0
 10
19.9622605652
 20
12.8596209522
 30
0.0
 10
19.9648496263
 20
12.859416802
 30
0.0
 10
19.9663097655
 20
12.859270551
 30
0.0
 10
19.9674308648
 20
12.8591333913
 30
0.0
 10
19.9682621337
 20
12.8589737176
 30
0.0
 10
19.9687152355
 20
12.8588665333
 30
0.0
 10
19.9689809449
 20
12.8587084409
 30
0.0
 10
19.9689755588
 20
12.8586354182
 30
0.0
  0
SPLINE
  5
268
100
AcDbEntity
  8
0
100
AcDbSpline
 62
7
  6
CONTINUOUS
 70
0
 71
3
 72
14
 73
10
 74
0
 42
0.0000001
 43
0.0000001
 44
0.0000000001
 40
0.0
 40
0.0
 40
0.0
 40
0.0
 40
0.2635014799
 40
0.3925412266
 40
0.5193849682
 40
0.6437765034
 40
0.7655134649
 40
0.884412636
 40
1.0
 40
1.0
 40
1.0
 40
1.0
 10
14.3447388113
 20
12.817222466
 30
0.0
 10
14.6227899978
 20
12.818481019
 30
0.0
 10
15.03700465
 20
12.8206976114
 30
0.0
 10
15.5850622535
 20
12.8242916364
 30
0.0
 10
15.9863282498
 20
12.8272291989
 30
0.0
 10
16.3798864663
 20
12.8303483005
 30
0.0
 10
16.7650588225
 20
12.8337708929
 30
0.0
 10
17.1409315662
 20
12.8380422298
 30
0.0
 10
17.3883511004
 20
12.8409640932
 30
0.0
 10
17.5103159081
 20
12.8421908335
 30
0.0
  0
LINE
  5
269
100
AcDbEntity
  8
0
100
AcDbLine
 62
7
  6
CONTINUOUS
 10
10.0550212434
 20
12.9303647615
 11
10.0734200708
 21
12.8172213168
  0
LINE
  5
26A
100
AcDbEntity
  8
0
100
AcDbLine
 62
7
  6
CONTINUOUS
 10
10.245572024
 20
12.9463363939
 11
10.264111816
 21
12.8347126368
  0
SPLINE
  5
26B
100
AcDbEntity
  8
0
100
AcDbSpline
 62
7
  6
CONTINUOUS
 70
0
 71
3
 72
16
 73
12
 74
0
 42
0.0000001
 43
0.0000001
 44
0.0000000001
 40
0.0
 40
0.0
 40
0.0
 40
0.0
 40
0.1637850142
 40
0.2611510527
 40
0.3761593602
 40
0.4442264074
 40
0.5195122802
 40
0.5978201196
 40
0.677405651
 40
0.8382532747
 40
1.0
 40
1.0
 40
1.0
 40
1.0
 10
10.1594474966
 20
13.6094276526
 30
0.0
 10
10.1615944932
 20
13.5729645821
 30
0.0
 10
10.1657887924
 20
13.5148670891
 30
0.0
 10
10.1735243595
 20
13.4313339893
 30
0.0
 10
10.1803997607
 20
13.3691650373
 30
0.0
 10
10.1878646461
 20
13.3120304993
 30
0.0
 10
10.1950023373
 20
13.2631141487
 30
0.0
 10
10.2028121238
 20
13.2117018706
 30
0.0
 10
10.2137841141
 20
13.1414700919
 30
0.0
 10
10.2280149632
 20
13.0529144974
 30
0.0
 10
10.2396767108
 20
12.9819230473
 30
0.0
 10
10.245572024
 20
12.9463363939
 30
0.0
  0
LINE
  5
26C
100
AcDbEntity
  8
0
100
AcDbLine
 62
7
  6
CONTINUOUS
 10
10.6229995639
 20
13.8809407734
 11
10.1623407598
 21
13.9107828475
  0
SPLINE
  5
26D
100
AcDbEntity
  8
0
100
AcDbSpline
 62
7
  6
CONTINUOUS
 70
0
 71
3
 72
16
 73
12
 74
0
 42
0.0000001
 43
0.0000001
 44
0.0000000001
 40
0.0
 40
0.0
 40
0.0
 40
0.0
 40
0.1375944107
 40
0.2016389355
 40
0.2633262836
 40
0.382519271
 40
0.4996619934
 40
0.6178580692
 40
0.7395883506
 40
0.8666809874
 40
1.0
 40
1.0
 40
1.0
 40
1.0
 10
11.1834659961
 20
6.7056399588
 30
0.0
 10
11.1924728882
 20
6.678086286
 30
0.0
 10
11.2096183876
 20
6.6388525603
 30
0.0
 10
11.238581549
 20
6.591479309
 30
0.0
 10
11.2692878865
 20
6.549937533
 30
0.0
 10
11.3127063164
 20
6.5041714479
 30
0.0
 10
11.3724007055
 20
6.4587610217
 30
0.0
 10
11.4389864306
 20
6.4230933261
 30
0.0
 10
11.512319846
 20
6.3975739052
 30
0.0
 10
11.5918932315
 20
6.3833805713
 30
0.0
 10
11.6470241251
 20
6.3823677156
 30
0.0
 10
11.6750601592
 20
6.3840703381
 30
0.0
  0
SPLINE
  5
26E
100
AcDbEntity
  8
0
100
AcDbSpline
 62
7
  6
CONTINUOUS
 70
0
 71
3
 72
34
 73
30
 74
0
 42
0.0000001
 43
0.0000001
 44
0.0000000001
 40
0.0
 40
0.0
 40
0.0
 40
0.0
 40
0.0014069583
 40
0.0023531141
 40
0.0034943297
 40
0.0048401316
 40
0.0063930574
 40
0.0101128062
 40
0.0146253349
 40
0.0198926293
 40
0.0258760113
 40
0.0325354915
 40
0.0477490284
 40
0.0652854993
 40
0.0849434242
 40
0.1065494134
 40
0.1299567073
 40
0.1550366678
 40
0.1816787654
 40
0.2097861695
 40
0.2700813814
 40
0.3353840723
 40
0.4052851157
 40
0.4794737705
 40
0.5577051549
 40
0.6397609479
 40
0.7254199379
 40
0.8143712345
 40
1.0
 40
1.0
 40
1.0
 40
1.0
 10
11.1834659961
 20
6.7056399588
 30
0.0
 10
11.1864425481
 20
6.707050419
 30
0.0
 10
11.1901306671
 20
6.7117558003
 30
0.0
 10
11.193191475
 20
6.7192720993
 30
0.0
 10
11.1952875382
 20
6.7270745148
 30
0.0
 10
11.1968943938
 20
6.7363949813
 30
0.0
 10
11.1985538898
 20
6.7518114546
 30
0.0
 10
11.199341085
 20
6.7747280409
 30
0.0
 10
11.198768015
 20
6.8063331602
 30
0.0
 10
11.1968044732
 20
6.8431898989
 30
0.0
 10
11.1935755889
 20
6.884997139
 30
0.0
 10
11.1874596289
 20
6.9499264807
 30
0.0
 10
11.1770642821
 20
7.0416067884
 30
0.0
 10
11.1616153295
 20
7.1633234991
 30
0.0
 10
11.1430975839
 20
7.2997308854
 30
0.0
 10
11.1218973538
 20
7.4496410182
 30
0.0
 10
11.0982984389
 20
7.6120304028
 30
0.0
 10
11.072543298
 20
7.7860195
 30
0.0
 10
11.044808802
 20
7.9708384803
 30
0.0
 10
11.004446799
 20
8.237127509
 30
0.0
 10
10.9499331579
 20
8.5928130326
 30
0.0
 10
10.8800053275
 20
9.0451208958
 30
0.0
 10
10.8046616482
 20
9.5295035003
 30
0.0
 10
10.7243696035
 20
10.0437475354
 30
0.0
 10
10.6394385764
 20
10.5860673692
 30
0.0
 10
10.5501329109
 20
11.1548824861
 30
0.0
 10
10.4567447842
 20
11.7484603654
 30
0.0
 10
10.3253966752
 20
12.5815225884
 30
0.0
 10
10.2249370115
 20
13.2164419669
 30
0.0
 10
10.15675314
 20
13.6456340364
 30
0.0
  0
LINE
  5
26F
100
AcDbEntity
  8
0
100
AcDbLine
 62
7
  6
CONTINUOUS
 10
20.6748100191
 20
13.9073081848
 11
17.9284890958
 21
13.9073094572
  0
SPLINE
  5
270
100
AcDbEntity
  8
0
100
AcDbSpline
 62
7
  6
CONTINUOUS
 70
0
 71
3
 72
10
 73
6
 74
0
 42
0.0000001
 43
0.0000001
 44
0.0000000001
 40
0.0
 40
0.0
 40
0.0
 40
0.0
 40
0.5319244056
 40
0.7763244866
 40
1.0
 40
1.0
 40
1.0
 40
1.0
 10
10.1427478827
 20
13.8413681738
 30
0.0
 10
10.145366057
 20
13.8066709553
 30
0.0
 10
10.1483580015
 20
13.7559721649
 30
0.0
 10
10.1525046047
 20
13.6906903818
 30
0.0
 10
10.1551226136
 20
13.6601746454
 30
0.0
 10
10.15675314
 20
13.6456340364
 30
0.0
  0
SPLINE
  5
271
100
AcDbEntity
  8
0
100
AcDbSpline
 62
7
  6
CONTINUOUS
 70
0
 71
3
 72
15
 73
11
 74
0
 42
0.0000001
 43
0.0000001
 44
0.0000000001
 40
0.0
 40
0.0
 40
0.0
 40
0.0
 40
0.0777182044
 40
0.1164447275
 40
0.1573704579
 40
0.2514740084
 40
0.3673084843
 40
0.504113155
 40
0.6579843724
 40
1.0
 40
1.0
 40
1.0
 40
1.0
 10
10.1623407598
 20
13.9107828475
 30
0.0
 10
10.160291502
 20
13.9109208688
 30
0.0
 10
10.1571076761
 20
13.9105408267
 30
0.0
 10
10.1533990553
 20
13.9085807154
 30
0.0
 10
10.1499293921
 20
13.9055131447
 30
0.0
 10
10.1464759616
 20
13.8996962868
 30
0.0
 10
10.1438663598
 20
13.8908702806
 30
0.0
 10
10.1423124173
 20
13.8802144994
 30
0.0
 10
10.1414789898
 20
13.8635008033
 30
0.0
 10
10.1420696363
 20
13.8503813202
 30
0.0
 10
10.1427478827
 20
13.8413681738
 30
0.0
  0
SPLINE
  5
272
100
AcDbEntity
  8
0
100
AcDbSpline
 62
7
  6
CONTINUOUS
 70
0
 71
3
 72
20
 73
16
 74
0
 42
0.0000001
 43
0.0000001
 44
0.0000000001
 40
0.0
 40
0.0
 40
0.0
 40
0.0
 40
0.0725002176
 40
0.1443292082
 40
0.215072177
 40
0.2844295035
 40
0.4184188893
 40
0.5462201772
 40
0.6679965274
 40
0.726717396
 40
0.784009211
 40
0.839908361
 40
0.8944713164
 40
0.947790999
 40
1.0
 40
1.0
 40
1.0
 40
1.0
 10
17.3329486076
 20
12.3515167285
 30
0.0
 10
17.3020718235
 20
12.201105259
 30
0.0
 10
17.2321061445
 20
11.9033405876
 30
0.0
 10
17.1023292882
 20
11.4664665646
 30
0.0
 10
16.9495548773
 20
11.044129293
 30
0.0
 10
16.7201052758
 20
10.5106132489
 30
0.0
 10
16.385928451
 20
9.8918859452
 30
0.0
 10
15.9149545638
 20
9.2276228688
 30
0.0
 10
15.472745852
 20
8.7445674709
 30
0.0
 10
15.09745721
 20
8.4082630431
 30
0.0
 10
14.8103388984
 20
8.1838909678
 30
0.0
 10
14.5154313701
 20
7.9852136249
 30
0.0
 10
14.213918858
 20
7.8130230436
 30
0.0
 10
13.9067929293
 20
7.6685383426
 30
0.0
 10
13.6967703564
 20
7.5910360419
 30
0.0
 10
13.5913113186
 20
7.5577968647
 30
0.0
  0
SPLINE
  5
273
100
AcDbEntity
  8
0
100
AcDbSpline
 62
7
  6
CONTINUOUS
 70
0
 71
3
 72
38
 73
34
 74
0
 42
0.0000001
 43
0.0000001
 44
0.0000000001
 40
0.0
 40
0.0
 40
0.0
 40
0.0
 40
0.1125743194
 40
0.2200120352
 40
0.3218736122
 40
0.4177673967
 40
0.5073620923
 40
0.5903295877
 40
0.6663365979
 40
0.7350476013
 40
0.7961780479
 40
0.8238487503
 40
0.8495657342
 40
0.8733109733
 40
0.8950672847
 40
0.9148200004
 40
0.9325549219
 40
0.9482578561
 40
0.9619146177
 40
0.97351073
 40
0.9785308963
 40
0.9830295356
 40
0.9870044528
 40
0.9904534619
 40
0.9933743915
 40
0.9957650987
 40
0.9976235014
 40
0.9983524838
 40
0.9989477014
 40
0.9994090131
 40
0.9997365588
 40
0.9999313579
 40
1.0
 40
1.0
 40
1.0
 40
1.0
 10
17.3331260602
 20
12.3515074883
 30
0.0
 10
17.4189827016
 20
12.3520496109
 30
0.0
 10
17.5867785965
 20
12.353089147
 30
0.0
 10
17.8322613064
 20
12.3545501838
 30
0.0
 10
18.0650226384
 20
12.355878476
 30
0.0
 10
18.284175967
 20
12.357072382
 30
0.0
 10
18.488919662
 20
12.3581276484
 30
0.0
 10
18.6784966005
 20
12.3590412458
 30
0.0
 10
18.8521464459
 20
12.359807475
 30
0.0
 10
19.0091420762
 20
12.3604197687
 30
0.0
 10
19.1292730627
 20
12.3608098643
 30
0.0
 10
19.2166136281
 20
12.3610390435
 30
0.0
 10
19.2754413492
 20
12.3611664002
 30
0.0
 10
19.3297583388
 20
12.3612555585
 30
0.0
 10
19.3795265386
 20
12.3613069485
 30
0.0
 10
19.4247108061
 20
12.3613206593
 30
0.0
 10
19.4652782714
 20
12.3612968112
 30
0.0
 10
19.5011964233
 20
12.361235668
 30
0.0
 10
19.5324325197
 20
12.3611373798
 30
0.0
 10
19.5555209328
 20
12.3610204319
 30
0.0
 10
19.5716244796
 20
12.3609035389
 30
0.0
 10
19.5819154633
 20
12.3608107293
 30
0.0
 10
19.5910080744
 20
12.3607086345
 30
0.0
 10
19.5988969699
 20
12.3605973338
 30
0.0
 10
19.6055779714
 20
12.3604771335
 30
0.0
 10
19.6110436323
 20
12.3603483716
 30
0.0
 10
19.6148414801
 20
12.3602271153
 30
0.0
 10
19.6172619538
 20
12.3601208187
 30
0.0
 10
19.6186311152
 20
12.3600440796
 30
0.0
 10
19.6196597961
 20
12.3599708953
 30
0.0
 10
19.6204606607
 20
12.3598868174
 30
0.0
 10
19.6208109165
 20
12.3598279705
 30
0.0
 10
19.6211044059
 20
12.3597509916
 30
0.0
 10
19.6210913081
 20
12.3597003045
 30
0.0
  0
LINE
  5
274
100
AcDbEntity
  8
0
100
AcDbLine
 62
7
  6
CONTINUOUS
 10
20.5639423049
 20
13.790883056
 11
17.866552381
 21
13.790883056
  0
SPLINE
  5
275
100
AcDbEntity
  8
0
100
AcDbSpline
 62
7
  6
CONTINUOUS
 70
0
 71
3
 72
11
 73
7
 74
0
 42
0.0000001
 43
0.0000001
 44
0.0000000001
 40
0.0
 40
0.0
 40
0.0
 40
0.0
 40
0.1849746174
 40
0.40832306
 40
0.6777525818
 40
1.0
 40
1.0
 40
1.0
 40
1.0
 10
13.612834305
 20
7.4765704313
 30
0.0
 10
13.6100507677
 20
7.4809912192
 30
0.0
 10
13.6048494445
 20
7.4913516883
 30
0.0
 10
13.5988052179
 20
7.5095629572
 30
0.0
 10
13.594057116
 20
7.5321252618
 30
0.0
 10
13.5920544992
 20
7.5487337598
 30
0.0
 10
13.5912439502
 20
7.5577986244
 30
0.0
  0
SPLINE
  5
276
100
AcDbEntity
  8
0
100
AcDbSpline
 62
7
  6
CONTINUOUS
 70
0
 71
3
 72
11
 73
7
 74
0
 42
0.0000001
 43
0.0000001
 44
0.0000000001
 40
0.0
 40
0.0
 40
0.0
 40
0.0
 40
0.1821574091
 40
0.4049349599
 40
0.675557826
 40
1.0
 40
1.0
 40
1.0
 40
1.0
 10
13.4013935911
 20
7.2896044216
 30
0.0
 10
13.3989214181
 20
7.2942201687
 30
0.0
 10
13.3944152468
 20
7.3050128594
 30
0.0
 10
13.3893163615
 20
7.323785123
 30
0.0
 10
13.3853460631
 20
7.3469841659
 30
0.0
 10
13.3836643667
 20
7.3640182283
 30
0.0
 10
13.3829738605
 20
7.3733186977
 30
0.0
  0
SPLINE
  5
277
100
AcDbEntity
  8
0
100
AcDbSpline
 62
7
  6
CONTINUOUS
 70
0
 71
3
 72
11
 73
7
 74
0
 42
0.0000001
 43
0.0000001
 44
0.0000000001
 40
0.0
 40
0.0
 40
0.0
 40
0.0
 40
0.2769012097
 40
0.5392331871
 40
0.7813238174
 40
1.0
 40
1.0
 40
1.0
 40
1.0
 10
7.0850271665
 20
12.3515357918
 30
0.0
 10
7.0831118491
 20
12.3629385374
 30
0.0
 10
7.078179565
 20
12.3849641135
 30
0.0
 10
7.0673413915
 20
12.4158305328
 30
0.0
 10
7.0534607741
 20
12.4427575004
 30
0.0
 10
7.0419356728
 20
12.4583238814
 30
0.0
 10
7.0357494893
 20
12.4650402735
 30
0.0
  0
SPLINE
  5
278
100
AcDbEntity
  8
0
100
AcDbSpline
 62
7
  6
CONTINUOUS
 70
0
 71
3
 72
11
 73
7
 74
0
 42
0.0000001
 43
0.0000001
 44
0.0000000001
 40
0.0
 40
0.0
 40
0.0
 40
0.0
 40
0.2043581401
 40
0.443968719
 40
0.7116766121
 40
1.0
 40
1.0
 40
1.0
 40
1.0
 10
10.1277054147
 20
12.457896733
 30
0.0
 10
10.1302031785
 20
12.4501871678
 30
0.0
 10
10.1346095059
 20
12.43310962
 30
0.0
 10
10.1396909734
 20
12.4053351147
 30
0.0
 10
10.1436561782
 20
12.3740188699
 30
0.0
 10
10.145408318
 20
12.3520302745
 30
0.0
 10
10.1460764601
 20
12.3406159756
 30
0.0
  0
SPLINE
  5
279
100
AcDbEntity
  8
0
100
AcDbSpline
 62
7
  6
CONTINUOUS
 70
0
 71
3
 72
37
 73
33
 74
0
 42
0.0000001
 43
0.0000001
 44
0.0000000001
 40
0.0
 40
0.0
 40
0.0
 40
0.0
 40
0.0000883035
 40
0.0002914032
 40
0.0006231732
 40
0.0010861243
 40
0.0024086467
 40
0.0042615155
 40
0.0066441799
 40
0.0095555688
 40
0.0129944436
 40
0.0169594883
 40
0.0214493457
 40
0.0264626359
 40
0.0380541297
 40
0.0517248772
 40
0.0674667262
 40
0.0852714594
 40
0.1051257895
 40
0.1270059315
 40
0.1508867597
 40
0.1767429528
 40
0.2045485999
 40
0.2659025562
 40
0.3347169585
 40
0.4107307833
 40
0.4936538255
 40
0.583176708
 40
0.6789653918
 40
0.7806106832
 40
0.8877875472
 40
1.0
 40
1.0
 40
1.0
 40
1.0
 10
4.4491821424
 20
12.8586249579
 30
0.0
 10
4.4491750371
 20
12.858696993
 30
0.0
 10
4.4494380079
 20
12.8588581079
 30
0.0
 10
4.449888629
 20
12.8589632202
 30
0.0
 10
4.4507173596
 20
12.8591248702
 30
0.0
 10
4.4524252842
 20
12.8593349347
 30
0.0
 10
4.4554088344
 20
12.8595895454
 30
0.0
 10
4.4599516924
 20
12.859858825
 30
0.0
 10
4.4658065223
 20
12.8601228492
 30
0.0
 10
4.4729600243
 20
12.8603741828
 30
0.0
 10
4.4814127202
 20
12.8606119456
 30
0.0
 10
4.4911597826
 20
12.8608336798
 30
0.0
 10
4.5021981727
 20
12.8610378941
 30
0.0
 10
4.519488066
 20
12.8612972158
 30
0.0
 10
4.5443044743
 20
12.8615563964
 30
0.0
 10
4.5779160055
 20
12.8617643354
 30
0.0
 10
4.6166211795
 20
12.8618727623
 30
0.0
 10
4.6603953297
 20
12.861872122
 30
0.0
 10
4.7092010491
 20
12.8617585213
 30
0.0
 10
4.7629871974
 20
12.8615462639
 30
0.0
 10
4.821692875
 20
12.8612466391
 30
0.0
 10
4.8852554976
 20
12.8608720092
 30
0.0
 10
4.9795349564
 20
12.8602649255
 30
0.0
 10
5.1090272108
 20
12.8593673325
 30
0.0
 10
5.2780357917
 20
12.8581668884
 30
0.0
 10
5.4647243048
 20
12.856789979
 30
0.0
 10
5.6683865174
 20
12.8551432434
 30
0.0
 10
5.8882567406
 20
12.853193683
 30
0.0
 10
6.1234707334
 20
12.850823352
 30
0.0
 10
6.3731548467
 20
12.8482445671
 30
0.0
 10
6.6362989103
 20
12.8453443233
 30
0.0
 10
6.8161226241
 20
12.8428921653
 30
0.0
 10
6.9081033625
 20
12.8421875133
 30
0.0
  0
SPLINE
  5
27A
100
AcDbEntity
  8
0
100
AcDbSpline
 62
7
  6
CONTINUOUS
 70
0
 71
3
 72
10
 73
6
 74
0
 42
0.0000001
 43
0.0000001
 44
0.0000000001
 40
0.0
 40
0.0
 40
0.0
 40
0.0
 40
0.2500249927
 40
0.5002908438
 40
1.0
 40
1.0
 40
1.0
 40
1.0
 10
13.2346928399
 20
6.7056393725
 30
0.0
 10
13.250148015
 20
6.7538395779
 30
0.0
 10
13.2797866244
 20
6.8506994505
 30
0.0
 10
13.3358912866
 20
7.0452233502
 30
0.0
 10
13.3755475068
 20
7.1917959195
 30
0.0
 10
13.4013935911
 20
7.2896044216
 30
0.0
  0
LINE
  5
27B
100
AcDbEntity
  8
0
100
AcDbLine
 62
7
  6
CONTINUOUS
 10
17.3821475903
 20
12.4650421221
 11
19.713358529
 21
12.4697068745
  0
SPLINE
  5
27C
100
AcDbEntity
  8
0
100
AcDbSpline
 62
7
  6
CONTINUOUS
 70
0
 71
3
 72
11
 73
7
 74
0
 42
0.0000001
 43
0.0000001
 44
0.0000000001
 40
0.0
 40
0.0
 40
0.0
 40
0.0
 40
0.2770893625
 40
0.5395106877
 40
0.7815491042
 40
1.0
 40
1.0
 40
1.0
 40
1.0
 10
17.3331252083
 20
12.3515078755
 30
0.0
 10
17.3350297265
 20
12.362912406
 30
0.0
 10
17.3399342689
 20
12.3849397753
 30
0.0
 10
17.3507140607
 20
12.4158122893
 30
0.0
 10
17.3645206786
 20
12.442744421
 30
0.0
 10
17.3759897226
 20
12.4583209283
 30
0.0
 10
17.3821475903
 20
12.4650421221
 30
0.0
  0
SPLINE
  5
27D
100
AcDbEntity
  8
0
100
AcDbSpline
 62
7
  6
CONTINUOUS
 70
0
 71
3
 72
11
 73
7
 74
0
 42
0.0000001
 43
0.0000001
 44
0.0000000001
 40
0.0
 40
0.0
 40
0.0
 40
0.0
 40
0.2882360699
 40
0.5558777445
 40
0.7954936605
 40
1.0
 40
1.0
 40
1.0
 40
1.0
 10
14.2720836381
 20
12.340619014
 30
0.0
 10
14.2727171014
 20
12.3520334391
 30
0.0
 10
14.2744166455
 20
12.3740236962
 30
0.0
 10
14.27835268
 20
12.4053430768
 30
0.0
 10
14.2834577601
 20
12.4331217229
 30
0.0
 10
14.2879186593
 20
12.4501959016
 30
0.0
 10
14.2904555253
 20
12.4579000825
 30
0.0
  0
SPLINE
  5
27E
100
AcDbEntity
  8
0
100
AcDbSpline
 62
7
  6
CONTINUOUS
 70
0
 71
3
 72
13
 73
9
 74
0
 42
0.0000001
 43
0.0000001
 44
0.0000000001
 40
0.0
 40
0.0
 40
0.0
 40
0.0
 40
0.2920043271
 40
0.5656880982
 40
0.6907994942
 40
0.8058405676
 40
0.9093137141
 40
1.0
 40
1.0
 40
1.0
 40
1.0
 10
10.0734219729
 20
12.8172213607
 30
0.0
 10
10.0815498414
 20
12.7827318336
 30
0.0
 10
10.0961594701
 20
12.7156433101
 30
0.0
 10
10.1108967468
 20
12.6330919206
 30
0.0
 10
10.1195538535
 20
12.5713358174
 30
0.0
 10
10.1241533422
 20
12.5298842729
 30
0.0
 10
10.1269782968
 20
12.4924617796
 30
0.0
 10
10.1277173964
 20
12.4688993868
 30
0.0
 10
10.1277089032
 20
12.4578947409
 30
0.0
  0
SPLINE
  5
27F
100
AcDbEntity
  8
0
100
AcDbSpline
 62
7
  6
CONTINUOUS
 70
0
 71
3
 72
12
 73
8
 74
0
 42
0.0000001
 43
0.0000001
 44
0.0000000001
 40
0.0
 40
0.0
 40
0.0
 40
0.0
 40
0.2790501009
 40
0.5438211289
 40
0.7857783135
 40
0.8966515829
 40
1.0
 40
1.0
 40
1.0
 40
1.0
 10
6.9080482943
 20
12.8421885011
 30
0.0
 10
6.909798186
 20
12.8045580917
 30
0.0
 10
6.9178569829
 20
12.7313339824
 30
0.0
 10
6.9436050931
 20
12.6280961776
 30
0.0
 10
6.9763486629
 20
12.5508809689
 30
0.0
 10
7.0086336819
 20
12.4983286474
 30
0.0
 10
7.0264553039
 20
12.4754452817
 30
0.0
 10
7.0357498867
 20
12.4650403346
 30
0.0
  0
SPLINE
  5
280
100
AcDbEntity
  8
0
100
AcDbSpline
 62
7
  6
CONTINUOUS
 70
0
 71
3
 72
9
 73
5
 74
0
 42
0.0000001
 43
0.0000001
 44
0.0000000001
 40
0.0
 40
0.0
 40
0.0
 40
0.0
 40
0.2279405579
 40
1.0
 40
1.0
 40
1.0
 40
1.0
 10
14.2587115576
 20
13.6094276526
 30
0.0
 10
14.2588737494
 20
13.6121815152
 30
0.0
 10
14.2596403841
 20
13.624259761
 30
0.0
 10
14.260598188
 20
13.6363253518
 30
0.0
 10
14.2614074238
 20
13.6456340388
 30
0.0
  0
SPLINE
  5
281
100
AcDbEntity
  8
0
100
AcDbSpline
 62
7
  6
CONTINUOUS
 70
0
 71
3
 72
12
 73
8
 74
0
 42
0.0000001
 43
0.0000001
 44
0.0000000001
 40
0.0
 40
0.0
 40
0.0
 40
0.0
 40
0.2789382987
 40
0.543678075
 40
0.785679277
 40
0.8965970512
 40
1.0
 40
1.0
 40
1.0
 40
1.0
 10
17.510672586
 20
12.8421943181
 30
0.0
 10
17.5088450571
 20
12.8045584995
 30
0.0
 10
17.5006313041
 20
12.731323543
 30
0.0
 10
17.4746598931
 20
12.6280853654
 30
0.0
 10
17.4417459063
 20
12.5508769702
 30
0.0
 10
17.4093422972
 20
12.4983287883
 30
0.0
 10
17.3914673814
 20
12.4754467549
 30
0.0
 10
17.3821479727
 20
12.4650421101
 30
0.0
  0
SPLINE
  5
282
100
AcDbEntity
  8
0
100
AcDbSpline
 62
7
  6
CONTINUOUS
 70
0
 71
3
 72
13
 73
9
 74
0
 42
0.0000001
 43
0.0000001
 44
0.0000000001
 40
0.0
 40
0.0
 40
0.0
 40
0.0
 40
0.0906872927
 40
0.194157844
 40
0.3091978647
 40
0.4343097243
 40
0.7079941211
 40
1.0
 40
1.0
 40
1.0
 40
1.0
 10
14.2904583966
 20
12.4578951817
 30
0.0
 10
14.2904483404
 20
12.4688999592
 30
0.0
 10
14.2911841286
 20
12.4924622966
 30
0.0
 10
14.294005582
 20
12.5298848016
 30
0.0
 10
14.2986039635
 20
12.5713361444
 30
0.0
 10
14.3072602599
 20
12.6330924001
 30
0.0
 10
14.321994737
 20
12.7156448466
 30
0.0
 10
14.3366119288
 20
12.7827319788
 30
0.0
 10
14.3447366364
 20
12.8172224795
 30
0.0
  0
SPLINE
  5
283
100
AcDbEntity
  8
0
100
AcDbSpline
 62
7
  6
CONTINUOUS
 70
0
 71
3
 72
9
 73
5
 74
0
 42
0.0000001
 43
0.0000001
 44
0.0000000001
 40
0.0
 40
0.0
 40
0.0
 40
0.0
 40
0.2300551953
 40
1.0
 40
1.0
 40
1.0
 40
1.0
 10
14.4792966614
 20
13.7908838903
 30
0.0
 10
14.4788891273
 20
13.7922456307
 30
0.0
 10
14.4772659528
 20
13.7982091652
 30
0.0
 10
14.4761907472
 20
13.8043133323
 30
0.0
 10
14.4755780674
 20
13.8090308812
 30
0.0
  0
SPLINE
  5
284
100
AcDbEntity
  8
0
100
AcDbSpline
 62
7
  6
CONTINUOUS
 70
0
 71
3
 72
10
 73
6
 74
0
 42
0.0000001
 43
0.0000001
 44
0.0000000001
 40
0.0
 40
0.0
 40
0.0
 40
0.0
 40
0.2065727256
 40
0.4441211139
 40
1.0
 40
1.0
 40
1.0
 40
1.0
 10
14.4755780674
 20
13.8090308812
 30
0.0
 10
14.4747046297
 20
13.8157937428
 30
0.0
 10
14.4723903185
 20
13.8302751502
 30
0.0
 10
14.4670883583
 20
13.8628450513
 30
0.0
 10
14.4642460316
 20
13.8889672569
 30
0.0
 10
14.4637524579
 20
13.9073103567
 30
0.0
  0
LINE
  5
285
100
AcDbEntity
  8
0
100
AcDbLine
 62
7
  6
CONTINUOUS
 10
17.9284887448
 20
13.9073095386
 11
14.4637524579
 21
13.9073103567
  0
SPLINE
  5
286
100
AcDbEntity
  8
0
100
AcDbSpline
 62
7
  6
CONTINUOUS
 70
0
 71
3
 72
24
 73
20
 74
0
 42
0.0000001
 43
0.0000001
 44
0.0000000001
 40
0.0
 40
0.0
 40
0.0
 40
0.0
 40
0.0091204666
 40
0.0200148617
 40
0.0326998268
 40
0.0471569473
 40
0.0633442284
 40
0.0812087801
 40
0.1217391052
 40
0.1683055522
 40
0.22049707
 40
0.2779769905
 40
0.340488148
 40
0.4078234398
 40
0.4798341718
 40
0.6373278882
 40
0.811637504
 40
0.9043402927
 40
1.0
 40
1.0
 40
1.0
 40
1.0
 10
13.5911956146
 20
7.5577833943
 30
0.0
 10
13.5896461984
 20
7.5723978318
 30
0.0
 10
13.5876900774
 20
7.6046214241
 30
0.0
 10
13.587402046
 20
7.6573253731
 30
0.0
 10
13.589403493
 20
7.7185947862
 30
0.0
 10
13.5936005047
 20
7.7882934668
 30
0.0
 10
13.5998516295
 20
7.8662123036
 30
0.0
 10
13.6112405295
 20
7.9858532461
 30
0.0
 10
13.6301665406
 20
8.1539317106
 30
0.0
 10
13.6581813821
 20
8.3766226083
 30
0.0
 10
13.6917683495
 20
8.6261297916
 30
0.0
 10
13.7303695765
 20
8.9008802908
 30
0.0
 10
13.7737083664
 20
9.1996036354
 30
0.0
 10
13.8215072144
 20
9.5213371526
 30
0.0
 10
13.8931463802
 20
9.9942576998
 30
0.0
 10
13.9931381124
 20
10.6372208654
 30
0.0
 10
14.1014051225
 20
11.312633116
 30
0.0
 10
14.1962484924
 20
11.8892809964
 30
0.0
 10
14.2463603552
 20
12.1886357515
 30
0.0
 10
14.2720689387
 20
12.3406188198
 30
0.0
  0
LINE
  5
287
100
AcDbEntity
  8
0
100
AcDbLine
 62
7
  6
CONTINUOUS
 10
6.4896699803
 20
13.9073094543
 11
3.7433257896
 21
13.9073097162
  0
SPLINE
  5
288
100
AcDbEntity
  8
0
100
AcDbSpline
 62
7
  6
CONTINUOUS
 70
0
 71
3
 72
9
 73
5
 74
0
 42
0.0000001
 43
0.0000001
 44
0.0000000001
 40
0.0
 40
0.0
 40
0.0
 40
0.0
 40
0.270372828
 40
1.0
 40
1.0
 40
1.0
 40
1.0
 10
9.9425809845
 20
13.8090308816
 30
0.0
 10
9.9423662617
 20
13.8073743036
 30
0.0
 10
9.9414704262
 20
13.8012620373
 30
0.0
 10
9.9401523014
 20
13.7952032296
 30
0.0
 10
9.9388623916
 20
13.7908838905
 30
0.0
  0
LINE
  5
289
100
AcDbEntity
  8
0
100
AcDbLine
 62
7
  6
CONTINUOUS
 10
9.9544066981
 20
13.9073104195
 11
6.4896703366
 21
13.9073095377
  0
SPLINE
  5
28A
100
AcDbEntity
  8
0
100
AcDbSpline
 62
7
  6
CONTINUOUS
 70
0
 71
3
 72
10
 73
6
 74
0
 42
0.0000001
 43
0.0000001
 44
0.0000000001
 40
0.0
 40
0.0
 40
0.0
 40
0.0
 40
0.5559998959
 40
0.7937580188
 40
1.0
 40
1.0
 40
1.0
 40
1.0
 10
9.9544066981
 20
13.9073104195
 30
0.0
 10
9.9539088763
 20
13.888963427
 30
0.0
 10
9.951058676
 20
13.8628321509
 30
0.0
 10
9.9457844405
 20
13.8302575538
 30
0.0
 10
9.9434649533
 20
13.815781368
 30
0.0
 10
9.9425809845
 20
13.8090308816
 30
0.0
  0
SPLINE
  5
28B
100
AcDbEntity
  8
0
100
AcDbSpline
 62
7
  6
CONTINUOUS
 70
0
 71
3
 72
20
 73
16
 74
0
 42
0.0000001
 43
0.0000001
 44
0.0000000001
 40
0.0
 40
0.0
 40
0.0
 40
0.0
 40
0.216310441
 40
0.4132809979
 40
0.5863369167
 40
0.7320320875
 40
0.8476449019
 40
0.8934831582
 40
0.9311179942
 40
0.9604241653
 40
0.9719395728
 40
0.9813817683
 40
0.9887832151
 40
0.9942106569
 40
1.0
 40
1.0
 40
1.0
 40
1.0
 10
14.4637523805
 20
13.9073102344
 30
0.0
 10
14.465001423
 20
13.9230177582
 30
0.0
 10
14.4674946506
 20
13.9530200124
 30
0.0
 10
14.4712651755
 20
13.9955649721
 30
0.0
 10
14.4746875471
 20
14.0329765336
 30
0.0
 10
14.4774453183
 20
14.0644972067
 30
0.0
 10
14.4792328865
 20
14.0868006272
 30
0.0
 10
14.4802047196
 20
14.10127025
 30
0.0
 10
14.480614013
 20
14.109477129
 30
0.0
 10
14.4807332767
 20
14.1151898883
 30
0.0
 10
14.4806258765
 20
14.118856282
 30
0.0
 10
14.4804838863
 20
14.1209058325
 30
0.0
 10
14.4802394649
 20
14.12254518
 30
0.0
 10
14.4799602657
 20
14.1237816355
 30
0.0
 10
14.479425207
 20
14.1247145544
 30
0.0
 10
14.4790034833
 20
14.1247141549
 30
0.0
  0
LINE
  5
28C
100
AcDbEntity
  8
0
100
AcDbLine
 62
7
  6
CONTINUOUS
 10
4.704791623
 20
12.469705259
 11
7.0357479483
 21
12.4650427198
  0
SPLINE
  5
28D
100
AcDbEntity
  8
0
100
AcDbSpline
 62
7
  6
CONTINUOUS
 70
0
 71
3
 72
20
 73
16
 74
0
 42
0.0000001
 43
0.0000001
 44
0.0000000001
 40
0.0
 40
0.0
 40
0.0
 40
0.0
 40
0.005789484
 40
0.0112169705
 40
0.0186183218
 40
0.0280603614
 40
0.0395756604
 40
0.0688818902
 40
0.1065169517
 40
0.1523558593
 40
0.2679712494
 40
0.4136676431
 40
0.586723288
 40
0.7836909607
 40
1.0
 40
1.0
 40
1.0
 40
1.0
 10
9.9391558469
 20
14.1247142621
 30
0.0
 10
9.9387341122
 20
14.1247146556
 30
0.0
 10
9.9381990115
 20
14.1237818101
 30
0.0
 10
9.9379194772
 20
14.1225454141
 30
0.0
 10
9.9376748199
 20
14.1209061129
 30
0.0
 10
9.9375326401
 20
14.1188565954
 30
0.0
 10
9.9374252054
 20
14.1151902081
 30
0.0
 10
9.9375451281
 20
14.1094774303
 30
0.0
 10
9.9379554123
 20
14.1012705247
 30
0.0
 10
9.9389284305
 20
14.0868007092
 30
0.0
 10
9.9407148307
 20
14.0644968475
 30
0.0
 10
9.9434706616
 20
14.0329756893
 30
0.0
 10
9.9468940101
 20
13.9955642992
 30
0.0
 10
9.9506648035
 20
13.9530196274
 30
0.0
 10
9.9531576512
 20
13.9230176077
 30
0.0
 10
9.9544067328
 20
13.9073101645
 30
0.0
  0
SPLINE
  5
28E
100
AcDbEntity
  8
0
100
AcDbSpline
 62
7
  6
CONTINUOUS
 70
0
 71
3
 72
11
 73
7
 74
0
 42
0.0000001
 43
0.0000001
 44
0.0000000001
 40
0.0
 40
0.0
 40
0.0
 40
0.0
 40
0.3347459224
 40
0.4799858406
 40
0.6104977632
 40
1.0
 40
1.0
 40
1.0
 40
1.0
 10
13.4301931307
 20
7.2509344889
 30
0.0
 10
13.425770056
 20
7.2542346632
 30
0.0
 10
13.4196258131
 20
7.2592413668
 30
0.0
 10
13.4125215427
 20
7.2664242827
 30
0.0
 10
13.4055498414
 20
7.2747495023
 30
0.0
 10
13.4010896748
 20
7.283189034
 30
0.0
 10
13.4013933407
 20
7.2896031372
 30
0.0
  0
SPLINE
  5
28F
100
AcDbEntity
  8
0
100
AcDbSpline
 62
7
  6
CONTINUOUS
 70
0
 71
3
 72
12
 73
8
 74
0
 42
0.0000001
 43
0.0000001
 44
0.0000000001
 40
0.0
 40
0.0
 40
0.0
 40
0.0
 40
0.3501660263
 40
0.6312843809
 40
0.7458031048
 40
0.8440040599
 40
1.0
 40
1.0
 40
1.0
 40
1.0
 10
13.2792729108
 20
6.6543945998
 30
0.0
 10
13.272457775
 20
6.6589330202
 30
0.0
 10
13.2604780105
 20
6.667592359
 30
0.0
 10
13.2475730816
 20
6.6794350874
 30
0.0
 10
13.2403885888
 20
6.6885343597
 30
0.0
 10
13.2360191033
 20
6.6959399778
 30
0.0
 10
13.2343671852
 20
6.7020066062
 30
0.0
 10
13.2346942443
 20
6.7056395973
 30
0.0
  0
SPLINE
  5
290
100
AcDbEntity
  8
0
100
AcDbSpline
 62
7
  6
CONTINUOUS
 70
0
 71
3
 72
16
 73
12
 74
0
 42
0.0000001
 43
0.0000001
 44
0.0000000001
 40
0.0
 40
0.0
 40
0.0
 40
0.0
 40
0.169263659
 40
0.3327847579
 40
0.4856791058
 40
0.6243865844
 40
0.7460502751
 40
0.8488920672
 40
0.8931215024
 40
0.932759806
 40
1.0
 40
1.0
 40
1.0
 40
1.0
 10
12.6588307756
 20
6.1575028204
 30
0.0
 10
12.6597745828
 20
6.1716017178
 30
0.0
 10
12.6624466085
 20
6.199273512
 30
0.0
 10
12.668770061
 20
6.2393498768
 30
0.0
 10
12.6772466153
 20
6.2764201055
 30
0.0
 10
12.6875660021
 20
6.309389928
 30
0.0
 10
12.6994602341
 20
6.3373389202
 30
0.0
 10
12.7108905361
 20
6.356769967
 30
0.0
 10
12.7207875898
 20
6.3688682873
 30
0.0
 10
12.7298945895
 20
6.3775908554
 30
0.0
 10
12.7377414845
 20
6.3823952683
 30
0.0
 10
12.7430989081
 20
6.3840708549
 30
0.0
  0
SPLINE
  5
291
100
AcDbEntity
  8
0
100
AcDbSpline
 62
7
  6
CONTINUOUS
 70
0
 71
3
 72
16
 73
12
 74
0
 42
0.0000001
 43
0.0000001
 44
0.0000000001
 40
0.0
 40
0.0
 40
0.0
 40
0.0
 40
0.1692614794
 40
0.3327803457
 40
0.4856727388
 40
0.6243789656
 40
0.7460425193
 40
0.8488856443
 40
0.8931163308
 40
0.9327562125
 40
1.0
 40
1.0
 40
1.0
 40
1.0
 10
11.7593265825
 20
6.1575023819
 30
0.0
 10
11.7583830526
 20
6.1716010285
 30
0.0
 10
11.7557115063
 20
6.1992723308
 30
0.0
 10
11.749388585
 20
6.2393479928
 30
0.0
 10
11.7409123857
 20
6.2764176014
 30
0.0
 10
11.7305932006
 20
6.3093869741
 30
0.0
 10
11.718699042
 20
6.337335793
 30
0.0
 10
11.7072687423
 20
6.3567669068
 30
0.0
 10
11.6973716937
 20
6.3688655455
 30
0.0
 10
11.6882645754
 20
6.3775886585
 30
0.0
 10
11.6804176696
 20
6.3823936448
 30
0.0
 10
11.6750601446
 20
6.3840697968
 30
0.0
  0
SPLINE
  5
292
100
AcDbEntity
  8
0
100
AcDbSpline
 62
7
  6
CONTINUOUS
 70
0
 71
3
 72
12
 73
8
 74
0
 42
0.0000001
 43
0.0000001
 44
0.0000000001
 40
0.0
 40
0.0
 40
0.0
 40
0.0
 40
0.3501883788
 40
0.6313291778
 40
0.7458528554
 40
0.8440504635
 40
1.0
 40
1.0
 40
1.0
 40
1.0
 10
11.1388720533
 20
6.6543930219
 30
0.0
 10
11.1456890876
 20
6.6589332873
 30
0.0
 10
11.1576726246
 20
6.6675955352
 30
0.0
 10
11.1705831575
 20
6.6794401402
 30
0.0
 10
11.1777726454
 20
6.6885399077
 30
0.0
 10
11.1821458193
 20
6.6959445241
 30
0.0
 10
11.1838019981
 20
6.7020103089
 30
0.0
 10
11.1834770027
 20
6.7056433258
 30
0.0
  0
SPLINE
  5
293
100
AcDbEntity
  8
0
100
AcDbSpline
 62
7
  6
CONTINUOUS
 70
0
 71
3
 72
11
 73
7
 74
0
 42
0.0000001
 43
0.0000001
 44
0.0000000001
 40
0.0
 40
0.0
 40
0.0
 40
0.0
 40
0.3895015071
 40
0.5200135778
 40
0.6652537433
 40
1.0
 40
1.0
 40
1.0
 40
1.0
 10
11.0167657001
 20
7.2896032877
 30
0.0
 10
11.0170693668
 20
7.2831891942
 30
0.0
 10
11.0126091688
 20
7.2747496851
 30
0.0
 10
11.005637489
 20
7.2664244525
 30
0.0
 10
10.9985332335
 20
7.2592414992
 30
0.0
 10
10.9923889985
 20
7.2542347651
 30
0.0
 10
10.9879659228
 20
7.2509345793
 30
0.0
  0
SPLINE
  5
294
100
AcDbEntity
  8
0
100
AcDbSpline
 62
7
  6
CONTINUOUS
 70
0
 71
3
 72
18
 73
14
 74
0
 42
0.0000001
 43
0.0000001
 44
0.0000000001
 40
0.0
 40
0.0
 40
0.0
 40
0.0
 40
0.1975806084
 40
0.3828993899
 40
0.5504433783
 40
0.6961001106
 40
0.8162935556
 40
0.8659383507
 40
0.9081770706
 40
0.9427331097
 40
0.9694953981
 40
0.9884723541
 40
1.0
 40
1.0
 40
1.0
 40
1.0
 10
14.3447388114
 20
12.8172224667
 30
0.0
 10
14.3322280198
 20
12.8191172714
 30
0.0
 10
14.3079639042
 20
12.8226658195
 30
0.0
 10
14.2730276854
 20
12.8273757521
 30
0.0
 10
14.2413320062
 20
12.8312172046
 30
0.0
 10
14.2137253541
 20
12.8340962809
 30
0.0
 10
14.1935833709
 20
12.8357416356
 30
0.0
 10
14.1800209762
 20
12.8364641588
 30
0.0
 10
14.1719231599
 20
12.8366973767
 30
0.0
 10
14.1652966548
 20
12.836656185
 30
0.0
 10
14.160141098
 20
12.8363581499
 30
0.0
 10
14.1565472063
 20
12.835810698
 30
0.0
 10
14.1546133726
 20
12.8351878173
 30
0.0
 10
14.1540474199
 20
12.8347137745
 30
0.0
  0
SPLINE
  5
295
100
AcDbEntity
  8
0
100
AcDbSpline
 62
7
  6
CONTINUOUS
 70
0
 71
3
 72
18
 73
14
 74
0
 42
0.0000001
 43
0.0000001
 44
0.0000000001
 40
0.0
 40
0.0
 40
0.0
 40
0.0
 40
0.19768034
 40
0.3830606082
 40
0.5506362573
 40
0.6963013231
 40
0.8164847598
 40
0.8661182906
 40
0.908341431
 40
0.9428766222
 40
0.9696103075
 40
0.9885450048
 40
1.0
 40
1.0
 40
1.0
 40
1.0
 10
14.3629129281
 20
12.9287894606
 30
0.0
 10
14.3504192286
 20
12.9306693021
 30
0.0
 10
14.3261909299
 20
12.9341920877
 30
0.0
 10
14.2913104409
 20
12.9388754261
 30
0.0
 10
14.2596715152
 20
12.9427035918
 30
0.0
 10
14.2321192618
 20
12.9455827086
 30
0.0
 10
14.2120200667
 20
12.9472394516
 30
0.0
 10
14.1984884217
 20
12.9479789752
 30
0.0
 10
14.1904104665
 20
12.948227262
 30
0.0
 10
14.183801529
 20
12.9482036665
 30
0.0
 10
14.1786611397
 20
12.9479267544
 30
0.0
 10
14.1750811368
 20
12.947400552
 30
0.0
 10
14.1731532267
 20
12.9468005322
 30
0.0
 10
14.1725870298
 20
12.946336394
 30
0.0
  0
SPLINE
  5
296
100
AcDbEntity
  8
0
100
AcDbSpline
 62
7
  6
CONTINUOUS
 70
0
 71
3
 72
11
 73
7
 74
0
 42
0.0000001
 43
0.0000001
 44
0.0000000001
 40
0.0
 40
0.0
 40
0.0
 40
0.0
 40
0.2621459563
 40
0.516842303
 40
0.7621617187
 40
1.0
 40
1.0
 40
1.0
 40
1.0
 10
14.4792966738
 20
13.790883784
 30
0.0
 10
14.4526946795
 20
13.7887515902
 30
0.0
 10
14.4005059395
 20
13.776935466
 30
0.0
 10
14.332264975
 20
13.7375014467
 30
0.0
 10
14.2815740946
 20
13.6802096482
 30
0.0
 10
14.2632322374
 20
13.6332145952
 30
0.0
 10
14.2587115636
 20
13.6094276516
 30
0.0
  0
SPLINE
  5
297
100
AcDbEntity
  8
0
100
AcDbSpline
 62
7
  6
CONTINUOUS
 70
0
 71
3
 72
14
 73
10
 74
0
 42
0.0000001
 43
0.0000001
 44
0.0000000001
 40
0.0
 40
0.0
 40
0.0
 40
0.0
 40
0.270341801
 40
0.401293763
 40
0.528268129
 40
0.6511696186
 40
0.7703208768
 40
0.8863776057
 40
1.0
 40
1.0
 40
1.0
 40
1.0
 10
14.4755781633
 20
13.809030277
 30
0.0
 10
14.4496656991
 20
13.8070210093
 30
0.0
 10
14.4112789118
 20
13.7989874309
 30
0.0
 10
14.3647994202
 20
13.7781885438
 30
0.0
 10
14.3338470614
 20
13.7583440696
 30
0.0
 10
14.3073084425
 20
13.7345610969
 30
0.0
 10
14.2858208852
 20
13.7074262781
 30
0.0
 10
14.2700639392
 20
13.6776131704
 30
0.0
 10
14.2635497068
 20
13.6563450251
 30
0.0
 10
14.2614042793
 20
13.6456343002
 30
0.0
  0
SPLINE
  5
298
100
AcDbEntity
  8
0
100
AcDbSpline
 62
7
  6
CONTINUOUS
 70
0
 71
3
 72
13
 73
9
 74
0
 42
0.0000001
 43
0.0000001
 44
0.0000000001
 40
0.0
 40
0.0
 40
0.0
 40
0.0
 40
0.3076917685
 40
0.5840920617
 40
0.7062462307
 40
0.816386697
 40
0.9141840046
 40
1.0
 40
1.0
 40
1.0
 40
1.0
 10
14.4637565007
 20
13.907301514
 30
0.0
 10
14.4428332319
 20
13.9061175293
 30
0.0
 10
14.4032034986
 20
13.901645718
 30
0.0
 10
14.3562995702
 20
13.8900602257
 30
0.0
 10
14.3240608115
 20
13.8772265625
 30
0.0
 10
14.3041506023
 20
13.8666614021
 30
0.0
 10
14.2878340434
 20
13.8549719651
 30
0.0
 10
14.2789838479
 20
13.8459943927
 30
0.0
 10
14.2754118287
 20
13.8413680137
 30
0.0
  0
SPLINE
  5
299
100
AcDbEntity
  8
0
100
AcDbSpline
 62
7
  6
CONTINUOUS
 70
0
 71
3
 72
14
 73
10
 74
0
 42
0.0000001
 43
0.0000001
 44
0.0000000001
 40
0.0
 40
0.0
 40
0.0
 40
0.0
 40
0.1191181289
 40
0.2394591681
 40
0.3612281243
 40
0.4849417641
 40
0.6109377282
 40
0.739260149
 40
1.0
 40
1.0
 40
1.0
 40
1.0
 10
14.4790034044
 20
14.1247123825
 30
0.0
 10
14.4656300262
 20
14.1247125273
 30
0.0
 10
14.4386779805
 20
14.1219980128
 30
0.0
 10
14.3996333912
 20
14.1101613413
 30
0.0
 10
14.3631522966
 20
14.0907478768
 30
0.0
 10
14.3304053113
 20
14.0645538849
 30
0.0
 10
14.3024150427
 20
14.0323373338
 30
0.0
 10
14.272423514
 20
13.9826605072
 30
0.0
 10
14.2596349114
 20
13.9398062272
 30
0.0
 10
14.255817201
 20
13.9107830089
 30
0.0
  0
SPLINE
  5
29A
100
AcDbEntity
  8
0
100
AcDbSpline
 62
7
  6
CONTINUOUS
 70
0
 71
3
 72
14
 73
10
 74
0
 42
0.0000001
 43
0.0000001
 44
0.0000000001
 40
0.0
 40
0.0
 40
0.0
 40
0.0
 40
0.1191163614
 40
0.2394562719
 40
0.3612247856
 40
0.4849386388
 40
0.6109352473
 40
0.7392585362
 40
1.0
 40
1.0
 40
1.0
 40
1.0
 10
9.939155847
 20
14.1247168028
 30
0.0
 10
9.9525290893
 20
14.1247168709
 30
0.0
 10
9.9794809236
 20
14.1220020467
 30
0.0
 10
10.0185251108
 20
14.1101646436
 30
0.0
 10
10.0550057878
 20
14.0907503057
 30
0.0
 10
10.0877524059
 20
14.0645554874
 30
0.0
 10
10.1157424902
 20
14.032338287
 30
0.0
 10
10.1457341966
 20
13.9826608738
 30
0.0
 10
10.1585236597
 20
13.9398065136
 30
0.0
 10
10.1623423145
 20
13.9107830988
 30
0.0
  0
SPLINE
  5
29B
100
AcDbEntity
  8
0
100
AcDbSpline
 62
7
  6
CONTINUOUS
 70
0
 71
3
 72
13
 73
9
 74
0
 42
0.0000001
 43
0.0000001
 44
0.0000000001
 40
0.0
 40
0.0
 40
0.0
 40
0.0
 40
0.3077147128
 40
0.5841155647
 40
0.7062634807
 40
0.8163958689
 40
0.9141862159
 40
1.0
 40
1.0
 40
1.0
 40
1.0
 10
9.9544083968
 20
13.9073140092
 30
0.0
 10
9.9753302228
 20
13.9061293023
 30
0.0
 10
10.0149557711
 20
13.9016557886
 30
0.0
 10
10.0618531539
 20
13.8900664592
 30
0.0
 10
10.0940841683
 20
13.8772289827
 30
0.0
 10
10.1139877511
 20
13.8666611082
 30
0.0
 10
10.1302974111
 20
13.8549688059
 30
0.0
 10
10.1391423798
 20
13.8459893678
 30
0.0
 10
10.1427118175
 20
13.8413622304
 30
0.0
  0
SPLINE
  5
29C
100
AcDbEntity
  8
0
100
AcDbSpline
 62
7
  6
CONTINUOUS
 70
0
 71
3
 72
14
 73
10
 74
0
 42
0.0000001
 43
0.0000001
 44
0.0000000001
 40
0.0
 40
0.0
 40
0.0
 40
0.0
 40
0.2703417317
 40
0.4012935458
 40
0.5282677375
 40
0.6511690885
 40
0.7703203264
 40
0.8863772166
 40
1.0
 40
1.0
 40
1.0
 40
1.0
 10
9.942580935
 20
13.8090305695
 30
0.0
 10
9.9684932407
 20
13.8070213005
 30
0.0
 10
10.0068797846
 20
13.7989876989
 30
0.0
 10
10.0533588736
 20
13.77818872
 30
0.0
 10
10.0843108829
 20
13.7583441728
 30
0.0
 10
10.110849121
 20
13.7345611297
 30
0.0
 10
10.132336287
 20
13.7074262556
 30
0.0
 10
10.1480928612
 20
13.6776131157
 30
0.0
 10
10.1546068709
 20
13.6563449846
 30
0.0
 10
10.1567522056
 20
13.6456342678
 30
0.0
  0
SPLINE
  5
29D
100
AcDbEntity
  8
0
100
AcDbSpline
 62
7
  6
CONTINUOUS
 70
0
 71
3
 72
11
 73
7
 74
0
 42
0.0000001
 43
0.0000001
 44
0.0000000001
 40
0.0
 40
0.0
 40
0.0
 40
0.0
 40
0.2621459537
 40
0.5168422939
 40
0.7621617091
 40
1.0
 40
1.0
 40
1.0
 40
1.0
 10
9.9388624044
 20
13.7908840571
 30
0.0
 10
9.9654644149
 20
13.7887518533
 30
0.0
 10
10.0176531838
 20
13.7769356974
 30
0.0
 10
10.0858941659
 20
13.7375016055
 30
0.0
 10
10.1365850298
 20
13.6802097239
 30
0.0
 10
10.1549268483
 20
13.633214618
 30
0.0
 10
10.1594474962
 20
13.6094276525
 30
0.0
  0
SPLINE
  5
29E
100
AcDbEntity
  8
0
100
AcDbSpline
 62
7
  6
CONTINUOUS
 70
0
 71
3
 72
18
 73
14
 74
0
 42
0.0000001
 43
0.0000001
 44
0.0000000001
 40
0.0
 40
0.0
 40
0.0
 40
0.0
 40
0.1976478207
 40
0.3829961835
 40
0.5505437421
 40
0.6961875341
 40
0.8163599682
 40
0.8659933148
 40
0.9082209041
 40
0.9427665924
 40
0.9695191643
 40
0.98848609
 40
1.0
 40
1.0
 40
1.0
 40
1.0
 10
10.0552444139
 20
12.9289918673
 30
0.0
 10
10.0677360746
 20
12.9308737434
 30
0.0
 10
10.0919608365
 20
12.9343973438
 30
0.0
 10
10.1268375165
 20
12.939072534
 30
0.0
 10
10.1584742347
 20
12.9428837927
 30
0.0
 10
10.1860260074
 20
12.9457385216
 30
0.0
 10
10.2061260213
 20
12.9473684478
 30
0.0
 10
10.2196590283
 20
12.9480827599
 30
0.0
 10
10.2277387322
 20
12.9483122837
 30
0.0
 10
10.2343500502
 20
12.9482694477
 30
0.0
 10
10.2394933967
 20
12.9479720179
 30
0.0
 10
10.2430781494
 20
12.9474268483
 30
0.0
 10
10.2450071217
 20
12.9468080375
 30
0.0
 10
10.245572024
 20
12.9463363939
 30
0.0
  0
SPLINE
  5
29F
100
AcDbEntity
  8
0
100
AcDbSpline
 62
7
  6
CONTINUOUS
 70
0
 71
3
 72
18
 73
14
 74
0
 42
0.0000001
 43
0.0000001
 44
0.0000000001
 40
0.0
 40
0.0
 40
0.0
 40
0.0
 40
0.1975850857
 40
0.3829073354
 40
0.5504534649
 40
0.6961108814
 40
0.8163035075
 40
0.8659473499
 40
0.9081847759
 40
0.9427391978
 40
0.969499584
 40
0.9884744292
 40
1.0
 40
1.0
 40
1.0
 40
1.0
 10
10.0734227291
 20
12.8172216902
 30
0.0
 10
10.0859334547
 20
12.819116468
 30
0.0
 10
10.1101973956
 20
12.8226649589
 30
0.0
 10
10.1451332774
 20
12.8273748017
 30
0.0
 10
10.1768284701
 20
12.8312161528
 30
0.0
 10
10.2044344777
 20
12.8340951162
 30
0.0
 10
10.2245758298
 20
12.8357403706
 30
0.0
 10
10.2381376489
 20
12.8364628066
 30
0.0
 10
10.2462349939
 20
12.8366959609
 30
0.0
 10
10.2528609982
 20
12.83665471
 30
0.0
 10
10.2580160604
 20
12.8363566148
 30
0.0
 10
10.2616094192
 20
12.8358091241
 30
0.0
 10
10.2635429464
 20
12.8351861819
 30
0.0
 10
10.264108667
 20
12.8347121014
 30
0.0
  0
SPLINE
  5
2A0
100
AcDbEntity
  8
0
100
AcDbSpline
 62
7
  6
CONTINUOUS
 70
0
 71
3
 72
13
 73
9
 74
0
 42
0.0000001
 43
0.0000001
 44
0.0000000001
 40
0.0
 40
0.0
 40
0.0
 40
0.0
 40
0.2507578769
 40
0.3765080106
 40
0.5018312489
 40
0.6269000582
 40
0.7519054914
 40
1.0
 40
1.0
 40
1.0
 40
1.0
 10
13.591195635
 20
7.557783709
 30
0.0
 10
13.5668178385
 20
7.5544139391
 30
0.0
 10
13.5306965267
 20
7.5438237937
 30
0.0
 10
13.4874249272
 20
7.5200508331
 30
0.0
 10
13.4579487339
 20
7.497589994
 30
0.0
 10
13.4321458451
 20
7.4710898737
 30
0.0
 10
13.403583123
 20
7.4312601836
 30
0.0
 10
13.3889881983
 20
7.3969016676
 30
0.0
 10
13.382974477
 20
7.3733077995
 30
0.0
  0
SPLINE
  5
2A1
100
AcDbEntity
  8
0
100
AcDbSpline
 62
7
  6
CONTINUOUS
 70
0
 71
3
 72
11
 73
7
 74
0
 42
0.0000001
 43
0.0000001
 44
0.0000000001
 40
0.0
 40
0.0
 40
0.0
 40
0.0
 40
0.2334638538
 40
0.4776397486
 40
0.734319545
 40
1.0
 40
1.0
 40
1.0
 40
1.0
 10
13.6128343608
 20
7.4765704334
 30
0.0
 10
13.5889729402
 20
7.4725042322
 30
0.0
 10
13.5413876744
 20
7.4543797446
 30
0.0
 10
13.4836381277
 20
7.4024926557
 30
0.0
 10
13.4441036747
 20
7.3321826149
 30
0.0
 10
13.4320160639
 20
7.2784197018
 30
0.0
 10
13.4301931307
 20
7.2509344889
 30
0.0
  0
SPLINE
  5
2A2
100
AcDbEntity
  8
0
100
AcDbSpline
 62
7
  6
CONTINUOUS
 70
0
 71
3
 72
11
 73
7
 74
0
 42
0.0000001
 43
0.0000001
 44
0.0000000001
 40
0.0
 40
0.0
 40
0.0
 40
0.0
 40
0.2334636904
 40
0.4776395567
 40
0.7343194384
 40
1.0
 40
1.0
 40
1.0
 40
1.0
 10
10.8053247202
 20
7.4765704327
 30
0.0
 10
10.8291861112
 20
7.4725042313
 30
0.0
 10
10.8767713271
 20
7.4543797407
 30
0.0
 10
10.9345208231
 20
7.4024926765
 30
0.0
 10
10.974055291
 20
7.3321826776
 30
0.0
 10
10.9861429594
 20
7.2784197875
 30
0.0
 10
10.9879659228
 20
7.2509345793
 30
0.0
  0
SPLINE
  5
2A3
100
AcDbEntity
  8
0
100
AcDbSpline
 62
7
  6
CONTINUOUS
 70
0
 71
3
 72
13
 73
9
 74
0
 42
0.0000001
 43
0.0000001
 44
0.0000000001
 40
0.0
 40
0.0
 40
0.0
 40
0.0
 40
0.2507614183
 40
0.3765127357
 40
0.5018364155
 40
0.6269049396
 40
0.7519094356
 40
1.0
 40
1.0
 40
1.0
 40
1.0
 10
10.8269152056
 20
7.5577988119
 30
0.0
 10
10.8512976532
 20
7.5544335791
 30
0.0
 10
10.8874269418
 20
7.5438485158
 30
0.0
 10
10.9307091936
 20
7.5200786467
 30
0.0
 10
10.9601929261
 20
7.4976183683
 30
0.0
 10
10.9860025553
 20
7.4711172139
 30
0.0
 10
11.0145725771
 20
7.4312844136
 30
0.0
 10
11.0291710804
 20
7.3969216512
 30
0.0
 10
11.0351858731
 20
7.3733247402
 30
0.0
  0
SPLINE
  5
2A4
100
AcDbEntity
  8
0
100
AcDbSpline
 62
7
  6
CONTINUOUS
 70
0
 71
3
 72
14
 73
10
 74
0
 42
0.0000001
 43
0.0000001
 44
0.0000000001
 40
0.0
 40
0.0
 40
0.0
 40
0.0
 40
0.2783304239
 40
0.4123819369
 40
0.5417021811
 40
0.6651925886
 40
0.7822449574
 40
0.8934579297
 40
1.0
 40
1.0
 40
1.0
 40
1.0
 10
10.1276990799
 20
12.4579162822
 30
0.0
 10
10.1532879601
 20
12.4561482553
 30
0.0
 10
10.1911153242
 20
12.4484941605
 30
0.0
 10
10.2371917508
 20
12.4289922361
 30
0.0
 10
10.2677987884
 20
12.4104333076
 30
0.0
 10
10.2940067835
 20
12.3884235926
 30
0.0
 10
10.3152010608
 20
12.3636809454
 30
0.0
 10
10.3308378036
 20
12.3368835216
 30
0.0
 10
10.337412399
 20
12.3177439011
 30
0.0
 10
10.3395687365
 20
12.3081650969
 30
0.0
  0
SPLINE
  5
2A5
100
AcDbEntity
  8
0
100
AcDbSpline
 62
7
  6
CONTINUOUS
 70
0
 71
3
 72
18
 73
14
 74
0
 42
0.0000001
 43
0.0000001
 44
0.0000000001
 40
0.0
 40
0.0
 40
0.0
 40
0.0
 40
0.030728949
 40
0.0637859655
 40
0.1002759647
 40
0.1410505495
 40
0.2373659258
 40
0.2933307896
 40
0.3544772408
 40
0.4918945539
 40
0.6474798274
 40
0.8179949069
 40
1.0
 40
1.0
 40
1.0
 40
1.0
 10
10.3395687365
 20
12.3081650969
 30
0.0
 10
10.3388839439
 20
12.3101475707
 30
0.0
 10
10.3369224943
 20
12.3140902251
 30
0.0
 10
10.3325481034
 20
12.3194134329
 30
0.0
 10
10.3267356025
 20
12.3242584867
 30
0.0
 10
10.3165659628
 20
12.3303996168
 30
0.0
 10
10.3041450948
 20
12.3351035112
 30
0.0
 10
10.2900145848
 20
12.3386572475
 30
0.0
 10
10.2728817308
 20
12.341628285
 30
0.0
 10
10.2487747679
 20
12.3437946785
 30
0.0
 10
10.2171311089
 20
12.34454019
 30
0.0
 10
10.1824517361
 20
12.3435086846
 30
0.0
 10
10.1584471099
 20
12.3417560334
 30
0.0
 10
10.1460759995
 20
12.3406238427
 30
0.0
  0
SPLINE
  5
2A6
100
AcDbEntity
  8
0
100
AcDbSpline
 62
7
  6
CONTINUOUS
 70
0
 71
3
 72
15
 73
11
 74
0
 42
0.0000001
 43
0.0000001
 44
0.0000000001
 40
0.0
 40
0.0
 40
0.0
 40
0.0
 40
0.3526984191
 40
0.5083424974
 40
0.6459128234
 40
0.7629922289
 40
0.8592828385
 40
0.9002035408
 40
0.9368457529
 40
1.0
 40
1.0
 40
1.0
 40
1.0
 10
14.2720841759
 20
12.340628704
 30
0.0
 10
14.24812621
 20
12.3428086576
 30
0.0
 10
14.2134469794
 20
12.3448041859
 30
0.0
 10
14.1693830828
 20
12.3438235787
 30
0.0
 10
14.1414733261
 20
12.341304347
 30
0.0
 10
14.1179519877
 20
12.3365703828
 30
0.0
 10
14.101580976
 20
12.3304531838
 30
0.0
 10
14.0914216486
 20
12.3242475403
 30
0.0
 10
14.0840539484
 20
12.3180854019
 30
0.0
 10
14.0800148554
 20
12.3122574389
 30
0.0
 10
14.078598244
 20
12.3081893956
 30
0.0
  0
SPLINE
  5
2A7
100
AcDbEntity
  8
0
100
AcDbSpline
 62
7
  6
CONTINUOUS
 70
0
 71
3
 72
13
 73
9
 74
0
 42
0.0000001
 43
0.0000001
 44
0.0000000001
 40
0.0
 40
0.0
 40
0.0
 40
0.0
 40
0.1065101572
 40
0.2178946773
 40
0.3349234595
 40
0.4585910816
 40
0.7214750501
 40
1.0
 40
1.0
 40
1.0
 40
1.0
 10
14.078598244
 20
12.3081893956
 30
0.0
 10
14.0807545654
 20
12.3177574479
 30
0.0
 10
14.0873454772
 20
12.3368859737
 30
0.0
 10
14.102941134
 20
12.3636947449
 30
0.0
 10
14.1241864442
 20
12.3884006244
 30
0.0
 10
14.1597709964
 20
12.4184137211
 30
0.0
 10
14.2153769024
 20
12.4461794938
 30
0.0
 10
14.2648728487
 20
12.4561615102
 30
0.0
 10
14.2904608238
 20
12.457916171
 30
0.0
  0
SPLINE
  5
2A8
100
AcDbEntity
  8
0
100
AcDbSpline
 62
7
  6
CONTINUOUS
 70
0
 71
3
 72
13
 73
9
 74
0
 42
0.0000001
 43
0.0000001
 44
0.0000000001
 40
0.0
 40
0.0
 40
0.0
 40
0.0
 40
0.3098642909
 40
0.5878347308
 40
0.708245343
 40
0.8154458964
 40
0.9113883292
 40
1.0
 40
1.0
 40
1.0
 40
1.0
 10
18.3290562005
 20
14.1826199013
 30
0.0
 10
18.3289109703
 20
14.1751327715
 30
0.0
 10
18.3271621303
 20
14.1609244881
 30
0.0
 10
18.3212527494
 20
14.1446046647
 30
0.0
 10
18.3143356955
 20
14.1344515737
 30
0.0
 10
18.3086324106
 20
14.1289963239
 30
0.0
 10
18.302375459
 20
14.1255519897
 30
0.0
 10
18.2978899941
 20
14.1247138711
 30
0.0
 10
18.2957485021
 20
14.1247138711
 30
0.0
  0
SPLINE
  5
2A9
100
AcDbEntity
  8
0
100
AcDbSpline
 62
7
  6
CONTINUOUS
 70
0
 71
3
 72
22
 73
18
 74
0
 42
0.0000001
 43
0.0000001
 44
0.0000000001
 40
0.0
 40
0.0
 40
0.0
 40
0.0
 40
0.0800338741
 40
0.1598917531
 40
0.2394487279
 40
0.3184665816
 40
0.3965006407
 40
0.4728006874
 40
0.5457984541
 40
0.6137398255
 40
0.6455516577
 40
0.6759413041
 40
0.7329222848
 40
0.7854087996
 40
0.8339903724
 40
0.9218814845
 40
1.0
 40
1.0
 40
1.0
 40
1.0
 10
14.3631475409
 20
12.9303647971
 30
0.0
 10
14.3666370977
 20
12.9532672699
 30
0.0
 10
14.3735687405
 20
12.9990280201
 30
0.0
 10
14.3836364419
 20
13.0676045203
 30
0.0
 10
14.3933836097
 20
13.1359304112
 30
0.0
 10
14.4026070069
 20
13.2037963345
 30
0.0
 10
14.4113292947
 20
13.2707778255
 30
0.0
 10
14.419501002
 20
13.3360723165
 30
0.0
 10
14.4271774002
 20
13.3984856714
 30
0.0
 10
14.4341070221
 20
13.4480104204
 30
0.0
 10
14.4396513613
 20
13.4852715733
 30
0.0
 10
14.4447519912
 20
13.5193912934
 30
0.0
 10
14.4506353145
 20
13.5594448702
 30
0.0
 10
14.4571701493
 20
13.6047253353
 30
0.0
 10
14.4644851258
 20
13.6589312955
 30
0.0
 10
14.4720004915
 20
13.7205940914
 30
0.0
 10
14.47706903
 20
13.7683814335
 30
0.0
 10
14.4792966785
 20
13.7908838062
 30
0.0
  0
SPLINE
  5
2AA
100
AcDbEntity
  8
0
100
AcDbSpline
 62
7
  6
CONTINUOUS
 70
0
 71
3
 72
13
 73
9
 74
0
 42
0.0000001
 43
0.0000001
 44
0.0000000001
 40
0.0
 40
0.0
 40
0.0
 40
0.0
 40
0.3098642744
 40
0.5878346969
 40
0.7082453147
 40
0.8154458793
 40
0.911388325
 40
1.0
 40
1.0
 40
1.0
 40
1.0
 10
6.0891028536
 20
14.1826199013
 30
0.0
 10
6.0892480839
 20
14.1751327719
 30
0.0
 10
6.0909969233
 20
14.1609244893
 30
0.0
 10
6.0969063041
 20
14.1446046668
 30
0.0
 10
6.1038233572
 20
14.1344515752
 30
0.0
 10
6.109526643
 20
14.1289963254
 30
0.0
 10
6.1157835948
 20
14.1255519903
 30
0.0
 10
6.12026906
 20
14.1247138711
 30
0.0
 10
6.1224105521
 20
14.1247138711
 30
0.0
  0
SPLINE
  5
2AB
100
AcDbEntity
  8
0
100
AcDbSpline
 62
7
  6
CONTINUOUS
 70
0
 71
3
 72
13
 73
9
 74
0
 42
0.0000001
 43
0.0000001
 44
0.0000000001
 40
0.0
 40
0.0
 40
0.0
 40
0.0
 40
0.3087008333
 40
0.5882934615
 40
0.7094409205
 40
0.8168534436
 40
0.9123595782
 40
1.0
 40
1.0
 40
1.0
 40
1.0
 10
6.0817318706
 20
14.5626199013
 30
0.0
 10
6.0815788742
 20
14.5705073966
 30
0.0
 10
6.0829289066
 20
14.5856049698
 30
0.0
 10
6.0886581891
 20
14.6030773728
 30
0.0
 10
6.0956908884
 20
14.6140800839
 30
0.0
 10
6.1015764632
 20
14.6200191036
 30
0.0
 10
6.1080920904
 20
14.6237878014
 30
0.0
 10
6.1127998813
 20
14.6247138711
 30
0.0
 10
6.115039569
 20
14.6247138711
 30
0.0
  0
SPLINE
  5
2AC
100
AcDbEntity
  8
0
100
AcDbSpline
 62
7
  6
CONTINUOUS
 70
0
 71
3
 72
11
 73
7
 74
0
 42
0.0000001
 43
0.0000001
 44
0.0000000001
 40
0.0
 40
0.0
 40
0.0
 40
0.0
 40
0.3222484571
 40
0.5916764663
 40
0.8150254012
 40
1.0
 40
1.0
 40
1.0
 40
1.0
 10
10.8269151041
 20
7.5577986247
 30
0.0
 10
10.8261047303
 20
7.5487337131
 30
0.0
 10
10.8241021078
 20
7.5321252112
 30
0.0
 10
10.8193538445
 20
7.5095629448
 30
0.0
 10
10.8133096761
 20
7.491351679
 30
0.0
 10
10.8081082823
 20
7.4809912304
 30
0.0
 10
10.8053247618
 20
7.4765704313
 30
0.0
  0
SPLINE
  5
2AD
100
AcDbEntity
  8
0
100
AcDbSpline
 62
7
  6
CONTINUOUS
 70
0
 71
3
 72
18
 73
14
 74
0
 42
0.0000001
 43
0.0000001
 44
0.0000000001
 40
0.0
 40
0.0
 40
0.0
 40
0.0
 40
0.2215429691
 40
0.416986384
 40
0.5853360787
 40
0.7257758154
 40
0.8378201005
 40
0.883055362
 40
0.9210435134
 40
0.9517566084
 40
0.9751673726
 40
0.9912504798
 40
1.0
 40
1.0
 40
1.0
 40
1.0
 10
10.8053247618
 20
7.4765704313
 30
0.0
 10
10.7882367249
 20
7.4765980919
 30
0.0
 10
10.7560737877
 20
7.4766721885
 30
0.0
 10
10.7109259545
 20
7.4768483151
 30
0.0
 10
10.6720340477
 20
7.4770707204
 30
0.0
 10
10.6395753228
 20
7.4773296046
 30
0.0
 10
10.6166128798
 20
7.4775818572
 30
0.0
 10
10.6015532424
 20
7.4778068064
 30
0.0
 10
10.5927663035
 20
7.4779663079
 30
0.0
 10
10.5856639869
 20
7.4781326894
 30
0.0
 10
10.5802496258
 20
7.4782892112
 30
0.0
 10
10.576535111
 20
7.4784646065
 30
0.0
 10
10.5746190964
 20
7.4785747163
 30
0.0
 10
10.573951866
 20
7.4786759622
 30
0.0
  0
SPLINE
  5
2AE
100
AcDbEntity
  8
0
100
AcDbSpline
 62
7
  6
CONTINUOUS
 70
0
 71
3
 72
13
 73
9
 74
0
 42
0.0000001
 43
0.0000001
 44
0.0000000001
 40
0.0
 40
0.0
 40
0.0
 40
0.0
 40
0.3087008175
 40
0.5882934294
 40
0.7094408934
 40
0.816853427
 40
0.9123595742
 40
1.0
 40
1.0
 40
1.0
 40
1.0
 10
18.3364271837
 20
14.5626199013
 30
0.0
 10
18.33658018
 20
14.5705073962
 30
0.0
 10
18.3352301482
 20
14.5856049686
 30
0.0
 10
18.3295008658
 20
14.6030773706
 30
0.0
 10
18.3224681673
 20
14.6140800823
 30
0.0
 10
18.3165825916
 20
14.6200191021
 30
0.0
 10
18.3100669643
 20
14.6237878008
 30
0.0
 10
18.305359173
 20
14.6247138711
 30
0.0
 10
18.3031194852
 20
14.6247138711
 30
0.0
  0
LINE
  5
2AF
100
AcDbEntity
  8
0
100
AcDbLine
 62
7
  6
CONTINUOUS
 10
17.8665524732
 20
13.7908831425
 11
14.4792963959
 21
13.7908831425
  0
SPLINE
  5
2B0
100
AcDbEntity
  8
0
100
AcDbSpline
 62
7
  6
CONTINUOUS
 70
0
 71
3
 72
20
 73
16
 74
0
 42
0.0000001
 43
0.0000001
 44
0.0000000001
 40
0.0
 40
0.0
 40
0.0
 40
0.0
 40
0.0725002176
 40
0.1443292083
 40
0.215072177
 40
0.2844295035
 40
0.4184188894
 40
0.5462201772
 40
0.6679965275
 40
0.7267173961
 40
0.7840092111
 40
0.839908361
 40
0.8944713164
 40
0.947790999
 40
1.0
 40
1.0
 40
1.0
 40
1.0
 10
7.0852104486
 20
12.3515167286
 30
0.0
 10
7.1160872327
 20
12.2011052591
 30
0.0
 10
7.1860529116
 20
11.9033405877
 30
0.0
 10
7.3158297678
 20
11.4664665647
 30
0.0
 10
7.4686041786
 20
11.0441292932
 30
0.0
 10
7.69805378
 20
10.5106132491
 30
0.0
 10
8.0322306046
 20
9.8918859455
 30
0.0
 10
8.5032044915
 20
9.2276228691
 30
0.0
 10
8.945413203
 20
8.7445674712
 30
0.0
 10
9.3207018449
 20
8.4082630434
 30
0.0
 10
9.6078201563
 20
8.1838909682
 30
0.0
 10
9.9027276844
 20
7.9852136252
 30
0.0
 10
10.2042401964
 20
7.8130230439
 30
0.0
 10
10.5113661249
 20
7.6685383428
 30
0.0
 10
10.7213886977
 20
7.5910360421
 30
0.0
 10
10.8268477354
 20
7.5577968649
 30
0.0
  0
SPLINE
  5
2B1
100
AcDbEntity
  8
0
100
AcDbSpline
 62
7
  6
CONTINUOUS
 70
0
 71
3
 72
23
 73
19
 74
0
 42
0.0000001
 43
0.0000001
 44
0.0000000001
 40
0.0
 40
0.0
 40
0.0
 40
0.0
 40
0.1326271591
 40
0.1983528704
 40
0.2636353668
 40
0.328434608
 40
0.3927110199
 40
0.4564297935
 40
0.519560801
 40
0.5820740821
 40
0.6439423661
 40
0.7051443441
 40
0.7354912702
 40
0.7656632857
 40
0.8254473825
 40
0.8844294832
 40
0.9425870189
 40
1.0
 40
1.0
 40
1.0
 40
1.0
 10
14.3631475409
 20
12.9303647971
 30
0.0
 10
14.5035331001
 20
12.9329047106
 30
0.0
 10
14.7135277454
 20
12.934556968
 30
0.0
 10
14.9926298152
 20
12.9347104206
 30
0.0
 10
15.1999255184
 20
12.9343979568
 30
0.0
 10
15.4056868503
 20
12.93421852
 30
0.0
 10
15.6097927004
 20
12.9348490982
 30
0.0
 10
15.8121260839
 20
12.9365015098
 30
0.0
 10
16.0125917264
 20
12.9382265383
 30
0.0
 10
16.2111042458
 20
12.9392592825
 30
0.0
 10
16.4075780742
 20
12.9387732
 30
0.0
 10
16.5699865737
 20
12.9364597336
 30
0.0
 10
16.6988031822
 20
12.9329772579
 30
0.0
 10
16.8260951767
 20
12.9287648514
 30
0.0
 10
16.9836726798
 20
12.9231943399
 30
0.0
 10
17.170951156
 20
12.9192131108
 30
0.0
 10
17.3557775211
 20
12.9212284545
 30
0.0
 10
17.4779864643
 20
12.9288089107
 30
0.0
 10
17.5384804099
 20
12.9347138703
 30
0.0
  0
SPLINE
  5
2B2
100
AcDbEntity
  8
0
100
AcDbSpline
 62
7
  6
CONTINUOUS
 70
0
 71
3
 72
16
 73
12
 74
0
 42
0.0000001
 43
0.0000001
 44
0.0000000001
 40
0.0
 40
0.0
 40
0.0
 40
0.0
 40
0.1617469826
 40
0.3225947952
 40
0.4021804916
 40
0.4804884124
 40
0.5557738189
 40
0.6238406592
 40
0.7388492007
 40
0.8362149881
 40
1.0
 40
1.0
 40
1.0
 40
1.0
 10
14.1725870303
 20
12.9463363939
 30
0.0
 10
14.178482353
 20
12.9819231038
 30
0.0
 10
14.1901441213
 20
13.0529146513
 30
0.0
 10
14.2043749722
 20
13.1414703834
 30
0.0
 10
14.2153469935
 20
13.2117022553
 30
0.0
 10
14.2231567902
 20
13.2631144824
 30
0.0
 10
14.2302943527
 20
13.3120307181
 30
0.0
 10
14.2377592927
 20
13.3691651494
 30
0.0
 10
14.2446347278
 20
13.4313340482
 30
0.0
 10
14.2523702536
 20
13.5148671472
 30
0.0
 10
14.2565645587
 20
13.5729645828
 30
0.0
 10
14.2587115576
 20
13.6094276526
 30
0.0
  0
LINE
  5
2B3
100
AcDbEntity
  8
0
100
AcDbLine
 62
7
  6
CONTINUOUS
 10
14.1540474199
 20
12.8347137745
 11
14.1725870303
 21
12.9463363939
  0
SPLINE
  5
2B4
100
AcDbEntity
  8
0
100
AcDbSpline
 62
7
  6
CONTINUOUS
 70
0
 71
3
 72
18
 73
14
 74
0
 42
0.0000001
 43
0.0000001
 44
0.0000000001
 40
0.0
 40
0.0
 40
0.0
 40
0.0
 40
0.1565960305
 40
0.2321038765
 40
0.3056036453
 40
0.3769735154
 40
0.4461008631
 40
0.5129154306
 40
0.5773562559
 40
0.6988665527
 40
0.8101331563
 40
0.9106694591
 40
1.0
 40
1.0
 40
1.0
 40
1.0
 10
17.5384804099
 20
12.9347138703
 30
0.0
 10
17.6374250498
 20
12.9380150573
 30
0.0
 10
17.7841901668
 20
12.9396650212
 30
0.0
 10
17.977384967
 20
12.9382920222
 30
0.0
 10
18.1166957285
 20
12.9364347937
 30
0.0
 10
18.2519720466
 20
12.9346113458
 30
0.0
 10
18.3830323554
 20
12.9337397374
 30
0.0
 10
18.5097142143
 20
12.9335913707
 30
0.0
 10
18.6695118382
 20
12.933994859
 30
0.0
 10
18.8574101391
 20
12.9349491687
 30
0.0
 10
19.0681306228
 20
12.9350580552
 30
0.0
 10
19.2585062706
 20
12.9347443153
 30
0.0
 10
19.378539707
 20
12.9346450662
 30
0.0
 10
19.4350142947
 20
12.9346390197
 30
0.0
  0
LINE
  5
2B5
100
AcDbEntity
  8
0
100
AcDbLine
 62
7
  6
CONTINUOUS
 10
19.4350142947
 20
12.9346390197
 11
19.4389772079
 21
12.9346386447
  0
LINE
  5
2B6
100
AcDbEntity
  8
0
100
AcDbLine
 62
7
  6
CONTINUOUS
 10
19.4389772079
 20
12.9346386447
 11
19.9764310369
 21
12.9347150349
  0
SPLINE
  5
2B7
100
AcDbEntity
  8
0
100
AcDbSpline
 62
7
  6
CONTINUOUS
 70
0
 71
3
 72
11
 73
7
 74
0
 42
0.0000001
 43
0.0000001
 44
0.0000000001
 40
0.0
 40
0.0
 40
0.0
 40
0.0
 40
0.1990878033
 40
0.4399711392
 40
0.7112953121
 40
1.0
 40
1.0
 40
1.0
 40
1.0
 10
14.0786096442
 20
12.3083186433
 30
0.0
 10
14.0822151292
 20
12.343428321
 30
0.0
 10
14.0914635646
 20
12.4208855413
 30
0.0
 10
14.1086146823
 20
12.5458152702
 30
0.0
 10
14.1297872933
 20
12.6862173757
 30
0.0
 10
14.1456333209
 20
12.7842285217
 30
0.0
 10
14.1540474199
 20
12.8347137745
 30
0.0
  0
SPLINE
  5
2B8
100
AcDbEntity
  8
0
100
AcDbSpline
 62
7
  6
CONTINUOUS
 70
0
 71
3
 72
24
 73
20
 74
0
 42
0.0000001
 43
0.0000001
 44
0.0000000001
 40
0.0
 40
0.0
 40
0.0
 40
0.0
 40
0.0956725038
 40
0.18839364
 40
0.3627316753
 40
0.52023057
 40
0.5922344222
 40
0.6595588992
 40
0.7220603952
 40
0.7795315585
 40
0.8317154966
 40
0.8782755782
 40
0.9188002829
 40
0.9366627635
 40
0.9528478444
 40
0.967303407
 40
0.9799869423
 40
0.990880275
 40
1.0
 40
1.0
 40
1.0
 40
1.0
 10
10.1461643939
 20
12.3406159173
 30
0.0
 10
10.1718757739
 20
12.188612898
 30
0.0
 10
10.221880055
 20
11.8891902258
 30
0.0
 10
10.3168109245
 20
11.3124614655
 30
0.0
 10
10.4250512525
 20
10.6369621463
 30
0.0
 10
10.5250657744
 20
9.9939610822
 30
0.0
 10
10.5966895895
 20
9.5210601149
 30
0.0
 10
10.6444894432
 20
9.1993723353
 30
0.0
 10
10.6878128823
 20
8.9006953208
 30
0.0
 10
10.7264130681
 20
8.6259878456
 30
0.0
 10
10.7599886675
 20
8.3765168571
 30
0.0
 10
10.7880035196
 20
8.1538584075
 30
0.0
 10
10.8069211024
 20
7.9858023647
 30
0.0
 10
10.8183117397
 20
7.8661779574
 30
0.0
 10
10.8245591926
 20
7.788268514
 30
0.0
 10
10.8287576115
 20
7.718578477
 30
0.0
 10
10.830755548
 20
7.6573157215
 30
0.0
 10
10.830470412
 20
7.6046170891
 30
0.0
 10
10.8285123981
 20
7.5723966348
 30
0.0
 10
10.8269634275
 20
7.5577833979
 30
0.0
  0
SPLINE
  5
2B9
100
AcDbEntity
  8
0
100
AcDbSpline
 62
7
  6
CONTINUOUS
 70
0
 71
3
 72
18
 73
14
 74
0
 42
0.0000001
 43
0.0000001
 44
0.0000000001
 40
0.0
 40
0.0
 40
0.0
 40
0.0
 40
0.0087495211
 40
0.0248326139
 40
0.048243352
 40
0.0789564213
 40
0.1169445596
 40
0.1621798331
 40
0.2742242145
 40
0.4146640585
 40
0.5830137742
 40
0.7784571251
 40
1.0
 40
1.0
 40
1.0
 40
1.0
 10
13.8442071838
 20
7.4786759616
 30
0.0
 10
13.8435399533
 20
7.4785747157
 30
0.0
 10
13.8416239399
 20
7.4784646059
 30
0.0
 10
13.8379094285
 20
7.4782892111
 30
0.0
 10
13.8324950729
 20
7.4781326902
 30
0.0
 10
13.8253927617
 20
7.4779663095
 30
0.0
 10
13.8166058255
 20
7.4778068086
 30
0.0
 10
13.8015461819
 20
7.4775818589
 30
0.0
 10
13.778583724
 20
7.4773296032
 30
0.0
 10
13.7461249842
 20
7.4770707148
 30
0.0
 10
13.7072330753
 20
7.4768483069
 30
0.0
 10
13.662085256
 20
7.4766721812
 30
0.0
 10
13.6299223333
 20
7.4765980887
 30
0.0
 10
13.612834305
 20
7.4765704313
 30
0.0
  0
SPLINE
  5
2BA
100
AcDbEntity
  8
0
100
AcDbSpline
 62
7
  6
CONTINUOUS
 70
0
 71
3
 72
23
 73
19
 74
0
 42
0.0000001
 43
0.0000001
 44
0.0000000001
 40
0.0
 40
0.0
 40
0.0
 40
0.0
 40
0.0090770361
 40
0.0199188575
 40
0.0325381969
 40
0.0469176398
 40
0.0630197481
 40
0.080796925
 40
0.1211632197
 40
0.1675966679
 40
0.2196994551
 40
0.2771415492
 40
0.3396647126
 40
0.4070535803
 40
0.4791539597
 40
0.6368915517
 40
0.8114488144
 40
1.0
 40
1.0
 40
1.0
 40
1.0
 10
13.3829738605
 20
7.3733186977
 30
0.0
 10
13.3818511996
 20
7.3883641745
 30
0.0
 10
13.3805889819
 20
7.4214694252
 30
0.0
 10
13.3809570052
 20
7.4755609095
 30
0.0
 10
13.3834065614
 20
7.5384182395
 30
0.0
 10
13.3878786884
 20
7.6099227233
 30
0.0
 10
13.3942945778
 20
7.6898817199
 30
0.0
 10
13.4058326802
 20
7.8127504927
 30
0.0
 10
13.424877776
 20
7.985535276
 30
0.0
 10
13.4531595236
 20
8.2146751934
 30
0.0
 10
13.4872025269
 20
8.4716908397
 30
0.0
 10
13.5265280362
 20
8.7549767264
 30
0.0
 10
13.5708222622
 20
9.0632201749
 30
0.0
 10
13.6198017094
 20
9.3954021122
 30
0.0
 10
13.6933191211
 20
9.8839345734
 30
0.0
 10
13.7959301045
 20
10.5482202458
 30
0.0
 10
13.9314380021
 20
11.4032698735
 30
0.0
 10
14.027989448
 20
11.9990353027
 30
0.0
 10
14.0786096442
 20
12.3083186433
 30
0.0
  0
LINE
  5
2BB
100
AcDbEntity
  8
0
100
AcDbLine
 62
7
  6
CONTINUOUS
 10
14.2558184542
 20
13.9107828064
 11
13.7951594895
 21
13.8809407677
  0
SPLINE
  5
2BC
100
AcDbEntity
  8
0
100
AcDbSpline
 62
7
  6
CONTINUOUS
 70
0
 71
3
 72
15
 73
11
 74
0
 42
0.0000001
 43
0.0000001
 44
0.0000000001
 40
0.0
 40
0.0
 40
0.0
 40
0.0
 40
0.3420194133
 40
0.4958931901
 40
0.6326941614
 40
0.7485247948
 40
0.842628134
 40
0.8835537522
 40
0.922280944
 40
1.0
 40
1.0
 40
1.0
 40
1.0
 10
14.2754112022
 20
13.8413681167
 30
0.0
 10
14.2760894586
 20
13.850381355
 30
0.0
 10
14.2766801215
 20
13.8635010006
 30
0.0
 10
14.2758466771
 20
13.8802147376
 30
0.0
 10
14.2742928587
 20
13.8908704191
 30
0.0
 10
14.2716831081
 20
13.8996961175
 30
0.0
 10
14.2682299948
 20
13.9055130442
 30
0.0
 10
14.2647602417
 20
13.908580546
 30
0.0
 10
14.2610515627
 20
13.9105405821
 30
0.0
 10
14.257867735
 20
13.9109207947
 30
0.0
 10
14.2558184542
 20
13.9107828064
 30
0.0
  0
SPLINE
  5
2BD
100
AcDbEntity
  8
0
100
AcDbSpline
 62
7
  6
CONTINUOUS
 70
0
 71
3
 72
38
 73
34
 74
0
 42
0.0000001
 43
0.0000001
 44
0.0000000001
 40
0.0
 40
0.0
 40
0.0
 40
0.0
 40
0.000068642
 40
0.0002634412
 40
0.0005909869
 40
0.0010522986
 40
0.0016475162
 40
0.0023764986
 40
0.0042349013
 40
0.0066256084
 40
0.0095465381
 40
0.0129955471
 40
0.0169704644
 40
0.0214691037
 40
0.02648927
 40
0.0380853823
 40
0.051742144
 40
0.0674450781
 40
0.0851799997
 40
0.1049327154
 40
0.1266890267
 40
0.1504342657
 40
0.1761512495
 40
0.2038219519
 40
0.2649523987
 40
0.3336634028
 40
0.4096704132
 40
0.4926379071
 40
0.5822326001
 40
0.6781263854
 40
0.7799879711
 40
0.8874256942
 40
1.0
 40
1.0
 40
1.0
 40
1.0
 10
4.7970677462
 20
12.3597003044
 30
0.0
 10
4.7970546484
 20
12.3597509915
 30
0.0
 10
4.7973481377
 20
12.3598279704
 30
0.0
 10
4.7976983936
 20
12.3598868173
 30
0.0
 10
4.7984992581
 20
12.3599708952
 30
0.0
 10
4.7995279391
 20
12.3600440795
 30
0.0
 10
4.8008971005
 20
12.3601208185
 30
0.0
 10
4.8033175741
 20
12.3602271151
 30
0.0
 10
4.8071154219
 20
12.3603483715
 30
0.0
 10
4.8125810828
 20
12.3604771333
 30
0.0
 10
4.8192620843
 20
12.3605973336
 30
0.0
 10
4.8271509799
 20
12.3607086344
 30
0.0
 10
4.8362435909
 20
12.3608107291
 30
0.0
 10
4.8465345746
 20
12.3609035388
 30
0.0
 10
4.8626381215
 20
12.3610204317
 30
0.0
 10
4.8857265346
 20
12.3611373796
 30
0.0
 10
4.9169626311
 20
12.3612356679
 30
0.0
 10
4.952880783
 20
12.3612968111
 30
0.0
 10
4.9934482483
 20
12.3613206593
 30
0.0
 10
5.0386325157
 20
12.3613069485
 30
0.0
 10
5.0884007155
 20
12.3612555585
 30
0.0
 10
5.1427177049
 20
12.3611664002
 30
0.0
 10
5.2015454259
 20
12.3610390434
 30
0.0
 10
5.2888859913
 20
12.3608098641
 30
0.0
 10
5.4090169784
 20
12.3604197683
 30
0.0
 10
5.5660126096
 20
12.3598074743
 30
0.0
 10
5.7396624545
 20
12.3590412452
 30
0.0
 10
5.9292393901
 20
12.3581276494
 30
0.0
 10
6.1339830825
 20
12.3570723856
 30
0.0
 10
6.3531364163
 20
12.3558784792
 30
0.0
 10
6.5858977612
 20
12.3545501774
 30
0.0
 10
6.8313804728
 20
12.3530891312
 30
0.0
 10
6.999176363
 20
12.3520496017
 30
0.0
 10
7.085032994
 20
12.3515074882
 30
0.0
  0
SPLINE
  5
2BE
100
AcDbEntity
  8
0
100
AcDbSpline
 62
7
  6
CONTINUOUS
 70
0
 71
3
 72
10
 73
6
 74
0
 42
0.0000001
 43
0.0000001
 44
0.0000000001
 40
0.0
 40
0.0
 40
0.0
 40
0.0
 40
0.2239123694
 40
0.468141881
 40
1.0
 40
1.0
 40
1.0
 40
1.0
 10
14.2614059141
 20
13.6456340357
 30
0.0
 10
14.2630300018
 20
13.6601909459
 30
0.0
 10
14.2656478611
 20
13.6907106357
 30
0.0
 10
14.2698333741
 20
13.7559899718
 30
0.0
 10
14.2727857691
 20
13.806675818
 30
0.0
 10
14.2754112022
 20
13.8413681167
 30
0.0
  0
SPLINE
  5
2BF
100
AcDbEntity
  8
0
100
AcDbSpline
 62
7
  6
CONTINUOUS
 70
0
 71
3
 72
34
 73
30
 74
0
 42
0.0000001
 43
0.0000001
 44
0.0000000001
 40
0.0
 40
0.0
 40
0.0
 40
0.0
 40
0.1856286372
 40
0.2745798689
 40
0.3602388411
 40
0.4422947351
 40
0.5205263027
 40
0.5947150677
 40
0.664616139
 40
0.7299187936
 40
0.7902139647
 40
0.8183213508
 40
0.8449634195
 40
0.8700433807
 40
0.8934506545
 40
0.9150566323
 40
0.9347145426
 40
0.9522510043
 40
0.9674645318
 40
0.9741240042
 40
0.9801073816
 40
0.9853746755
 40
0.9898871994
 40
0.9936069454
 40
0.9951598707
 40
0.9965056722
 40
0.9976468873
 40
0.9985930423
 40
1.0
 40
1.0
 40
1.0
 40
1.0
 10
14.2614059141
 20
13.6456340357
 30
0.0
 10
14.1932220903
 20
13.2164422626
 30
0.0
 10
14.0927624959
 20
12.581523331
 30
0.0
 10
13.9614144667
 20
11.7484615955
 30
0.0
 10
13.8680263201
 20
11.1548836758
 30
0.0
 10
13.7787205731
 20
10.58606794
 30
0.0
 10
13.6937893787
 20
10.0437471974
 30
0.0
 10
13.6134972783
 20
9.5295024095
 30
0.0
 10
13.5381535552
 20
9.0451195704
 30
0.0
 10
13.4682256257
 20
8.5928118389
 30
0.0
 10
13.4137121286
 20
8.2371265185
 30
0.0
 10
13.3733501555
 20
7.970837693
 30
0.0
 10
13.3456156751
 20
7.7860188198
 30
0.0
 10
13.3198604979
 20
7.6120298418
 30
0.0
 10
13.2962616496
 20
7.4496405205
 30
0.0
 10
13.2750614128
 20
7.2997304976
 30
0.0
 10
13.2565436832
 20
7.1633231924
 30
0.0
 10
13.2410947499
 20
7.0416065576
 30
0.0
 10
13.2306993958
 20
6.9499263127
 30
0.0
 10
13.2245834598
 20
6.8849970195
 30
0.0
 10
13.2213545872
 20
6.8431898091
 30
0.0
 10
13.2193910294
 20
6.8063330944
 30
0.0
 10
13.2188179715
 20
6.7747279939
 30
0.0
 10
13.2196051712
 20
6.7518114268
 30
0.0
 10
13.2212646652
 20
6.7363949619
 30
0.0
 10
13.2228715153
 20
6.7270744978
 30
0.0
 10
13.224967576
 20
6.7192720855
 30
0.0
 10
13.2280283857
 20
6.7117557914
 30
0.0
 10
13.2317165075
 20
6.7070504184
 30
0.0
 10
13.2346930581
 20
6.7056399588
 30
0.0
  0
SPLINE
  5
2C0
100
AcDbEntity
  8
0
100
AcDbSpline
 62
7
  6
CONTINUOUS
 70
0
 71
3
 72
16
 73
12
 74
0
 42
0.0000001
 43
0.0000001
 44
0.0000000001
 40
0.0
 40
0.0
 40
0.0
 40
0.0
 40
0.1333234726
 40
0.2604248026
 40
0.3821467296
 40
0.5003403064
 40
0.6174792977
 40
0.7366779284
 40
0.7983754042
 40
0.8624178135
 40
1.0
 40
1.0
 40
1.0
 40
1.0
 10
12.7430988944
 20
6.3840703381
 30
0.0
 10
12.7711359208
 20
6.3823689889
 30
0.0
 10
12.8262691786
 20
6.3833843071
 30
0.0
 10
12.9058443377
 20
6.397573385
 30
0.0
 10
12.9791765346
 20
6.4230954414
 30
0.0
 10
13.045758735
 20
6.4587624165
 30
0.0
 10
13.1054549103
 20
6.5041702042
 30
0.0
 10
13.1488735813
 20
6.5499400451
 30
0.0
 10
13.1795773841
 20
6.5914871926
 30
0.0
 10
13.2085427434
 20
6.6388572676
 30
0.0
 10
13.2256959012
 20
6.6780858435
 30
0.0
 10
13.2346930581
 20
6.7056399588
 30
0.0
  0
SPLINE
  5
2C1
100
AcDbEntity
  8
___COSMETIC_SKETCH
100
AcDbSpline
 62
8
  6
PHANTOM
 70
0
 71
3
 72
15
 73
11
 74
0
 42
0.0000001
 43
0.0000001
 44
0.0000000001
 40
0.0
 40
0.0
 40
0.0
 40
0.0
 40
0.125
 40
0.25
 40
0.375
 40
0.5
 40
0.625
 40
0.75
 40
0.875
 40
1.0
 40
1.0
 40
1.0
 40
1.0
 10
10.2090795271
 20
7.5985532236
 30
0.0
 10
10.0741895041
 20
7.6281950972
 30
0.0
 10
9.8169075006
 20
7.6932780144
 30
0.0
 10
9.4719756778
 20
7.8008103956
 30
0.0
 10
9.1524680406
 20
7.9178774658
 30
0.0
 10
8.8499685099
 20
8.0448131616
 30
0.0
 10
8.5540826792
 20
8.1847506457
 30
0.0
 10
8.2651178304
 20
8.3373290674
 30
0.0
 10
7.9829859142
 20
8.5022274779
 30
0.0
 10
7.7996164923
 20
8.6201025271
 30
0.0
 10
7.7090795271
 20
8.6810211252
 30
0.0
  0
SPLINE
  5
2C2
100
AcDbEntity
  8
___COSMETIC_SKETCH
100
AcDbSpline
 62
8
  6
PHANTOM
 70
0
 71
3
 72
19
 73
15
 74
0
 42
0.0000001
 43
0.0000001
 44
0.0000000001
 40
0.0
 40
0.0
 40
0.0
 40
0.0
 40
0.0833333333
 40
0.1666666667
 40
0.25
 40
0.3333333333
 40
0.4166666667
 40
0.5
 40
0.5833333333
 40
0.6666666667
 40
0.75
 40
0.8333333333
 40
0.9166666667
 40
1.0
 40
1.0
 40
1.0
 40
1.0
 10
17.2090795271
 20
9.0468732578
 30
0.0
 10
17.0982572074
 20
8.958916625
 30
0.0
 10
16.8848032881
 20
8.7991791211
 30
0.0
 10
16.5976385264
 20
8.6047259869
 30
0.0
 10
16.3359828099
 20
8.4429590876
 30
0.0
 10
16.0941719576
 20
8.3058319129
 30
0.0
 10
15.8650062526
 20
8.1863151401
 30
0.0
 10
15.6410565713
 20
8.0789187892
 30
0.0
 10
15.4123126848
 20
7.9785285911
 30
0.0
 10
15.178308755
 20
7.8853873369
 30
0.0
 10
14.9424781537
 20
7.8010195603
 30
0.0
 10
14.7036978155
 20
7.7250136346
 30
0.0
 10
14.4604787144
 20
7.6571386383
 30
0.0
 10
14.293587444
 20
7.6171237074
 30
0.0
 10
14.2090795271
 20
7.5985532236
 30
0.0
  0
ENDSEC
  0
SECTION
  2
OBJECTS
  0
DICTIONARY
  5
C
100
AcDbDictionary
280
0
281
1
  3
ACAD_GROUP
350
D
  3
ACAD_MLINESTYLE
350
17
  3
ACAD_LAYOUT
350
1A
  3
ACAD_PLOTSETTINGS
350
19
  3
ACAD_PLOTSTYLENAME
350
E
  0
DICTIONARY
  5
D
102
{ACAD_REACTORS
330
C
102
}
100
AcDbDictionary
280
0
281
1
  0
ACDBDICTIONARYWDFLT
  5
E
102
{ACAD_REACTORS
330
C
102
}
100
AcDbDictionary
281
1
  3
Normal
350
F
100
AcDbDictionaryWithDefault
340
F
  0
DICTIONARY
  5
17
102
{ACAD_REACTORS
330
C
102
}
100
AcDbDictionary
280
0
281
1
  3
Standard
350
18
  0
DICTIONARY
  5
19
102
{ACAD_REACTORS
330
C
102
}
100
AcDbDictionary
281
1
  0
DICTIONARY
  5
1A
102
{ACAD_REACTORS
330
C
102
}
100
AcDbDictionary
281
1
  3
Model
350
2C3
  3
Layout1
350
2C4
  0
ACDBPLACEHOLDER
  5
F
102
{ACAD_REACTORS
330
E
102
}
  0
MLINESTYLE
  5
18
102
{ACAD_REACTORS
330
17
102
}
100
AcDbMlineStyle
  2
STANDARD
 70
0
  3

 62
256
 51
90.0
 52
90.0
 71
2
 49
0.5
 62
256
  6
BYLAYER
 49
-0.5
 62
256
  6
BYLAYER
  0
LAYOUT
  5
2C3
102
{ACAD_REACTORS
330
1A
102
}
100
AcDbPlotSettings
  1

  2
none_device
  4
ANSI_E_(44.00_x_34.00_Inches)
  6

 40
0.0
 41
0.0
 42
0.0
 43
0.0
 44
1117.6
 45
863.6
 46
0.0
 47
0.0
 48
0.0
 49
0.0
140
0.0
141
0.0
142
1.0
143
1.0
 70
1024
 72
0
 73
0
 74
0
  7

 75
0
147
1.0
148
0.0
149
0.0
100
AcDbLayout
  1
Model
 70
0
 71
0
 10
0.0
 20
0.0
 11
44.0
 21
34.0
 12
0.0
 22
0.0
 32
0.0
 14
0.0
 24
0.0
 34
0.0
 15
0.0
 25
0.0
 35
0.0
146
0.0
 13
0.0
 23
0.0
 33
0.0
 16
1.0
 26
0.0
 36
0.0
 17
0.0
 27
1.0
 37
0.0
 76
0
330
20E
345
0
346
0
  0
LAYOUT
  5
2C4
102
{ACAD_REACTORS
330
1A
102
}
100
AcDbPlotSettings
  1

  2
none_device
  4
ANSI_E_(44.00_x_34.00_Inches)
  6

 40
0.0
 41
0.0
 42
0.0
 43
0.0
 44
1117.6
 45
863.6
 46
0.0
 47
0.0
 48
0.0
 49
0.0
140
0.0
141
0.0
142
1.0
143
1.0
 70
0
 72
0
 73
0
 74
0
  7

 75
0
147
1.0
148
0.0
149
0.0
100
AcDbLayout
  1
Layout1
 70
0
 71
1
 10
0.0
 20
0.0
 11
44.0
 21
34.0
 12
0.0
 22
0.0
 32
0.0
 14
0.0
 24
0.0
 34
0.0
 15
0.0
 25
0.0
 35
0.0
146
0.0
 13
0.0
 23
0.0
 33
0.0
 16
1.0
 26
0.0
 36
0.0
 17
0.0
 27
1.0
 37
0.0
 76
0
330
20F
345
0
346
0
  0
ENDSEC
  0
EOF
