  0
SECTION
  2
HEADER
  9
$ACADVER
  1
AC1009
  9
$INSBASE
 10
0.0
 20
0.0
 30
0.0
  9
$EXTMIN
 10
-10.353854068203921
 20
-8.1551809305067149
 30
0.0
  9
$EXTMAX
 10
10.35385563695027
 20
0.5275740554453332
 30
0.0
  9
$LIMMIN
 10
0.0
 20
0.0
  9
$LIMMAX
 10
34.0
 20
22.0
  9
$ORTHOMODE
 70
     0
  9
$REGENMODE
 70
     1
  9
$FILLMODE
 70
     1
  9
$QTEXTMODE
 70
     0
  9
$MIRRTEXT
 70
     0
  9
$DRAGMODE
 70
     2
  9
$LTSCALE
 40
1.8700000000000001
  9
$OSMODE
 70
  2711
  9
$ATTMODE
 70
     1
  9
$TEXTSIZE
 40
0.2
  9
$TRACEWID
 40
0.05
  9
$TEXTSTYLE
  7
STANDARD
  9
$CLAYER
  8
0
  9
$CELTYPE
  6
BYLAYER
  9
$CECOLOR
 62
   256
  9
$DIMSCALE
 40
1.0
  9
$DIMASZ
 40
0.1875
  9
$DIMEXO
 40
0.2125
  9
$DIMDLI
 40
1.292
  9
$DIMRND
 40
0.0
  9
$DIMDLE
 40
0.0
  9
$DIMEXE
 40
0.612
  9
$DIMTP
 40
0.0
  9
$DIMTM
 40
0.0
  9
$DIMTXT
 40
0.15625
  9
$DIMCEN
 40
0.306
  9
$DIMTSZ
 40
0.0
  9
$DIMTOL
 70
     0
  9
$DIMLIM
 70
     0
  9
$DIMTIH
 70
     1
  9
$DIMTOH
 70
     1
  9
$DIMSE1
 70
     0
  9
$DIMSE2
 70
     0
  9
$DIMTAD
 70
     0
  9
$DIMZIN
 70
     0
  9
$DIMBLK
  1

  9
$DIMASO
 70
     1
  9
$DIMSHO
 70
     1
  9
$DIMPOST
  1

  9
$DIMAPOST
  1

  9
$DIMALT
 70
     0
  9
$DIMALTD
 70
     2
  9
$DIMALTF
 40
25.399999999999999
  9
$DIMLFAC
 40
1.0
  9
$DIMTOFL
 70
     0
  9
$DIMTVP
 40
0.0
  9
$DIMTIX
 70
     0
  9
$DIMSOXD
 70
     0
  9
$DIMSAH
 70
     0
  9
$DIMBLK1
  1

  9
$DIMBLK2
  1

  9
$DIMSTYLE
  2
STANDARD
  9
$DIMCLRD
 70
     0
  9
$DIMCLRE
 70
     0
  9
$DIMCLRT
 70
     0
  9
$DIMTFAC
 40
1.0
  9
$DIMGAP
 40
0.09
  9
$LUNITS
 70
     2
  9
$LUPREC
 70
     4
  9
$SKETCHINC
 40
0.1
  9
$FILLETRAD
 40
0.0
  9
$AUNITS
 70
     0
  9
$AUPREC
 70
     0
  9
$MENU
  1
.
  9
$ELEVATION
 40
0.0
  9
$PELEVATION
 40
0.0
  9
$THICKNESS
 40
0.0
  9
$LIMCHECK
 70
     0
  9
$BLIPMODE
 70
     0
  9
$CHAMFERA
 40
0.0
  9
$CHAMFERB
 40
0.0
  9
$SKPOLY
 70
     0
  9
$TDCREATE
 40
2454188.3838106021
  9
$TDUPDATE
 40
2454188.4162690388
  9
$TDINDWG
 40
0.0262036921
  9
$TDUSRTIMER
 40
0.0262036921
  9
$USRTIMER
 70
     1
  9
$ANGBASE
 50
0.0
  9
$ANGDIR
 70
     0
  9
$PDMODE
 70
     3
  9
$PDSIZE
 40
0.3125
  9
$PLINEWID
 40
0.0
  9
$COORDS
 70
     1
  9
$SPLFRAME
 70
     0
  9
$SPLINETYPE
 70
     6
  9
$SPLINESEGS
 70
     8
  9
$ATTDIA
 70
     0
  9
$ATTREQ
 70
     1
  9
$HANDLING
 70
     1
  9
$HANDSEED
  5
EEE
  9
$SURFTAB1
 70
     6
  9
$SURFTAB2
 70
     6
  9
$SURFTYPE
 70
     6
  9
$SURFU
 70
     6
  9
$SURFV
 70
     6
  9
$UCSNAME
  2

  9
$UCSORG
 10
0.0
 20
0.0
 30
0.0
  9
$UCSXDIR
 10
1.0
 20
0.0
 30
0.0
  9
$UCSYDIR
 10
0.0
 20
1.0
 30
0.0
  9
$PUCSNAME
  2

  9
$PUCSORG
 10
0.0
 20
0.0
 30
0.0
  9
$PUCSXDIR
 10
1.0
 20
0.0
 30
0.0
  9
$PUCSYDIR
 10
0.0
 20
1.0
 30
0.0
  9
$USERI1
 70
     0
  9
$USERI2
 70
     0
  9
$USERI3
 70
     0
  9
$USERI4
 70
     0
  9
$USERI5
 70
     0
  9
$USERR1
 40
0.0
  9
$USERR2
 40
0.0
  9
$USERR3
 40
0.0
  9
$USERR4
 40
0.0
  9
$USERR5
 40
0.0
  9
$WORLDVIEW
 70
     1
  9
$SHADEDGE
 70
     3
  9
$SHADEDIF
 70
    70
  9
$TILEMODE
 70
     1
  9
$MAXACTVP
 70
    64
  9
$PLIMCHECK
 70
     0
  9
$PEXTMIN
 10
1.0000000000000000E+020
 20
1.0000000000000000E+020
 30
1.0000000000000000E+020
  9
$PEXTMAX
 10
-1.0000000000000000E+020
 20
-1.0000000000000000E+020
 30
-1.0000000000000000E+020
  9
$PLIMMIN
 10
0.0
 20
0.0
  9
$PLIMMAX
 10
12.0
 20
9.0
  9
$UNITMODE
 70
     0
  9
$VISRETAIN
 70
     1
  9
$PLINEGEN
 70
     0
  9
$PSLTSCALE
 70
     1
  0
ENDSEC
  0
SECTION
  2
TABLES
  0
TABLE
  2
VPORT
 70
     2
  0
VPORT
  2
*ACTIVE
 70
     0
 10
0.0
 20
0.0
 11
1.0
 21
1.0
 12
4.6231191781505308
 22
-8.741496652285047
 13
0.0
 23
0.0
 14
1.0
 24
1.0
 15
0.0
 25
0.0
 16
0.0
 26
0.0
 36
1.0
 17
0.0
 27
0.0
 37
0.0
 40
29.19569479671118
 41
1.6135770234986939
 42
50.0
 43
0.0
 44
0.0
 50
0.0
 51
0.0
 71
     0
 72
   100
 73
     1
 74
     1
 75
     0
 76
     0
 77
     0
 78
     0
  0
ENDTAB
  0
TABLE
  2
LTYPE
 70
     2
  0
LTYPE
  2
CONTINUOUS
 70
     0
  3
Solid line
 72
    65
 73
     0
 40
0.0
  0
LTYPE
  2
HIDDEN
 70
     0
  3
- - - - - - - - - - - - - - - - - - - -
 72
    65
 73
     2
 40
0.2
 49
0.1
 49
-0.1
  0
ENDTAB
  0
TABLE
  2
LAYER
 70
     3
  0
LAYER
  2
0
 70
     0
 62
     7
  6
CONTINUOUS
  0
LAYER
  2
_CURVE
 70
     0
 62
     7
  6
CONTINUOUS
  0
LAYER
  2
HIDDEN
 70
     0
 62
     7
  6
HIDDEN
  0
ENDTAB
  0
TABLE
  2
STYLE
 70
     1
  0
STYLE
  2
STANDARD
 70
     0
 40
0.0
 41
0.8
 50
0.0
 71
     0
 42
0.2
  3
txt
  4

  0
ENDTAB
  0
TABLE
  2
VIEW
 70
     0
  0
ENDTAB
  0
TABLE
  2
UCS
 70
     0
  0
ENDTAB
  0
TABLE
  2
APPID
 70
     2
  0
APPID
  2
ACAD
 70
     0
  0
APPID
  2
ACAECLAYERSTANDARD
 70
     0
  0
ENDTAB
  0
TABLE
  2
DIMSTYLE
 70
     1
  0
DIMSTYLE
  2
STANDARD
 70
     0
  3

  4

  5

  6

  7

 40
1.0
 41
0.18
 42
0.0625
 43
0.38
 44
0.18
 45
0.0
 46
0.0
 47
0.0
 48
0.0
140
0.18
141
0.09
142
0.0
143
25.399999999999999
144
1.0
145
0.0
146
1.0
147
0.09
 71
     0
 72
     0
 73
     1
 74
     1
 75
     0
 76
     0
 77
     0
 78
     0
170
     0
171
     2
172
     0
173
     0
174
     0
175
     0
176
     0
177
     0
178
     0
  0
ENDTAB
  0
ENDSEC
  0
SECTION
  2
BLOCKS
  0
BLOCK
  8
0
  2
$MODEL_SPACE
 70
     0
 10
0.0
 20
0.0
 30
0.0
  3
$MODEL_SPACE
  1

  0
ENDBLK
  5
24
  8
0
  0
BLOCK
 67
     1
  8
0
  2
$PAPER_SPACE
 70
     0
 10
0.0
 20
0.0
 30
0.0
  3
$PAPER_SPACE
  1

  0
ENDBLK
  5
20
 67
     1
  8
0
  0
ENDSEC
  0
SECTION
  2
ENTITIES
  0
LINE
  5
8C6
  8
_CURVE
 10
-10.316920882050001
 20
0.1254630654000017
 30
0.0
 11
-10.325301866749999
 21
0.3654630654000002
 31
0.0
  0
POLYLINE
  5
91B
  8
HIDDEN
 66
     1
 10
0.0
 20
0.0
 30
0.0
  0
VERTEX
  5
ED3
  8
HIDDEN
 10
-9.2978936567499986
 20
-0.0965023936000016
 30
0.0
  0
VERTEX
  5
ED4
  8
HIDDEN
 10
-9.2874099749499983
 20
-0.1100856794000009
 30
0.0
  0
VERTEX
  5
ED5
  8
HIDDEN
 10
-9.2771251797499978
 20
-0.1235995123999984
 30
0.0
  0
VERTEX
  5
ED6
  8
HIDDEN
 10
-9.2570935326499981
 20
-0.1503337374999987
 30
0.0
  0
SEQEND
  5
ED7
  8
HIDDEN
  0
LINE
  5
932
  8
_CURVE
 10
10.19538105915
 20
0.5
 30
0.0
 11
-10.19538105925
 21
0.5
 31
0.0
  0
LINE
  5
97E
  8
_CURVE
 10
-10.187000074549999
 20
0.0
 30
0.0
 11
10.187000074549999
 21
0.0
 31
0.0
  0
LINE
  5
9A7
  8
HIDDEN
 10
-1.4545033921499979
 20
-6.8783705002999973
 30
0.0
 11
-1.355382258149997
 21
-8.0113302466
 31
0.0
  0
LINE
  5
9B8
  8
HIDDEN
 10
1.355382258150001
 20
-8.0113302466
 30
0.0
 11
1.4545033921500019
 21
-6.8783705002999973
 31
0.0
  0
POLYLINE
  5
9B9
  8
HIDDEN
 66
     1
 10
0.0
 20
0.0
 30
0.0
  0
VERTEX
  5
ED8
  8
HIDDEN
 10
9.1803717926500035
 20
-0.2536230860999993
 30
0.0
  0
VERTEX
  5
ED9
  8
HIDDEN
 10
9.0704639754707141
 20
-0.38121061905
 30
0.0
  0
VERTEX
  5
EDA
  8
HIDDEN
 10
9.0242627996156344
 20
-0.4182161444746218
 30
0.0
  0
VERTEX
  5
EDB
  8
HIDDEN
 10
8.900653944550001
 20
-0.5159748127999997
 30
0.0
  0
SEQEND
  5
EDC
  8
HIDDEN
  0
LINE
  5
9BF
  8
HIDDEN
 10
8.900653944550001
 20
-0.5159748127999997
 30
0.0
 11
8.8894962387500023
 21
-0.5226769934999993
 31
0.0
  0
LINE
  5
9C0
  8
HIDDEN
 10
8.8894962387500023
 20
-0.5226769934999993
 30
0.0
 11
8.8792288134500001
 21
-0.528961669000001
 31
0.0
  0
LINE
  5
9C1
  8
HIDDEN
 10
8.8792288134500001
 20
-0.528961669000001
 30
0.0
 11
8.8697779843500015
 21
-0.5348499226999977
 31
0.0
  0
LINE
  5
9C2
  8
HIDDEN
 10
8.8697779843500015
 20
-0.5348499226999977
 30
0.0
 11
8.8610614279500002
 21
-0.5403720963999988
 31
0.0
  0
LINE
  5
9C3
  8
HIDDEN
 10
8.8610614279500002
 20
-0.5403720963999988
 30
0.0
 11
8.8530118749500026
 21
-0.5455526625999987
 31
0.0
  0
LINE
  5
9C4
  8
HIDDEN
 10
8.8530118749500026
 20
-0.5455526625999987
 30
0.0
 11
8.8455882772500019
 21
-0.5504018443999997
 31
0.0
  0
LINE
  5
9C5
  8
HIDDEN
 10
8.8455882772500019
 20
-0.5504018443999997
 30
0.0
 11
8.8387416784500026
 21
-0.5549371204000018
 31
0.0
  0
LINE
  5
9C6
  8
HIDDEN
 10
8.8387416784500026
 20
-0.5549371204000018
 30
0.0
 11
8.8324613215499994
 21
-0.5591523518000017
 31
0.0
  0
LINE
  5
9C7
  8
HIDDEN
 10
8.8324613215499994
 20
-0.5591523518000017
 30
0.0
 11
8.8267560586500018
 21
-0.5630287038999989
 31
0.0
  0
POLYLINE
  5
9C8
  8
HIDDEN
 66
     1
 10
0.0
 20
0.0
 30
0.0
  0
VERTEX
  5
EDD
  8
HIDDEN
 10
8.8267560586500018
 20
-0.5630287038999989
 30
0.0
  0
VERTEX
  5
EDE
  8
HIDDEN
 10
8.8216687760500001
 20
-0.5665241921999993
 30
0.0
  0
VERTEX
  5
EDF
  8
HIDDEN
 10
8.8193567853500028
 20
-0.5681252545
 30
0.0
  0
SEQEND
  5
EE0
  8
HIDDEN
  0
LINE
  5
9CD
  8
HIDDEN
 10
8.8193567496500016
 20
-0.5681252031000028
 30
0.0
 11
8.8057862623500007
 21
-0.5776911475999995
 31
0.0
  0
LINE
  5
9DF
  8
HIDDEN
 10
-2.000024793549998
 20
-6.6146905973999992
 30
0.0
 11
-2.0000000000499991
 21
-6.6146936374999958
 31
0.0
  0
LINE
  5
9E0
  8
HIDDEN
 10
-1.845761994849999
 20
-6.6328839686999963
 30
0.0
 11
-2.0067861124499968
 21
-6.6138601296999973
 31
0.0
  0
LINE
  5
9E1
  8
HIDDEN
 10
-1.6790616341499991
 20
-6.6510258648999994
 30
0.0
 11
-1.845761994849999
 21
-6.6328839686999963
 31
0.0
  0
LINE
  5
A53
  8
HIDDEN
 10
1.67906163405
 20
-6.6510258648999994
 30
0.0
 11
1.845761994750001
 21
-6.6328839686999963
 31
0.0
  0
LINE
  5
A54
  8
HIDDEN
 10
1.845761994750001
 20
-6.6328839686999963
 30
0.0
 11
2.0067861123500008
 21
-6.6138601296999973
 31
0.0
  0
LINE
  5
A55
  8
HIDDEN
 10
2.0797220588499998
 20
-6.6047170294999971
 30
0.0
 11
1.99999999995
 21
-6.6146936374999958
 31
0.0
  0
LINE
  5
A8E
  8
HIDDEN
 10
3.9965894518500011
 20
-6.1951691889999969
 30
0.0
 11
3.9579297047500019
 21
-6.2076498901999946
 31
0.0
  0
LINE
  5
A8F
  8
HIDDEN
 10
4.028564632550002
 20
-6.1846792515999978
 30
0.0
 11
3.991261503750001
 21
-6.196902321299997
 31
0.0
  0
LINE
  5
A90
  8
HIDDEN
 10
4.0605184007500021
 20
-6.1740430412999947
 30
0.0
 11
4.0245713293499987
 21
-6.1859976607999938
 31
0.0
  0
LINE
  5
A91
  8
HIDDEN
 10
4.092449761050001
 20
-6.163259280999994
 30
0.0
 11
4.0578580568499989
 21
-6.1749344649999962
 31
0.0
  0
LINE
  5
A92
  8
HIDDEN
 10
4.0911205614500012
 20
-6.163711290399994
 30
0.0
 11
4.1463427377500022
 21
-6.1447017930999941
 31
0.0
  0
LINE
  5
ADD
  8
HIDDEN
 10
-1.223019145249999
 20
-8.1299999999999955
 30
0.0
 11
1.223019145250001
 21
-8.1299999999999955
 31
0.0
  0
POLYLINE
  5
AF6
  8
_CURVE
 66
     1
 10
0.0
 20
0.0
 30
0.0
  0
VERTEX
  5
EE1
  8
_CURVE
 10
9.2978936566500003
 20
-0.0965023936000016
 30
0.0
  0
VERTEX
  5
EE2
  8
_CURVE
 10
9.2874099749500019
 20
-0.1100856794000009
 30
0.0
  0
VERTEX
  5
EE3
  8
_CURVE
 10
9.2771251796499996
 20
-0.1235995123999984
 30
0.0
  0
SEQEND
  5
EE4
  8
_CURVE
  0
LINE
  5
B1A
  8
HIDDEN
 10
9.2771251796499996
 20
-0.1235995123999984
 30
0.0
 11
9.2570935326500035
 21
-0.1503337374999987
 31
0.0
  0
LINE
  5
B4E
  8
_CURVE
 10
10.316920882050001
 20
0.1254630654000017
 30
0.0
 11
10.325301866649999
 21
0.3654630654000002
 31
0.0
  0
ARC
  5
E13
  8
HIDDEN
 10
-1.225876947449998
 20
-7.9999999999999956
 30
0.0
 40
0.13
 50
185.0
 51
270.0
  0
ARC
  5
E14
  8
HIDDEN
 10
-1.7035799225499979
 20
-6.8998253466000001
 30
0.0
 40
0.2499998148
 50
5.0000000000000071
 51
84.042570423399965
  0
ARC
  5
E15
  8
HIDDEN
 10
1.22587694735
 20
-7.9999999999999956
 30
0.0
 40
0.13
 50
270.0
 51
355.0
  0
ARC
  5
E16
  8
HIDDEN
 10
1.7035799225499999
 20
-6.8998253466000001
 30
0.0
 40
0.2499998148
 50
95.957429576600049
 51
175.0
  0
ARC
  5
E17
  8
_CURVE
 10
9.4952220525500017
 20
-0.25
 30
0.0
 40
0.2500000049
 50
94.343513181300025
 51
142.1214158141
  0
ARC
  5
E18
  8
HIDDEN
 10
7.9920755466499989
 20
-1.2799999999999969
 30
0.0
 40
0.5
 50
299.43178477319998
 51
357.18960449970001
  0
ARC
  5
E1A
  8
_CURVE
 10
-10.187000074549999
 20
0.129999999999999
 30
0.0
 40
0.13
 50
182.0
 51
270.0
  0
ARC
  5
E1B
  8
_CURVE
 10
-10.19537971165
 20
0.370000000000001
 30
0.0
 40
0.13
 50
90.000593916600025
 51
181.99997927379999
  0
ARC
  5
E1D
  8
_CURVE
 10
10.19538105915
 20
0.370000000000001
 30
0.0
 40
0.13
 50
358.0
 51
90.000000000000028
  0
ARC
  5
E1E
  8
_CURVE
 10
-9.4952220525499982
 20
-0.25
 30
0.0
 40
0.2500000049
 50
37.878584185900003
 51
85.656486818699989
  0
ARC
  5
E1F
  8
_CURVE
 10
10.187000074549999
 20
0.129999999999999
 30
0.0
 40
0.13
 50
270.0
 51
358.0
  0
ATTDEF
  5
E41
  8
0
 10
-0.0000000000499991
 20
0.4966125376490993
 30
0.0
 40
0.001
  1
K-2339
  3

  2
MODELNUMBER
 70
     8
  0
ATTDEF
  5
E42
  8
0
 10
-0.0000000000499991
 20
0.494945537649099
 30
0.0
 40
0.001
  1
MEMOIRS
  3

  2
TRADENAME
 70
     8
  0
ATTDEF
  5
E43
  8
0
 10
-0.0000000000499991
 20
0.4932795376490997
 30
0.0
 40
0.001
  1
UNDERCOUNTER LAVATORY
  3

  2
PRODUCT
 70
     8
  0
ATTDEF
  5
E44
  8
0
 10
-0.0000000000499991
 20
0.4916125376490994
 30
0.0
 40
0.001
  1
VITREOUS CHINA
  3

  2
MATERIAL
 70
     8
  0
ARC
  5
E5A
  8
HIDDEN
 10
2.2892697683330692
 20
-0.5660414172786794
 30
0.0
 40
5.882744552726006
 50
286.67479672736192
 51
332.71081711005382
  0
ARC
  5
E5B
  8
HIDDEN
 10
0.7456164735578313
 20
0.5855245699794649
 30
0.0
 40
7.788886746823116
 50
331.22655566500339
 51
340.7601335204692
  0
ARC
  5
E5F
  8
HIDDEN
 10
10.109699665660999
 20
-1.572936567733382
 30
0.0
 40
1.6403364318427289
 50
142.646385589278
 51
170.58188834103359
  0
POLYLINE
  5
E61
  8
HIDDEN
 66
     1
 10
0.0
 20
0.0
 30
0.0
  0
VERTEX
  5
EE5
  8
HIDDEN
 10
-9.1803717926500035
 20
-0.2536230860999993
 30
0.0
  0
VERTEX
  5
EE6
  8
HIDDEN
 10
-9.0704639754707141
 20
-0.38121061905
 30
0.0
  0
VERTEX
  5
EE7
  8
HIDDEN
 10
-9.0242627996156344
 20
-0.4182161444746218
 30
0.0
  0
VERTEX
  5
EE8
  8
HIDDEN
 10
-8.900653944550001
 20
-0.5159748127999997
 30
0.0
  0
SEQEND
  5
EE9
  8
HIDDEN
  0
LINE
  5
E62
  8
HIDDEN
 10
-8.900653944550001
 20
-0.5159748127999997
 30
0.0
 11
-8.8894962387500023
 21
-0.5226769934999993
 31
0.0
  0
LINE
  5
E63
  8
HIDDEN
 10
-8.8894962387500023
 20
-0.5226769934999993
 30
0.0
 11
-8.8792288134500001
 21
-0.528961669000001
 31
0.0
  0
LINE
  5
E64
  8
HIDDEN
 10
-8.8792288134500001
 20
-0.528961669000001
 30
0.0
 11
-8.8697779843500015
 21
-0.5348499226999977
 31
0.0
  0
LINE
  5
E65
  8
HIDDEN
 10
-8.8697779843500015
 20
-0.5348499226999977
 30
0.0
 11
-8.8610614279500002
 21
-0.5403720963999988
 31
0.0
  0
LINE
  5
E66
  8
HIDDEN
 10
-8.8610614279500002
 20
-0.5403720963999988
 30
0.0
 11
-8.8530118749500026
 21
-0.5455526625999987
 31
0.0
  0
LINE
  5
E67
  8
HIDDEN
 10
-8.8530118749500026
 20
-0.5455526625999987
 30
0.0
 11
-8.8455882772500019
 21
-0.5504018443999997
 31
0.0
  0
LINE
  5
E68
  8
HIDDEN
 10
-8.8455882772500019
 20
-0.5504018443999997
 30
0.0
 11
-8.8387416784500026
 21
-0.5549371204000018
 31
0.0
  0
LINE
  5
E69
  8
HIDDEN
 10
-8.8387416784500026
 20
-0.5549371204000018
 30
0.0
 11
-8.8324613215499994
 21
-0.5591523518000017
 31
0.0
  0
LINE
  5
E6A
  8
HIDDEN
 10
-8.8324613215499994
 20
-0.5591523518000017
 30
0.0
 11
-8.8267560586500018
 21
-0.5630287038999989
 31
0.0
  0
POLYLINE
  5
E6B
  8
HIDDEN
 66
     1
 10
0.0
 20
0.0
 30
0.0
  0
VERTEX
  5
EEA
  8
HIDDEN
 10
-8.8267560586500018
 20
-0.5630287038999989
 30
0.0
  0
VERTEX
  5
EEB
  8
HIDDEN
 10
-8.8216687760500001
 20
-0.5665241921999993
 30
0.0
  0
VERTEX
  5
EEC
  8
HIDDEN
 10
-8.8193567853500028
 20
-0.5681252545
 30
0.0
  0
SEQEND
  5
EED
  8
HIDDEN
  0
LINE
  5
E6C
  8
HIDDEN
 10
-8.8193567496500016
 20
-0.5681252031000028
 30
0.0
 11
-8.8057862623500007
 21
-0.5776911475999995
 31
0.0
  0
LINE
  5
E6D
  8
HIDDEN
 10
-1.67906163405
 20
-6.6510258648999994
 30
0.0
 11
-1.845761994750001
 21
-6.6328839686999963
 31
0.0
  0
LINE
  5
E6E
  8
HIDDEN
 10
-1.845761994750001
 20
-6.6328839686999963
 30
0.0
 11
-2.0067861123500008
 21
-6.6138601296999973
 31
0.0
  0
LINE
  5
E6F
  8
HIDDEN
 10
-2.0797220588499998
 20
-6.6047170294999971
 30
0.0
 11
-1.99999999995
 21
-6.6146936374999958
 31
0.0
  0
LINE
  5
E74
  8
HIDDEN
 10
-3.9965894518500011
 20
-6.1951691889999969
 30
0.0
 11
-3.9579297047500019
 21
-6.2076498901999946
 31
0.0
  0
LINE
  5
E75
  8
HIDDEN
 10
-4.028564632550002
 20
-6.1846792515999978
 30
0.0
 11
-3.991261503750001
 21
-6.196902321299997
 31
0.0
  0
LINE
  5
E76
  8
HIDDEN
 10
-4.0605184007500021
 20
-6.1740430412999947
 30
0.0
 11
-4.0245713293499987
 21
-6.1859976607999938
 31
0.0
  0
LINE
  5
E77
  8
HIDDEN
 10
-4.092449761050001
 20
-6.163259280999994
 30
0.0
 11
-4.0578580568499989
 21
-6.1749344649999962
 31
0.0
  0
LINE
  5
E78
  8
HIDDEN
 10
-4.0911205614500012
 20
-6.163711290399994
 30
0.0
 11
-4.1463427377500022
 21
-6.1447017930999941
 31
0.0
  0
ARC
  5
E79
  8
HIDDEN
 10
-1.7035799225499999
 20
-6.8998253466000001
 30
0.0
 40
0.2499998148
 50
5.0
 51
84.042570423399965
  0
ARC
  5
E7A
  8
HIDDEN
 10
-7.9920755466499989
 20
-1.2799999999999969
 30
0.0
 40
0.5
 50
182.81039550029999
 51
240.56821522679999
  0
ARC
  5
E7B
  8
HIDDEN
 10
-2.2892697683330692
 20
-0.5660414172786794
 30
0.0
 40
5.882744552726006
 50
207.2891828899462
 51
253.32520327263811
  0
ARC
  5
E7C
  8
HIDDEN
 10
-0.7456164735578313
 20
0.5855245699794649
 30
0.0
 40
7.788886746823116
 50
199.2398664795308
 51
208.77344433499661
  0
ARC
  5
E7D
  8
HIDDEN
 10
-10.109699665660999
 20
-1.572936567733382
 30
0.0
 40
1.6403364318427289
 50
9.418111658966394
 51
37.353614410721967
  0
ARC
  5
E7E
  8
HIDDEN
 10
1.7021826099105559
 20
-0.1781952547692889
 30
0.0
 40
6.4376018948513289
 50
273.36209605360818
 51
290.51189109069003
  0
ARC
  5
E7F
  8
HIDDEN
 10
-1.7567659277531811
 20
-0.4363853560487412
 30
0.0
 40
6.1767804150961201
 50
249.12311869345791
 51
267.00289416224382
  0
ENDSEC
  0
EOF
