  0
SECTION
  2
HEADER
  9
$ACADVER
  1
AC1021
  9
$ACADMAINTVER
 70
    50
  9
$DWGCODEPAGE
  3
ANSI_936
  9
$LASTSAVEDBY
  1
ko37019
  9
$INSBASE
 10
0.0
 20
0.0
 30
0.0
  9
$EXTMIN
 10
-6.0038277838
 20
-6.7662345423
 30
0.0
  9
$EXTMAX
 10
101.1590212586152
 20
65.97505239973679
 30
0.0
  9
$LIMMIN
 10
0.0
 20
0.0
  9
$LIMMAX
 10
1200.0
 20
900.0
  9
$ORTHOMODE
 70
     1
  9
$REGENMODE
 70
     1
  9
$FILLMODE
 70
     1
  9
$QTEXTMODE
 70
     0
  9
$MIRRTEXT
 70
     0
  9
$LTSCALE
 40
1.87
  9
$ATTMODE
 70
     1
  9
$TEXTSIZE
 40
0.2
  9
$TRACEWID
 40
0.05
  9
$TEXTSTYLE
  7
STANDARD
  9
$CLAYER
  8
0
  9
$CELTYPE
  6
BYLAYER
  9
$CECOLOR
 62
   256
  9
$CELTSCALE
 40
1.0
  9
$DISPSILH
 70
     0
  9
$DIMSCALE
 40
1.0
  9
$DIMASZ
 40
0.12
  9
$DIMEXO
 40
0.05
  9
$DIMDLI
 40
0.5
  9
$DIMRND
 40
0.0
  9
$DIMDLE
 40
0.0
  9
$DIMEXE
 40
0.1
  9
$DIMTP
 40
0.1
  9
$DIMTM
 40
0.1
  9
$DIMTXT
 40
0.12
  9
$DIMCEN
 40
0.0
  9
$DIMTSZ
 40
0.0
  9
$DIMTOL
 70
     0
  9
$DIMLIM
 70
     0
  9
$DIMTIH
 70
     1
  9
$DIMTOH
 70
     1
  9
$DIMSE1
 70
     0
  9
$DIMSE2
 70
     0
  9
$DIMTAD
 70
     0
  9
$DIMZIN
 70
     7
  9
$DIMBLK
  1

  9
$DIMASO
 70
     1
  9
$DIMSHO
 70
     1
  9
$DIMPOST
  1

  9
$DIMAPOST
  1
mm
  9
$DIMALT
 70
     0
  9
$DIMALTD
 70
     2
  9
$DIMALTF
 40
25.4
  9
$DIMLFAC
 40
1.0
  9
$DIMTOFL
 70
     0
  9
$DIMTVP
 40
0.0
  9
$DIMTIX
 70
     0
  9
$DIMSOXD
 70
     0
  9
$DIMSAH
 70
     0
  9
$DIMBLK1
  1

  9
$DIMBLK2
  1

  9
$DIMSTYLE
  2
AM_ANSI
  9
$DIMCLRD
 70
   256
  9
$DIMCLRE
 70
   256
  9
$DIMCLRT
 70
     2
  9
$DIMTFAC
 40
0.71
  9
$DIMGAP
 40
0.06
  9
$DIMJUST
 70
     0
  9
$DIMSD1
 70
     0
  9
$DIMSD2
 70
     0
  9
$DIMTOLJ
 70
     1
  9
$DIMTZIN
 70
     7
  9
$DIMALTZ
 70
     0
  9
$DIMALTTZ
 70
     0
  9
$DIMUPT
 70
     0
  9
$DIMDEC
 70
     4
  9
$DIMTDEC
 70
     4
  9
$DIMALTU
 70
     2
  9
$DIMALTTD
 70
     4
  9
$DIMTXSTY
  7
STANDARD
  9
$DIMAUNIT
 70
     0
  9
$DIMADEC
 70
     0
  9
$DIMALTRND
 40
0.0
  9
$DIMAZIN
 70
     2
  9
$DIMDSEP
 70
    46
  9
$DIMATFIT
 70
     3
  9
$DIMFRAC
 70
     0
  9
$DIMLDRBLK
  1

  9
$DIMLUNIT
 70
     2
  9
$DIMLWD
 70
    -1
  9
$DIMLWE
 70
    -1
  9
$DIMTMOVE
 70
     0
  9
$DIMFXL
 40
1.0
  9
$DIMFXLON
 70
     0
  9
$DIMJOGANG
 40
0.7853981633974483
  9
$DIMTFILL
 70
     0
  9
$DIMTFILLCLR
 70
     0
  9
$DIMARCSYM
 70
     1
  9
$DIMLTYPE
  6
BYBLOCK
  9
$DIMLTEX1
  6
BYBLOCK
  9
$DIMLTEX2
  6
BYBLOCK
  9
$LUNITS
 70
     2
  9
$LUPREC
 70
     4
  9
$SKETCHINC
 40
0.1
  9
$FILLETRAD
 40
0.0
  9
$AUNITS
 70
     0
  9
$AUPREC
 70
     0
  9
$MENU
  1
.
  9
$ELEVATION
 40
0.0
  9
$PELEVATION
 40
0.0
  9
$THICKNESS
 40
0.0
  9
$LIMCHECK
 70
     0
  9
$CHAMFERA
 40
0.0
  9
$CHAMFERB
 40
0.0
  9
$CHAMFERC
 40
0.0
  9
$CHAMFERD
 40
0.0
  9
$SKPOLY
 70
     0
  9
$TDCREATE
 40
2455755.353018519
  9
$TDUCREATE
 40
2455755.019685185
  9
$TDUPDATE
 40
2455755.372281620
  9
$TDUUPDATE
 40
2455755.038948287
  9
$TDINDWG
 40
0.0163835880
  9
$TDUSRTIMER
 40
0.0163835880
  9
$USRTIMER
 70
     1
  9
$ANGBASE
 50
0.0
  9
$ANGDIR
 70
     0
  9
$PDMODE
 70
     3
  9
$PDSIZE
 40
0.3125
  9
$PLINEWID
 40
0.0
  9
$SPLFRAME
 70
     0
  9
$SPLINETYPE
 70
     6
  9
$SPLINESEGS
 70
     8
  9
$HANDSEED
  5
2949
  9
$SURFTAB1
 70
     6
  9
$SURFTAB2
 70
     6
  9
$SURFTYPE
 70
     6
  9
$SURFU
 70
     6
  9
$SURFV
 70
     6
  9
$UCSBASE
  2

  9
$UCSNAME
  2

  9
$UCSORG
 10
0.0
 20
0.0
 30
0.0
  9
$UCSXDIR
 10
1.0
 20
0.0
 30
0.0
  9
$UCSYDIR
 10
0.0
 20
1.0
 30
0.0
  9
$UCSORTHOREF
  2

  9
$UCSORTHOVIEW
 70
     0
  9
$UCSORGTOP
 10
0.0
 20
0.0
 30
0.0
  9
$UCSORGBOTTOM
 10
0.0
 20
0.0
 30
0.0
  9
$UCSORGLEFT
 10
0.0
 20
0.0
 30
0.0
  9
$UCSORGRIGHT
 10
0.0
 20
0.0
 30
0.0
  9
$UCSORGFRONT
 10
0.0
 20
0.0
 30
0.0
  9
$UCSORGBACK
 10
0.0
 20
0.0
 30
0.0
  9
$PUCSBASE
  2

  9
$PUCSNAME
  2

  9
$PUCSORG
 10
0.0
 20
0.0
 30
0.0
  9
$PUCSXDIR
 10
1.0
 20
0.0
 30
0.0
  9
$PUCSYDIR
 10
0.0
 20
1.0
 30
0.0
  9
$PUCSORTHOREF
  2

  9
$PUCSORTHOVIEW
 70
     0
  9
$PUCSORGTOP
 10
0.0
 20
0.0
 30
0.0
  9
$PUCSORGBOTTOM
 10
0.0
 20
0.0
 30
0.0
  9
$PUCSORGLEFT
 10
0.0
 20
0.0
 30
0.0
  9
$PUCSORGRIGHT
 10
0.0
 20
0.0
 30
0.0
  9
$PUCSORGFRONT
 10
0.0
 20
0.0
 30
0.0
  9
$PUCSORGBACK
 10
0.0
 20
0.0
 30
0.0
  9
$USERI1
 70
     0
  9
$USERI2
 70
     0
  9
$USERI3
 70
     0
  9
$USERI4
 70
     0
  9
$USERI5
 70
     0
  9
$USERR1
 40
0.0
  9
$USERR2
 40
0.0
  9
$USERR3
 40
0.0
  9
$USERR4
 40
0.0
  9
$USERR5
 40
0.0
  9
$WORLDVIEW
 70
     1
  9
$SHADEDGE
 70
     3
  9
$SHADEDIF
 70
    70
  9
$TILEMODE
 70
     1
  9
$MAXACTVP
 70
    64
  9
$PINSBASE
 10
0.0
 20
0.0
 30
0.0
  9
$PLIMCHECK
 70
     0
  9
$PEXTMIN
 10
1.000000000000000E+20
 20
1.000000000000000E+20
 30
1.000000000000000E+20
  9
$PEXTMAX
 10
-1.000000000000000E+20
 20
-1.000000000000000E+20
 30
-1.000000000000000E+20
  9
$PLIMMIN
 10
0.0
 20
0.0
  9
$PLIMMAX
 10
12.0
 20
9.0
  9
$UNITMODE
 70
     0
  9
$VISRETAIN
 70
     1
  9
$PLINEGEN
 70
     0
  9
$PSLTSCALE
 70
     1
  9
$TREEDEPTH
 70
  3020
  9
$CMLSTYLE
  2
Standard
  9
$CMLJUST
 70
     0
  9
$CMLSCALE
 40
1.0
  9
$PROXYGRAPHICS
 70
     1
  9
$MEASUREMENT
 70
     0
  9
$CELWEIGHT
370
    -1
  9
$ENDCAPS
280
     0
  9
$JOINSTYLE
280
     0
  9
$LWDISPLAY
290
     0
  9
$INSUNITS
 70
     1
  9
$HYPERLINKBASE
  1

  9
$STYLESHEET
  1

  9
$XEDIT
290
     1
  9
$CEPSNTYPE
380
     0
  9
$PSTYLEMODE
290
     1
  9
$FINGERPRINTGUID
  2
{BD14EF79-AAE6-4867-BCE5-96FEE40E8C2A}
  9
$VERSIONGUID
  2
{C9325ED8-2879-49E5-B946-55E569A1ED69}
  9
$EXTNAMES
290
     1
  9
$PSVPSCALE
 40
0.0
  9
$OLESTARTUP
290
     0
  9
$SORTENTS
280
   127
  9
$INDEXCTL
280
     0
  9
$HIDETEXT
280
     1
  9
$XCLIPFRAME
290
     0
  9
$HALOGAP
280
     0
  9
$OBSCOLOR
 70
   257
  9
$OBSLTYPE
280
     0
  9
$INTERSECTIONDISPLAY
280
     0
  9
$INTERSECTIONCOLOR
 70
   257
  9
$DIMASSOC
280
     2
  9
$PROJECTNAME
  1

  9
$CAMERADISPLAY
290
     0
  9
$LENSLENGTH
 40
50.0
  9
$CAMERAHEIGHT
 40
0.0
  9
$STEPSPERSEC
 40
2.0
  9
$STEPSIZE
 40
6.0
  9
$3DDWFPREC
 40
2.0
  9
$PSOLWIDTH
 40
0.25
  9
$PSOLHEIGHT
 40
4.0
  9
$LOFTANG1
 40
1.570796326794896
  9
$LOFTANG2
 40
1.570796326794896
  9
$LOFTMAG1
 40
0.0
  9
$LOFTMAG2
 40
0.0
  9
$LOFTPARAM
 70
     7
  9
$LOFTNORMALS
280
     1
  9
$LATITUDE
 40
37.795
  9
$LONGITUDE
 40
-122.394
  9
$NORTHDIRECTION
 40
0.0
  9
$TIMEZONE
 70
 -8000
  9
$LIGHTGLYPHDISPLAY
280
     1
  9
$TILEMODELIGHTSYNCH
280
     1
  9
$CMATERIAL
347
CDE
  9
$SOLIDHIST
280
     1
  9
$SHOWHIST
280
     1
  9
$DWFFRAME
280
     2
  9
$DGNFRAME
280
     0
  9
$REALWORLDSCALE
290
     1
  9
$INTERFERECOLOR
 62
     1
  9
$INTERFEREOBJVS
345
D00
  9
$INTERFEREVPVS
346
CFD
  9
$CSHADOW
280
     0
  9
$SHADOWPLANELOCATION
 40
0.0
  0
ENDSEC
  0
SECTION
  2
CLASSES
  0
CLASS
  1
ACDBDICTIONARYWDFLT
  2
AcDbDictionaryWithDefault
  3
ObjectDBX Classes
 90
        0
 91
        1
280
     0
281
     0
  0
CLASS
  1
TABLESTYLE
  2
AcDbTableStyle
  3
ObjectDBX Classes
 90
     4095
 91
        2
280
     0
281
     0
  0
CLASS
  1
ACAD_TABLE
  2
AcDbTable
  3
ObjectDBX Classes
 90
     1025
 91
        6
280
     0
281
     1
  0
CLASS
  1
MATERIAL
  2
AcDbMaterial
  3
ObjectDBX Classes
 90
     1153
 91
        3
280
     0
281
     0
  0
CLASS
  1
VISUALSTYLE
  2
AcDbVisualStyle
  3
ObjectDBX Classes
 90
     4095
 91
       16
280
     0
281
     0
  0
CLASS
  1
SCALE
  2
AcDbScale
  3
ObjectDBX Classes
 90
     1153
 91
       33
280
     0
281
     0
  0
CLASS
  1
MLEADERSTYLE
  2
AcDbMLeaderStyle
  3
ACDB_MLEADERSTYLE_CLASS
 90
     4095
 91
        1
280
     0
281
     0
  0
CLASS
  1
TABLECONTENT
  2
AcDbTableContent
  3
ObjectDBX Classes
 90
     1152
 91
        2
280
     0
281
     0
  0
CLASS
  1
TABLEGEOMETRY
  2
AcDbTableGeometry
  3
ObjectDBX Classes
 90
     1152
 91
        2
280
     0
281
     0
  0
CLASS
  1
CELLSTYLEMAP
  2
AcDbCellStyleMap
  3
ObjectDBX Classes
 90
     1152
 91
       29
280
     0
281
     0
  0
CLASS
  1
DICTIONARYVAR
  2
AcDbDictionaryVar
  3
ObjectDBX Classes
 90
        0
 91
       55
280
     0
281
     0
  0
CLASS
  1
ACME_DOCUMENT
  2
AcMeDbDoc
  3
AcMeServices
 90
     1024
 91
        2
280
     0
281
     0
  0
CLASS
  1
AMGSETTINGSOBJ
  2
AmgSettingsObj
  3
"AcadM|Product Description: AutoCAD Mechanical|Company: Autodesk, Inc."
 90
     1024
 91
        2
280
     0
281
     0
  0
CLASS
  1
ACMESCOPE
  2
AcMeScope
  3
AcMeServices
 90
     1024
 91
        1
280
     0
281
     0
  0
CLASS
  1
ACMECOMMANDHISTORY
  2
AcMeCommandHistory
  3
AcMeServices
 90
     1024
 91
        1
280
     0
281
     0
  0
CLASS
  1
ACIMSYSVARMAN
  2
AcImSysVarManager
  3
AcMeServices
 90
     1024
 91
        5
280
     0
281
     0
  0
CLASS
  1
ACIMINTSYSVAR
  2
AcImIntSysVar
  3
AcMeServices
 90
     1024
 91
       27
280
     0
281
     0
  0
CLASS
  1
ACMEDRAWINGMAN
  2
AcMeDrawingMan
  3
AcMeServices
 90
     1024
 91
        1
280
     0
281
     0
  0
CLASS
  1
ACMEVIEW
  2
AcMeView
  3
AcMeServices
 90
     1024
 91
        1
280
     0
281
     0
  0
CLASS
  1
ACDBENTITYCACHE
  2
AcMeEntityCache
  3
AcMeServices
 90
     1024
 91
        1
280
     0
281
     0
  0
CLASS
  1
GSMANAGER
  2
AcMeGSManager
  3
AcMeServices
 90
     1024
 91
        1
280
     0
281
     0
  0
CLASS
  1
AMDTINTERNALREACTOR
  2
AmdtInternalReactor
  3
AcMeServices
 90
     1024
 91
        2
280
     0
281
     0
  0
CLASS
  1
ACMESTATEMGR
  2
AcMeStateMgr
  3
AcMeServices
 90
     1024
 91
        1
280
     0
281
     0
  0
CLASS
  1
ACGREFMASTER
  2
AcGrefMaster
  3
AcAttribServices
 90
     1024
 91
        1
280
     0
281
     0
  0
CLASS
  1
AM_DRAWING_MGR
  2
AcDmDwgMgr
  3
AcMechDwgViewMgmt
 90
     1024
 91
        1
280
     0
281
     0
  0
CLASS
  1
AM_DWG_DOCUMENT
  2
AcDmDwgDocument
  3
AcMechDwgViewMgmt
 90
     1024
 91
        1
280
     0
281
     0
  0
CLASS
  1
AM_DWG_SHEET
  2
AcDmSheet
  3
AcMechDwgViewMgmt
 90
     1024
 91
        1
280
     0
281
     0
  0
CLASS
  1
AM_VIEWDIMPARMAP
  2
AcDmViewDimParMap
  3
AcMechDwgViewMgmt
 90
     1024
 91
        1
280
     0
281
     0
  0
CLASS
  1
ACIMREALSYSVAR
  2
AcImRealSysVar
  3
AcMeServices
 90
     1024
 91
        1
280
     0
281
     0
  0
CLASS
  1
AM_DWGMGR_NAME
  2
AcDmDwgMgrName
  3
AcMechDwgViewMgmt
 90
     1024
 91
        1
280
     0
281
     0
  0
CLASS
  1
ACME_DATABASE
  2
AcMeDbDatabase
  3
AcMeServices
 90
     1024
 91
        2
280
     0
281
     0
  0
CLASS
  1
ACRFINSADJUSTERMGR
  2
AcRfInsAdjusterMgr
  3
AcMeServices
 90
     1024
 91
        1
280
     0
281
     0
  0
CLASS
  1
ACGREFACADMASTER
  2
AcGrefacadMaster
  3
AcGrefServices
 90
     1024
 91
        1
280
     0
281
     0
  0
CLASS
  1
AMDTMENUSTATEMGR
  2
AmdtMenuStateMgr
  3
McadcomServices
 90
     1024
 91
        1
280
     0
281
     0
  0
CLASS
  1
AMDTMCOMMENUSTATE
  2
AmdtMcomMenuState
  3
McadcomServices
 90
     1024
 91
        1
280
     0
281
     0
  0
CLASS
  1
AMIMASTER
  2
AmiMaster
  3
AmiServices
 90
     1024
 91
        1
280
     0
281
     0
  0
CLASS
  1
MAPIAMMOUDLE
  2
MApiAmModule
  3
MApiAmServices
 90
     1024
 91
        1
280
     0
281
     0
  0
CLASS
  1
ACIMSTRSYSVAR
  2
AcImStrSysVar
  3
AcMeServices
 90
     1024
 91
        5
280
     0
281
     0
  0
CLASS
  1
AMDTADMENUSTATE
  2
AmdtAdMenuState
  3
DesignerServices
 90
     1024
 91
        1
280
     0
281
     0
  0
CLASS
  1
ADAPPL
  2
AcAdAppl
  3
DesignerServices
 90
     1024
 91
        1
280
     0
281
     0
  0
CLASS
  1
DEPMGR
  2
AcAdDepMgr
  3
DesignerServices
 90
     1024
 91
        1
280
     0
281
     0
  0
CLASS
  1
PARAMMGR
  2
AcAdParamMgr
  3
DesignerServices
 90
     1024
 91
        1
280
     0
281
     0
  0
CLASS
  1
PARAMSCOPE
  2
AcAdParamScope
  3
DesignerServices
 90
     1024
 91
        1
280
     0
281
     0
  0
CLASS
  1
NAMEDAPPL
  2
AcAdNamedAppl
  3
DesignerServices
 90
     1024
 91
        1
280
     0
281
     0
  0
CLASS
  1
AMDTDMMENUSTATE
  2
AmdtDmMenuState
  3
AcMechDwgViewMgmt
 90
     1024
 91
        1
280
     0
281
     0
  0
CLASS
  1
AMDTAMMENUSTATE
  2
AmdtAmMenuState
  3
DesignerAssemblies
 90
     1024
 91
        1
280
     0
281
     0
  0
CLASS
  1
ACAMPROJECT
  2
AcAmProject
  3
DesignerAssemblies
 90
     1024
 91
        1
280
     0
281
     0
  0
CLASS
  1
ACAMGRCOMPDEF
  2
AcAmGrCompDef
  3
DesignerAssemblies
 90
     1024
 91
        1
280
     0
281
     0
  0
CLASS
  1
ACCMCONTEXT
  2
AcCmContext
  3
DesignerAssemblies
 90
     1024
 91
        1
280
     0
281
     0
  0
CLASS
  1
ACAMCOMPDEF
  2
AcAmCompDef
  3
DesignerAssemblies
 90
     1024
 91
        1
280
     0
281
     0
  0
CLASS
  1
ACAMCOMPDEFMGR
  2
AcAmCompDefMgr
  3
DesignerAssemblies
 90
     1024
 91
        1
280
     0
281
     0
  0
CLASS
  1
AMCONTEXTMGR
  2
AcAmContextMgr
  3
DesignerAssemblies
 90
     1024
 91
        1
280
     0
281
     0
  0
CLASS
  1
ACAMCONTEXTMODELER
  2
AcAmContextModeler
  3
DesignerAssemblies
 90
     1024
 91
        1
280
     0
281
     0
  0
CLASS
  1
ACMDATADICTIONARY
  2
AcmDataDictionary
  3
"AcmSymBB|Product Description: AutoCAD Mechanical|Company: Autodesk, Inc."
 90
     1024
 91
        1
280
     0
281
     0
  0
CLASS
  1
CATALOGSTATE
  2
AcAmCatalogState
  3
DesignerAssemblies
 90
     1024
 91
        1
280
     0
281
     0
  0
CLASS
  1
ACAMGRCOMPDEFSET
  2
AcAmGrCompDefSet
  3
DesignerAssemblies
 90
     1024
 91
        1
280
     0
281
     0
  0
CLASS
  1
AMDTBROWSERDBTAB
  2
AmdtBrowserDbTab
  3
McadcomServices
 90
     1024
 91
        1
280
     0
281
     0
  0
CLASS
  1
CBROWSERAPPOBJECT
  2
CBrowserAppObject
  3
McadcomServices
 90
     1024
 91
        3
280
     0
281
     0
  0
CLASS
  1
DM_PLACEHOLDER
  2
AcDmSelsetPlaceholder
  3
AcMechDwgViewMgmt
 90
     1024
 91
        1
280
     0
281
     0
  0
CLASS
  1
EXACXREFPANELOBJECT
  2
ExAcXREFPanelObject
  3
EXAC_ESW
 90
     1025
 91
        1
280
     0
281
     0
  0
CLASS
  1
NPOCOLLECTION
  2
AcDbImpNonPersistentObjectsCollection
  3
ObjectDBX Classes
 90
     1153
 91
        1
280
     0
281
     0
  0
CLASS
  1
ACMSTANDARDANSI
  2
AcmStandardANSI
  3
"Amdt_StdImp|Product Description: AutoCAD Mechanical|Company: Autodesk, Inc."
 90
     1024
 91
        1
280
     0
281
     0
  0
CLASS
  1
ACMSURFSTANDARDANSI
  2
AcmSurfTextStdANSI
  3
"Amdt_StdImp|Product Description: AutoCAD Mechanical|Company: Autodesk, Inc."
 90
     1024
 91
        1
280
     0
281
     0
  0
CLASS
  1
ACMFCFSTANDARDANSI
  2
AcmFCFStdANSI
  3
"Amdt_StdImp|Product Description: AutoCAD Mechanical|Company: Autodesk, Inc."
 90
     1024
 91
        1
280
     0
281
     0
  0
CLASS
  1
ACMWELDSTANDARDANSI
  2
AcmWeldingStdANSI
  3
"Amdt_StdImp|Product Description: AutoCAD Mechanical|Company: Autodesk, Inc."
 90
     1024
 91
        1
280
     0
281
     0
  0
CLASS
  1
ACMIDSTANDARDANSI
  2
AcmIdStdANSI
  3
"Amdt_StdImp|Product Description: AutoCAD Mechanical|Company: Autodesk, Inc."
 90
     1024
 91
        1
280
     0
281
     0
  0
CLASS
  1
ACMDATUMSTANDARDANSI
  2
AcmDatumStdANSI
  3
"Amdt_StdImp|Product Description: AutoCAD Mechanical|Company: Autodesk, Inc."
 90
     1024
 91
        1
280
     0
281
     0
  0
CLASS
  1
ACMBOMSTANDARDANSI
  2
AcmBOMStdANSI
  3
"Amdt_StdImp|Product Description: AutoCAD Mechanical|Company: Autodesk, Inc."
 90
     1024
 91
        1
280
     0
281
     0
  0
CLASS
  1
ACMDETAILSTANDARDANSI
  2
AmdtDetailSymStdANSI
  3
"Amdt_StdImp|Product Description: AutoCAD Mechanical|Company: Autodesk, Inc."
 90
     1024
 91
        1
280
     0
281
     0
  0
CLASS
  1
ACMSECTIONSTANDARDANSI
  2
AmdtSectionSymStdANSI
  3
"Amdt_StdImp|Product Description: AutoCAD Mechanical|Company: Autodesk, Inc."
 90
     1024
 91
        1
280
     0
281
     0
  0
CLASS
  1
ACMCENTERLINESTANDARDANSI
  2
AmdtCenterLineStdANSI
  3
"Amdt_StdImp|Product Description: AutoCAD Mechanical|Company: Autodesk, Inc."
 90
     1024
 91
        1
280
     0
281
     0
  0
CLASS
  1
ACMTHREADLINESTANDARDANSI
  2
AmdtThreadLineStdANSI
  3
"Amdt_StdImp|Product Description: AutoCAD Mechanical|Company: Autodesk, Inc."
 90
     1024
 91
        1
280
     0
281
     0
  0
CLASS
  1
ACMNOTESTANDARDANSI
  2
AmdtNoteStdANSI
  3
"Amdt_StdImp|Product Description: AutoCAD Mechanical|Company: Autodesk, Inc."
 90
     1024
 91
        1
280
     0
281
     0
  0
CLASS
  1
ACMTAPERSTANDARDANSI
  2
AcmTaperStdANSI
  3
"Amdt_StdImp|Product Description: AutoCAD Mechanical|Company: Autodesk, Inc."
 90
     1024
 91
        1
280
     0
281
     0
  0
CLASS
  1
ACMANOOTATIONVIEWSTANDARDANSI
  2
AmdtAnViewStdANSI
  3
"Amdt_StdImp|Product Description: AutoCAD Mechanical|Company: Autodesk, Inc."
 90
     1024
 91
        1
280
     0
281
     0
  0
CLASS
  1
ACAMGLAYSTD
  2
AcAmgLayStd
  3
"AmgLay|Product Description: AutoCAD Mechanical|Company: Autodesk, Inc."
 90
     1024
 91
        1
280
     0
281
     0
  0
CLASS
  1
ACAMGDIMSTD
  2
AcAmgDimStd
  3
"AmgDim|Product Description: AutoCAD Mechanical|Company: Autodesk, Inc."
 90
     1024
 91
        1
280
     0
281
     0
  0
CLASS
  1
AMGOBJPROPCFG
  2
AmgObjPropCfg
  3
"AmgLay|Product Description: AutoCAD Mechanical|Company: Autodesk, Inc."
 90
     1025
 91
        1
280
     0
281
     0
  0
CLASS
  1
ACAMGHOLECHARTSTDANSI
  2
AcAmgHoleChartStdANSI
  3
AmgDim|Product Description: AutoCAD Mechanical|Company: Autodesk, Inc.
 90
     1024
 91
        1
280
     0
281
     0
  0
CLASS
  1
ACAMGTITLESTD
  2
AcAmgTitleStd
  3
"AmgTitle|Product Description: AutoCAD Mechanical|Company: Autodesk, Inc."
 90
     4095
 91
        1
280
     0
281
     0
  0
CLASS
  1
AMDTNOTETEMPLATEDB
  2
AmdtNoteTemplateDB
  3
AcmSymBB|Product Description: AutoCAD Mechanical|Company: Autodesk, Inc.
 90
     1024
 91
        6
280
     0
281
     0
  0
CLASS
  1
CAMSSTRUCTBTNSTATE
  2
StructBtnState
  3
DesignerAssemblies
 90
     1024
 91
        1
280
     0
281
     0
  0
CLASS
  1
ACAMGFILTERDAT
  2
AcAmgFilterDat
  3
"AcadM|Product Description: AutoCAD Mechanical|Company: Autodesk, Inc."
 90
     1024
 91
        6
280
     0
281
     0
  0
CLASS
  1
SORTENTSTABLE
  2
AcDbSortentsTable
  3
ObjectDBX Classes
 90
        0
 91
        1
280
     0
281
     0
  0
ENDSEC
  0
SECTION
  2
TABLES
  0
TABLE
  2
VPORT
  5
8
330
0
100
AcDbSymbolTable
 70
     1
  0
VPORT
  5
1F4
330
8
100
AcDbSymbolTableRecord
100
AcDbViewportTableRecord
  2
*ACTIVE
 70
     0
 10
0.0
 20
0.0
 11
1.0
 21
1.0
 12
78.16550687219133
 22
22.51811091662592
 13
0.0
 23
0.0
 14
1.0
 24
1.0
 15
0.0
 25
0.0
 16
0.0
 26
0.0
 36
1.0
 17
0.0
 27
0.0
 37
0.0
 40
22.53999379388256
 41
1.379629629629629
 42
50.0
 43
0.0
 44
0.0
 50
0.0
 51
0.0
 71
     0
 72
   100
 73
     1
 74
     1
 75
     0
 76
     0
 77
     0
 78
     0
281
     0
 65
     1
110
0.0
120
0.0
130
0.0
111
1.0
121
0.0
131
0.0
112
0.0
122
1.0
132
0.0
 79
     0
146
0.0
348
CFC
 60
     3
 61
     5
292
     1
282
     1
141
0.0
142
0.0
 63
   250
421
  3355443
  0
ENDTAB
  0
TABLE
  2
LTYPE
  5
5
330
0
100
AcDbSymbolTable
 70
    20
  0
LTYPE
  5
14
330
5
100
AcDbSymbolTableRecord
100
AcDbLinetypeTableRecord
  2
BYBLOCK
 70
     0
  3

 72
    65
 73
     0
 40
0.0
  0
LTYPE
  5
15
330
5
100
AcDbSymbolTableRecord
100
AcDbLinetypeTableRecord
  2
BYLAYER
 70
     0
  3

 72
    65
 73
     0
 40
0.0
  0
LTYPE
  5
16
330
5
100
AcDbSymbolTableRecord
100
AcDbLinetypeTableRecord
  2
CONTINUOUS
 70
     0
  3
Solid line
 72
    65
 73
     0
 40
0.0
  0
LTYPE
  5
1F5
330
5
100
AcDbSymbolTableRecord
100
AcDbLinetypeTableRecord
  2
CENTER
 70
     0
  3
____ _ ____ _ ____ _ ____ _ ____ _ ____ _ ____
 72
    65
 73
     4
 40
0.6
 49
0.375
 74
     0
 49
-0.075
 74
     0
 49
0.075
 74
     0
 49
-0.075
 74
     0
  0
LTYPE
  5
1F6
330
5
100
AcDbSymbolTableRecord
100
AcDbLinetypeTableRecord
  2
HIDDEN
 70
     0
  3
- - - - - - - - - - - - - - - - - - - -
 72
    65
 73
     2
 40
0.2
 49
0.1
 74
     0
 49
-0.1
 74
     0
  0
LTYPE
  5
1F7
330
5
100
AcDbSymbolTableRecord
100
AcDbLinetypeTableRecord
  2
PHANTOM
 70
     0
  3
_____ _ _ _____ _ _ _____ _ _ _____
 72
    65
 73
     6
 40
0.8
 49
0.45
 74
     0
 49
-0.05
 74
     0
 49
0.1
 74
     0
 49
-0.05
 74
     0
 49
0.1
 74
     0
 49
-0.05
 74
     0
  0
LTYPE
  5
D76
330
5
100
AcDbSymbolTableRecord
100
AcDbLinetypeTableRecord
  2
PHANTOM2
 70
     0
  3
Phantom (.5x) ___ _ _ ___ _ _ ___ _ _ ___ _ _
 72
    65
 73
     6
 40
1.25
 49
0.625
 74
     0
 49
-0.125
 74
     0
 49
0.125
 74
     0
 49
-0.125
 74
     0
 49
0.125
 74
     0
 49
-0.125
 74
     0
  0
LTYPE
  5
DC0
330
5
100
AcDbSymbolTableRecord
100
AcDbLinetypeTableRecord
  2
Amconstr
 70
     0
  3
_______________________
 72
    65
 73
     2
 40
9999.0
 49
9999.0
 74
     0
 49
0.0
 74
     0
  0
LTYPE
  5
DC6
330
5
100
AcDbSymbolTableRecord
100
AcDbLinetypeTableRecord
  2
CENTER2
 70
     0
  3
Center (.5x) ___ _ ___ _ ___ _ ___ _ ___ _ ___
 72
    65
 73
     4
 40
1.125
 49
0.75
 74
     0
 49
-0.125
 74
     0
 49
0.125
 74
     0
 49
-0.125
 74
     0
  0
LTYPE
  5
DC7
330
5
100
AcDbSymbolTableRecord
100
AcDbLinetypeTableRecord
  2
HIDDEN2
 70
     0
  3
Hidden (.5x) _ _ _ _ _ _ _ _ _ _ _ _ _ _ _ _ _
 72
    65
 73
     2
 40
0.1875
 49
0.125
 74
     0
 49
-0.0625
 74
     0
  0
LTYPE
  5
DC8
330
5
100
AcDbSymbolTableRecord
100
AcDbLinetypeTableRecord
  2
Amzigzag2
 70
     0
  3
/\/-/\/-/\/-/\/-/\/-/\/
 72
    65
 73
     2
 40
0.4401
 49
0.0001
 74
     4
 75
   136
340
DC4
 46
0.0016
 50
0.0
 44
0.0
 45
0.0
 49
-0.4400000000000001
 74
     0
  0
LTYPE
  5
DD6
330
5
100
AcDbSymbolTableRecord
100
AcDbLinetypeTableRecord
  2
ACANSTGB
 70
     0
  3
__ . . __ . .
 72
    65
 73
     6
 40
0.35433070866
 49
0.15748031496
 74
     0
 49
-0.03937007874
 74
     0
 49
0.03937007874
 74
     0
 49
-0.03937007874
 74
     0
 49
0.03937007874
 74
     0
 49
-0.03937007874
 74
     0
  0
LTYPE
  5
DD7
330
5
100
AcDbSymbolTableRecord
100
AcDbLinetypeTableRecord
  2
ACANSTGL
 70
     0
  3
_ _ _ _ _
 72
    65
 73
     2
 40
0.11811023622
 49
0.07874015748
 74
     0
 49
-0.03937007874
 74
     0
  0
ENDTAB
  0
TABLE
  2
LAYER
  5
2
330
0
100
AcDbSymbolTable
 70
    20
  0
LAYER
  5
10
102
{ACAD_XDICTIONARY
360
DDE
102
}
330
2
100
AcDbSymbolTableRecord
100
AcDbLayerTableRecord
  2
0
 70
     0
 62
     7
  6
CONTINUOUS
370
    -3
390
F
347
CEE
  0
LAYER
  5
1FC
102
{ACAD_XDICTIONARY
360
DE4
102
}
330
2
100
AcDbSymbolTableRecord
100
AcDbLayerTableRecord
  2
DEFAULT_3
 70
     0
 62
     7
  6
PHANTOM
370
    -3
390
F
347
CEE
  0
LAYER
  5
1FE
102
{ACAD_XDICTIONARY
360
DE8
102
}
330
2
100
AcDbSymbolTableRecord
100
AcDbLayerTableRecord
  2
DATUM_AXIS
 70
     0
 62
     7
  6
CONTINUOUS
370
    -3
390
F
347
CEE
  0
LAYER
  5
18FF
330
2
100
AcDbSymbolTableRecord
100
AcDbLayerTableRecord
  2
Defpoints
 70
     0
 62
     7
  6
CONTINUOUS
290
     0
370
    -3
390
F
347
CEE
  0
ENDTAB
  0
TABLE
  2
STYLE
  5
3
330
0
100
AcDbSymbolTable
 70
    23
  0
STYLE
  5
11
330
3
100
AcDbSymbolTableRecord
100
AcDbTextStyleTableRecord
  2
STANDARD
 70
     0
 40
0.0
 41
0.8
 50
0.0
 71
     0
 42
0.2
  3
txt
  4

  0
STYLE
  5
DC4
330
3
100
AcDbSymbolTableRecord
100
AcDbTextStyleTableRecord
  2

 70
     1
 40
0.0
 41
1.0
 50
0.0
 71
     0
 42
0.2
  3
genltshp.shx
  4

  0
STYLE
  5
DD5
330
3
100
AcDbSymbolTableRecord
100
AcDbTextStyleTableRecord
  2
ACANSGDT
 70
     0
 40
0.0
 41
1.0
 50
0.0
 71
     0
 42
0.2
  3
amgdt.shx
  4

  0
ENDTAB
  0
TABLE
  2
VIEW
  5
6
330
0
100
AcDbSymbolTable
 70
     0
  0
ENDTAB
  0
TABLE
  2
UCS
  5
7
330
0
100
AcDbSymbolTable
 70
     0
  0
ENDTAB
  0
TABLE
  2
APPID
  5
9
330
0
100
AcDbSymbolTable
 70
    10
  0
APPID
  5
21F
330
9
100
AcDbSymbolTableRecord
100
AcDbRegAppTableRecord
  2
ACAD
 70
     0
  0
APPID
  5
D2C
330
9
100
AcDbSymbolTableRecord
100
AcDbRegAppTableRecord
  2
ACAD_MLEADERVER
 70
     0
  0
APPID
  5
D49
330
9
100
AcDbSymbolTableRecord
100
AcDbRegAppTableRecord
  2
MCAD_NO_VIS
 70
     0
  0
APPID
  5
D4A
330
9
100
AcDbSymbolTableRecord
100
AcDbRegAppTableRecord
  2
ACAD_TEMP_GRAPHIC
 70
     0
  0
APPID
  5
D78
330
9
100
AcDbSymbolTableRecord
100
AcDbRegAppTableRecord
  2
AD_DRAW
 70
     0
  0
APPID
  5
D7B
330
9
100
AcDbSymbolTableRecord
100
AcDbRegAppTableRecord
  2
ACATTRIBSERVICES
 70
     0
  0
APPID
  5
D9C
330
9
100
AcDbSymbolTableRecord
100
AcDbRegAppTableRecord
  2
DESIGNERASSEMBLIES
 70
     0
  0
APPID
  5
DA2
330
9
100
AcDbSymbolTableRecord
100
AcDbRegAppTableRecord
  2
ACADM_DIM_EDIT
 70
     0
  0
APPID
  5
DA3
330
9
100
AcDbSymbolTableRecord
100
AcDbRegAppTableRecord
  2
AMDT_DM_ADJ
 70
     0
  0
APPID
  5
2843
330
9
100
AcDbSymbolTableRecord
100
AcDbRegAppTableRecord
  2
ACAD_EXEMPT_FROM_CAD_STANDARDS
 70
     0
  0
ENDTAB
  0
TABLE
  2
DIMSTYLE
  5
A
330
0
100
AcDbSymbolTable
 70
    12
100
AcDbDimStyleTable
 71
     1
340
DBB
  0
DIMSTYLE
105
230
330
A
100
AcDbSymbolTableRecord
100
AcDbDimStyleTableRecord
  2
STANDARD
 70
     0
 41
0.1875
 47
0.01
 48
0.01
 71
     1
 78
     4
140
0.15625
271
     3
272
     3
284
     4
340
11
341
222
342
222
343
222
344
222
  0
DIMSTYLE
105
DBB
102
{ACAD_REACTORS
330
DAB
102
}
330
A
100
AcDbSymbolTableRecord
100
AcDbDimStyleTableRecord
  2
AM_ANSI
 70
     0
  4
mm
 41
0.12
 42
0.05
 43
0.5
 44
0.1
 47
0.1
 48
0.1
 78
     7
 79
     2
 90
     1
140
0.12
141
0.0
146
0.71
147
0.06
176
   256
177
   256
178
     2
274
     4
284
     7
340
11
345
14
346
14
347
14
371
    -1
372
    -1
  0
DIMSTYLE
105
DC9
330
A
100
AcDbSymbolTableRecord
100
AcDbDimStyleTableRecord
  2
AM_ANSI$3
 70
     0
  4
mm
 41
0.12
 42
0.05
 43
0.5
 44
0.1
 47
0.1
 48
0.1
 78
     7
 79
     2
 90
     1
140
0.12
141
0.0
146
0.71
147
0.06
176
   256
177
   256
178
     2
274
     4
284
     7
288
     1
289
     0
340
11
345
14
346
14
347
14
371
    -1
372
    -1
  0
DIMSTYLE
105
DCA
330
A
100
AcDbSymbolTableRecord
100
AcDbDimStyleTableRecord
  2
AM_ANSI$4
 70
     0
  4
mm
 41
0.12
 42
0.05
 43
0.5
 44
0.1
 47
0.1
 48
0.1
 78
     7
 79
     2
 90
     1
140
0.12
141
0.0
146
0.71
147
0.06
176
   256
177
   256
178
     2
274
     4
284
     7
340
11
345
14
346
14
347
14
371
    -1
372
    -1
  0
DIMSTYLE
105
DCB
330
A
100
AcDbSymbolTableRecord
100
AcDbDimStyleTableRecord
  2
AM_ANSI$7
 70
     0
  4
mm
 41
0.12
 42
0.05
 43
0.5
 44
0.1
 47
0.1
 48
0.1
 78
     7
 79
     2
 90
     1
140
0.12
141
0.0
146
0.71
147
0.06
176
   256
177
   256
178
     2
274
     4
284
     7
340
11
345
14
346
14
347
14
371
    -1
372
    -1
  0
DIMSTYLE
105
DCC
330
A
100
AcDbSymbolTableRecord
100
AcDbDimStyleTableRecord
  2
AM_ANSI$SF
 70
     0
  4
mm
 41
0.12
 42
0.05
 43
0.5
 44
0.1
 47
0.1
 48
0.1
 75
     1
 76
     1
 78
     7
 79
     2
 90
     1
140
0.12
141
0.0
146
0.71
147
0.06
176
   256
177
   256
178
     2
274
     4
284
     7
340
11
345
14
346
14
347
14
371
    -1
372
    -1
  0
DIMSTYLE
105
DD1
330
A
100
AcDbSymbolTableRecord
100
AcDbDimStyleTableRecord
  2
AM_ANSI$SH
 70
     0
  4
mm
 41
0.12
 42
0.05
 43
0.5
 44
0.1
 47
0.1
 48
0.1
 75
     1
 76
     1
 78
     7
 79
     2
 90
     1
140
0.12
141
0.0
146
0.71
147
0.06
173
     1
176
   256
177
   256
178
     2
274
     4
284
     7
340
11
343
DCD
345
14
346
14
347
14
371
    -1
372
    -1
  0
ENDTAB
  0
TABLE
  2
BLOCK_RECORD
  5
1
330
0
100
AcDbSymbolTable
 70
    78
  0
BLOCK_RECORD
  5
220
102
{ACAD_XDICTIONARY
360
2922
102
}
330
1
100
AcDbSymbolTableRecord
100
AcDbBlockTableRecord
  2
*Model_Space
340
CD7
 70
     0
280
     1
281
     0
  0
BLOCK_RECORD
  5
221
330
1
100
AcDbSymbolTableRecord
100
AcDbBlockTableRecord
  2
*Paper_Space
340
CD8
 70
     0
280
     1
281
     0
  0
BLOCK_RECORD
  5
222
330
1
100
AcDbSymbolTableRecord
100
AcDbBlockTableRecord
  2
_FILLED
340
0
102
{BLKREFS
331
2E5
331
2E6
331
E11
331
E1A
331
E1B
331
E23
331
E24
331
E2C
331
E2D
331
E35
331
E36
331
E40
331
E41
331
E46
331
E4E
331
E4F
331
E54
331
E65
331
E66
331
E6E
331
E6F
331
E78
331
E79
331
E81
331
E82
331
E8B
331
E8C
331
E94
331
E95
331
E9E
331
E9F
331
EA7
331
EA8
331
EB1
331
EB2
331
EBA
331
EBB
331
EC3
331
EC4
331
2302
331
2303
331
230F
331
2310
331
231C
331
231D
331
2329
331
232A
331
2335
331
233F
331
2340
331
234B
331
2357
331
2358
331
2366
331
2367
331
2373
331
2374
331
2380
331
2381
331
238E
331
238F
331
239B
331
239C
331
23A8
331
23A9
331
23B5
331
23B6
331
23C2
331
23C3
331
23CF
331
23D0
331
23DC
331
23DD
331
23E9
331
23EA
331
243C
331
2446
331
2447
102
}
 70
     0
280
     1
281
     0
  0
BLOCK_RECORD
  5
DCD
330
1
100
AcDbSymbolTableRecord
100
AcDbBlockTableRecord
  2
GENAXEH
340
0
 70
     0
280
     1
281
     0
  0
ENDTAB
  0
ENDSEC
  0
SECTION
  2
BLOCKS
  0
BLOCK
  5
20
330
220
100
AcDbEntity
  8
0
100
AcDbBlockBegin
  2
*Model_Space
 70
     0
 10
0.0
 20
0.0
 30
0.0
  3
*Model_Space
  1

  0
ENDBLK
  5
21
330
220
100
AcDbEntity
  8
0
100
AcDbBlockEnd
  0
BLOCK
  5
1C
330
221
100
AcDbEntity
 67
     1
  8
0
100
AcDbBlockBegin
  2
*Paper_Space
 70
     0
 10
0.0
 20
0.0
 30
0.0
  3
*Paper_Space
  1

  0
ENDBLK
  5
1D
330
221
100
AcDbEntity
 67
     1
  8
0
100
AcDbBlockEnd
  0
BLOCK
  5
2DC
330
222
100
AcDbEntity
  8
0
100
AcDbBlockBegin
  2
_FILLED
 70
     0
 10
0.0
 20
0.0
 30
0.0
  3
_FILLED
  1

  0
SOLID
  5
2DD
330
222
100
AcDbEntity
  8
0
  6
ByBlock
 62
     0
100
AcDbTrace
 10
0.0
 20
0.0
 30
0.0
 11
-1.0
 21
0.1666666667
 31
0.0
 12
-1.0
 22
-0.1666666667
 32
0.0
 13
-1.0
 23
-0.1666666667
 33
0.0
  0
ENDBLK
  5
2DE
330
222
100
AcDbEntity
  8
0
  6
ByBlock
 62
     0
100
AcDbBlockEnd
  0
BLOCK
  5
DCF
330
DCD
100
AcDbEntity
  8
0
100
AcDbBlockBegin
  2
GENAXEH
 70
     0
 10
0.0
 20
0.0
 30
0.0
  3
GENAXEH
  1

  0
LINE
  5
DCE
330
DCD
100
AcDbEntity
  8
0
100
AcDbLine
 10
-1.0
 20
0.0
 30
0.0
 11
1.0
 21
0.0
 31
0.0
  0
ENDBLK
  5
DD0
330
DCD
100
AcDbEntity
  8
0
100
AcDbBlockEnd
  0
ENDSEC
  0
SECTION
  2
ENTITIES
  0
LINE
  5
1B68
330
220
100
AcDbEntity
  8
0
  6
Continuous
 62
     7
100
AcDbLine
 10
74.22025077911516
 20
15.83108518989965
 30
0.0
 11
76.14620259941517
 21
15.83108518989965
 31
0.0
  0
LWPOLYLINE
  5
20F1
330
220
100
AcDbEntity
  8
0
  6
Continuous
 62
     7
100
AcDbPolyline
 90
       23
 70
     0
 43
0.0
 10
70.02103404381516
 20
15.85573395469965
 10
70.02128082181517
 20
15.84787324079965
 10
70.02218236621516
 20
15.83881569319965
 10
70.02374043991517
 20
15.82985502559965
 10
70.02594408351517
 20
15.82103658889965
 10
70.02878213821516
 20
15.81240421699965
 10
70.03223988121518
 20
15.80400265559965
 10
70.03629682431517
 20
15.79587588199965
 10
70.04093268371517
 20
15.78806650079965
 10
70.04612396341517
 20
15.78061579929965
 10
70.05184100851517
 20
15.77356249499965
 10
70.05805354851517
 20
15.76694467729965
 10
70.06472899491517
 20
15.76079764519965
 10
70.07183063701517
 20
15.75515202619965
 10
70.07932127011518
 20
15.75003803349965
 10
70.08716096051516
 20
15.74548330229965
 10
70.09530723751517
 20
15.74150922559965
 10
70.10371882761517
 20
15.73813621699965
 10
70.11235207261517
 20
15.73538282579965
 10
70.12116242121518
 20
15.73326168519965
 10
70.13010744861516
 20
15.73178444379965
 10
70.13914039671516
 20
15.73096007569965
 10
70.14599598511516
 20
15.73077169199965
  0
LINE
  5
20F8
330
220
100
AcDbEntity
  8
0
  6
Continuous
 62
     7
100
AcDbLine
 10
70.02103253551517
 20
24.07718811469965
 30
0.0
 11
70.02103253551517
 21
15.85573395469965
 31
0.0
  0
LWPOLYLINE
  5
20FB
330
220
100
AcDbEntity
  8
0
  6
Continuous
 62
     7
100
AcDbPolyline
 90
       13
 70
     0
 43
0.0
 10
73.40196169891517
 20
15.68786094029965
 10
73.48584121731517
 20
15.66101471039965
 10
73.55176529881517
 20
15.64171696059965
 10
73.61820048241518
 20
15.62423575469965
 10
73.68508777111516
 20
15.60858747269965
 10
73.75237244441517
 20
15.59478645689965
 10
73.82000930281517
 20
15.58284100759965
 10
73.88795104511517
 20
15.57275889909965
 10
73.95615019981517
 20
15.56454793339965
 10
74.02456130201517
 20
15.55821484639965
 10
74.09312812521517
 20
15.55376361709965
 10
74.16178960761516
 20
15.55119751729965
 10
74.22074715501517
 20
15.55050078909965
  0
LINE
  5
20FE
330
220
100
AcDbEntity
  8
0
  6
Continuous
 62
     7
100
AcDbLine
 10
70.61625624211517
 20
16.42382023119965
 30
0.0
 11
70.61625624211517
 21
23.50910183799965
 31
0.0
  0
LINE
  5
2102
330
220
100
AcDbEntity
  8
0
  6
Continuous
 62
     7
100
AcDbLine
 10
70.79135424971517
 20
16.62339047039965
 30
0.0
 11
70.79135424971517
 21
23.30953159889965
 31
0.0
  0
LWPOLYLINE
  5
2105
330
220
100
AcDbEntity
  8
0
  6
Continuous
 62
     7
100
AcDbPolyline
 90
       23
 70
     0
 43
0.0
 10
80.22145014521518
 20
15.73077169199965
 10
80.22830573351518
 20
15.73096007569965
 10
80.23733868171516
 20
15.73178444379965
 10
80.24628370911518
 20
15.73326168519965
 10
80.25509405761516
 20
15.73538282579965
 10
80.26372730261517
 20
15.73813621699965
 10
80.27213889271516
 20
15.74150922559965
 10
80.28028516971517
 20
15.74548330229965
 10
80.28812486021516
 20
15.75003803349965
 10
80.29561549331516
 20
15.75515202619965
 10
80.30271713531517
 20
15.76079764519965
 10
80.30939258181517
 20
15.76694467729965
 10
80.31560512171516
 20
15.77356249499965
 10
80.32132216681516
 20
15.78061579929965
 10
80.32651344651517
 20
15.78806650079965
 10
80.33114930591517
 20
15.79587588199965
 10
80.33520624911517
 20
15.80400265559965
 10
80.33866399211516
 20
15.81240421699965
 10
80.34150204681516
 20
15.82103658889965
 10
80.34370569041517
 20
15.82985502559965
 10
80.34526376401517
 20
15.83881569319965
 10
80.34616530841516
 20
15.84787324079965
 10
80.34641208641517
 20
15.85573395469965
  0
LWPOLYLINE
  5
2106
330
220
100
AcDbEntity
  8
0
  6
Continuous
 62
     7
100
AcDbPolyline
 90
       12
 70
     0
 43
0.0
 10
76.14669897531517
 20
15.55050078909965
 10
76.20565652261517
 20
15.55119751729965
 10
76.27431800511516
 20
15.55376361709965
 10
76.34288482821517
 20
15.55821484639965
 10
76.41129593051516
 20
15.56454793339965
 10
76.47949508511516
 20
15.57275889909965
 10
76.54743682751517
 20
15.58284100759965
 10
76.61507368591516
 20
15.59478645689965
 10
76.68235835911517
 20
15.60858747269965
 10
76.74924564791517
 20
15.62423575469965
 10
76.81568083151517
 20
15.64171696059965
 10
76.88160491301516
 20
15.66101471039965
  0
LINE
  5
2107
330
220
100
AcDbEntity
  8
0
  6
Continuous
 62
     7
100
AcDbLine
 10
74.22074715501517
 20
15.55050069739965
 30
0.0
 11
76.14669897531517
 21
15.55050069739965
 31
0.0
  0
LINE
  5
2108
330
220
100
AcDbEntity
  8
0
  6
Continuous
 62
     7
100
AcDbLine
 10
70.14599598511516
 20
15.73077050499965
 30
0.0
 11
73.11225235331517
 21
15.73077050499965
 31
0.0
  0
LINE
  5
2109
330
220
100
AcDbEntity
  8
0
  6
Continuous
 62
     7
100
AcDbLine
 10
77.25519377691518
 20
15.73077050499965
 30
0.0
 11
80.22145014521518
 21
15.73077050499965
 31
0.0
  0
LWPOLYLINE
  5
210A
330
220
100
AcDbEntity
  8
0
  6
Continuous
 62
     7
100
AcDbPolyline
 90
        9
 70
     0
 43
0.0
 10
73.11225235331517
 20
15.73077040289965
 10
73.14136410841517
 20
15.73034569979965
 10
73.17915237771517
 20
15.72852832019965
 10
73.21684530501517
 20
15.72528324539965
 10
73.25438168011517
 20
15.72061427139965
 10
73.29171059371517
 20
15.71452864899965
 10
73.32878510061516
 20
15.70703409289965
 10
73.36555506271517
 20
15.69813965589965
 10
73.40196169891517
 20
15.68786094029965
  0
LINE
  5
210D
330
220
100
AcDbEntity
  8
0
  6
Continuous
 62
     7
100
AcDbLine
 10
71.15384697571517
 20
23.06851093589965
 30
0.0
 11
71.15384698131517
 21
16.86441109869965
 31
0.0
  0
LINE
  5
210E
330
220
100
AcDbEntity
  8
0
  6
Continuous
 62
     7
100
AcDbLine
 10
71.28085323201517
 20
16.96685594019965
 30
0.0
 11
71.28085322291517
 21
22.99055634639965
 31
0.0
  0
LINE
  5
210F
330
220
100
AcDbEntity
  8
0
  6
Continuous
 62
     7
100
AcDbLine
 10
70.71408226171516
 20
16.32599421159965
 30
0.0
 11
79.65336386851517
 21
16.32599421159965
 31
0.0
  0
LINE
  5
2114
330
220
100
AcDbEntity
  8
0
  6
Continuous
 62
     7
100
AcDbLine
 10
70.91569571631517
 20
16.49730111699965
 30
0.0
 11
79.45175041391516
 21
16.49730111699965
 31
0.0
  0
LINE
  5
2116
330
220
100
AcDbEntity
  8
0
  6
Continuous
 62
     7
100
AcDbLine
 10
79.08899413151516
 20
16.73968786379965
 30
0.0
 11
71.27845199871517
 21
16.73968786379965
 31
0.0
  0
LINE
  5
211A
330
220
100
AcDbEntity
  8
0
  6
Continuous
 62
     7
100
AcDbLine
 10
71.36153372461517
 20
16.86948173839965
 30
0.0
 11
79.00591240561516
 21
16.86948173839965
 31
0.0
  0
LINE
  5
2129
330
220
100
AcDbEntity
  8
0
  6
CENTER2
 62
     1
 48
0.4
100
AcDbLine
 10
75.18372306511517
 20
15.14893810669965
 30
0.0
 11
75.18372306511517
 21
24.43796758308145
 31
0.0
  0
LINE
  5
213A
330
220
100
AcDbEntity
  8
DEFAULT_3
  6
PHANTOM
 62
     1
100
AcDbLine
 10
74.25076998274241
 20
21.61096103459966
 30
0.0
 11
76.12966516138792
 21
21.61096103459966
 31
0.0
  0
LINE
  5
213F
330
220
100
AcDbEntity
  8
0
  6
Continuous
 62
     7
100
AcDbLine
 10
74.64974401991518
 20
22.90430774659965
 30
0.0
 11
75.71770211041517
 21
22.90430774659965
 31
0.0
  0
LINE
  5
2141
330
220
100
AcDbEntity
  8
0
  6
Continuous
 62
     7
100
AcDbLine
 10
78.98505987081517
 20
23.07794748739965
 30
0.0
 11
71.38238625951517
 21
23.07794748739965
 31
0.0
  0
LINE
  5
2147
330
220
100
AcDbEntity
  8
0
  6
Continuous
 62
     7
100
AcDbLine
 10
71.27845197411517
 20
23.19323420549965
 30
0.0
 11
79.08899415611518
 21
23.19323420549965
 31
0.0
  0
LINE
  5
214B
330
220
100
AcDbEntity
  8
0
  6
Continuous
 62
     7
100
AcDbLine
 10
79.45175041391516
 20
23.43562095219965
 30
0.0
 11
70.91569571631517
 21
23.43562095219965
 31
0.0
  0
LINE
  5
214F
330
220
100
AcDbEntity
  8
0
  6
Continuous
 62
     7
100
AcDbLine
 10
79.65336386851517
 20
23.60692785759965
 30
0.0
 11
70.71408226171516
 21
23.60692785759965
 31
0.0
  0
LINE
  5
2150
330
220
100
AcDbEntity
  8
0
  6
Continuous
 62
     7
100
AcDbLine
 10
79.08659289821518
 20
16.96685594019965
 30
0.0
 11
79.08659290741517
 21
22.99055634639965
 31
0.0
  0
LINE
  5
2151
330
220
100
AcDbEntity
  8
0
  6
Continuous
 62
     7
100
AcDbLine
 10
79.21359915451517
 20
23.06851093589965
 30
0.0
 11
79.21359914901517
 21
16.86441109869965
 31
0.0
  0
LINE
  5
2153
330
220
100
AcDbEntity
  8
0
  6
Continuous
 62
     7
100
AcDbLine
 10
79.57609188061517
 20
16.62339047039965
 30
0.0
 11
79.57609188061517
 21
23.30953159889965
 31
0.0
  0
LWPOLYLINE
  5
2157
330
220
100
AcDbEntity
  8
0
  6
Continuous
 62
     7
100
AcDbPolyline
 90
       23
 70
     0
 43
0.0
 10
70.14599598521517
 20
24.20215005589965
 10
70.13813527131516
 20
24.20190327789966
 10
70.12907772371517
 20
24.20100173349965
 10
70.12011705611516
 20
24.19944365989965
 10
70.11129861941516
 20
24.19724001629965
 10
70.10266624751517
 20
24.19440196159965
 10
70.09426468611517
 20
24.19094421859965
 10
70.08613791251517
 20
24.18688727549965
 10
70.07832853131517
 20
24.18225141599965
 10
70.07087782981518
 20
24.17706013629965
 10
70.06382452551517
 20
24.17134309129965
 10
70.05720670781517
 20
24.16513055129966
 10
70.05105967571516
 20
24.15845510479965
 10
70.04541405671517
 20
24.15135346279965
 10
70.04030006401517
 20
24.14386282969965
 10
70.03574533281517
 20
24.13602313929966
 10
70.03177125601517
 20
24.12787686219965
 10
70.02839824751517
 20
24.11946527209965
 10
70.02564485631516
 20
24.11083202709966
 10
70.02352371571517
 20
24.10202167859966
 10
70.02204647421518
 20
24.09307665119965
 10
70.02122210621516
 20
24.08404370309965
 10
70.02103372251517
 20
24.07718811469965
  0
LINE
  5
2158
330
220
100
AcDbEntity
  8
0
  6
Continuous
 62
     7
100
AcDbLine
 10
80.22145014511517
 20
24.20215156419966
 30
0.0
 11
70.14599598511516
 21
24.20215156419966
 31
0.0
  0
LINE
  5
215D
330
220
100
AcDbEntity
  8
0
  6
Continuous
 62
     7
100
AcDbLine
 10
79.75118988811516
 20
16.42382023119965
 30
0.0
 11
79.75118988811516
 21
23.50910183799965
 31
0.0
  0
LWPOLYLINE
  5
2160
330
220
100
AcDbEntity
  8
0
  6
Continuous
 62
     7
100
AcDbPolyline
 90
       10
 70
     0
 43
0.0
 10
76.88160491301516
 20
15.66101471039965
 10
76.96548443131516
 20
15.68786094029965
 10
77.00189106751517
 20
15.69813965589965
 10
77.03866102961517
 20
15.70703409289965
 10
77.07573553661517
 20
15.71452864899965
 10
77.11306445021517
 20
15.72061427139965
 10
77.15060082531516
 20
15.72528324539965
 10
77.18829375251516
 20
15.72852832019965
 10
77.22608202181517
 20
15.73034569979965
 10
77.25519377691518
 20
15.73077040289965
  0
LWPOLYLINE
  5
2161
330
220
100
AcDbEntity
  8
0
  6
Continuous
 62
     7
100
AcDbPolyline
 90
       23
 70
     0
 43
0.0
 10
80.34641240781516
 20
24.07718811469965
 10
80.34622402401517
 20
24.08404370309965
 10
80.34539965601517
 20
24.09307665119965
 10
80.34392241451516
 20
24.10202167859966
 10
80.34180127401517
 20
24.11083202709966
 10
80.33904788271517
 20
24.11946527209965
 10
80.33567487421517
 20
24.12787686219965
 10
80.33170079751517
 20
24.13602313929966
 10
80.32714606631516
 20
24.14386282969965
 10
80.32203207351518
 20
24.15135346279965
 10
80.31638645461518
 20
24.15845510479965
 10
80.31023942251517
 20
24.16513055129966
 10
80.30362160471517
 20
24.17134309129965
 10
80.29656830041517
 20
24.17706013629965
 10
80.28911759891517
 20
24.18225141599965
 10
80.28130821771517
 20
24.18688727549965
 10
80.27318144411516
 20
24.19094421859965
 10
80.26477988271517
 20
24.19440196159965
 10
80.25614751081517
 20
24.19724001629965
 10
80.24732907421517
 20
24.19944365989965
 10
80.23836840651517
 20
24.20100173349965
 10
80.22931085891517
 20
24.20190327789966
 10
80.22145014511517
 20
24.20215005589965
  0
LINE
  5
2162
330
220
100
AcDbEntity
  8
0
  6
Continuous
 62
     7
100
AcDbLine
 10
80.34641359471518
 20
15.85573395469965
 30
0.0
 11
80.34641359471518
 21
24.07718811469965
 31
0.0
  0
ARC
  5
222F
330
220
100
AcDbEntity
  8
0
  6
Continuous
 62
     7
100
AcDbCircle
 10
76.14622382411517
 20
18.32962185669965
 30
0.0
 40
2.498495056999999
100
AcDbArc
 50
271.1749395656001
 51
288.4751698394002
  0
ARC
  5
2230
330
220
100
AcDbEntity
  8
0
  6
Continuous
 62
     7
100
AcDbCircle
 10
74.22022188341516
 20
18.32959214399965
 30
0.0
 40
2.4984644449
100
AcDbArc
 50
251.5247810833002
 51
268.4505975400997
  0
ARC
  5
2231
330
220
100
AcDbEntity
  8
0
  6
Continuous
 62
     7
100
AcDbCircle
 10
73.11183640191517
 20
15.01216883409965
 30
0.0
 40
0.9992227614
100
AcDbArc
 50
71.52552091320014
 51
86.68337852870024
  0
ARC
  5
2232
330
220
100
AcDbEntity
  8
0
  6
Continuous
 62
     7
100
AcDbCircle
 10
77.25461287451517
 20
15.01218752009965
 30
0.0
 40
0.9992037384999999
100
AcDbArc
 50
93.66534988719983
 51
108.4745955223001
  0
ARC
  5
223B
330
220
100
AcDbEntity
  8
0
  6
Continuous
 62
     7
100
AcDbCircle
 10
75.71788885431516
 20
40.67880054389966
 30
0.0
 40
17.7744927983
100
AcDbArc
 50
269.9993980341
 51
270.4785817748001
  0
ARC
  5
223C
330
220
100
AcDbEntity
  8
0
  6
Continuous
 62
     7
100
AcDbCircle
 10
74.64955727591517
 20
40.67880054389966
 30
0.0
 40
17.7744927983
100
AcDbArc
 50
269.5214182251998
 51
270.0006019659
  0
ARC
  5
223D
330
220
100
AcDbEntity
  8
0
  6
Continuous
 62
     7
100
AcDbCircle
 10
75.18372306511517
 20
21.61096103459966
 30
0.0
 40
0.5517766966
100
AcDbArc
 50
222.8673607512
 51
227.0453132023
  0
ARC
  5
223E
330
220
100
AcDbEntity
  8
0
  6
Continuous
 62
     7
100
AcDbCircle
 10
75.18372306511517
 20
21.61096103459966
 30
0.0
 40
0.5517766966
100
AcDbArc
 50
312.9546867976999
 51
317.1326392488
  0
ARC
  5
223F
330
220
100
AcDbEntity
  8
0
  6
Continuous
 62
     7
100
AcDbCircle
 10
75.18372306511517
 20
21.61096103459966
 30
0.0
 40
0.5517766910999999
100
AcDbArc
 50
42.86736075119999
 51
137.1326392488
  0
CIRCLE
  5
2244
330
220
100
AcDbEntity
  8
0
  6
Continuous
 62
     7
100
AcDbCircle
 10
75.18372306511517
 20
21.61096103459966
 30
0.0
 40
0.4375
  0
ARC
  5
2245
330
220
100
AcDbEntity
  8
0
  6
Continuous
 62
     7
100
AcDbCircle
 10
79.08835638731517
 20
16.86491451619965
 30
0.0
 40
0.1252391449
100
AcDbArc
 50
270.2917882187001
 51
359.7696593876999
  0
ARC
  5
2246
330
220
100
AcDbEntity
  8
0
  6
Continuous
 62
     7
100
AcDbCircle
 10
71.27908974101517
 20
16.86491451419965
 30
0.0
 40
0.1252391355
100
AcDbArc
 50
180.2303397347999
 51
269.7082126552002
  0
ARC
  5
2247
330
220
100
AcDbEntity
  8
0
  6
Continuous
 62
     7
100
AcDbCircle
 10
79.08835627101517
 20
23.06800801779965
 30
0.0
 40
0.1252388803
100
AcDbArc
 50
0.2300738706000053
 51
89.70796538119964
  0
ARC
  5
2248
330
220
100
AcDbEntity
  8
0
  6
Continuous
 62
     7
100
AcDbCircle
 10
71.27908985751517
 20
23.06800801959965
 30
0.0
 40
0.12523887
100
AcDbArc
 50
90.29203382560021
 51
179.7699269287
  0
SPLINE
  5
2299
330
220
100
AcDbEntity
  8
DATUM_AXIS
  6
Continuous
 62
     7
100
AcDbSpline
210
0.0
220
0.0
230
1.0
 70
     8
 71
     3
 72
    33
 73
    29
 74
     0
 42
0.0000000001
 43
0.0000000001
 40
0.0
 40
0.0
 40
0.0
 40
0.0
 40
0.0215123022
 40
0.02877303
 40
0.036888229
 40
0.055750758
 40
0.0781449785
 40
0.1039678576
 40
0.13305678
 40
0.1652060443
 40
0.2001879648
 40
0.2377549081
 40
0.3195137893
 40
0.4079702431000001
 40
0.5000118191
 40
0.5920532475
 40
0.6805089115000001
 40
0.7622642609999999
 40
0.7998289616
 40
0.8348072864
 40
0.8669537329
 40
0.8960400957999999
 40
0.9218611560999999
 40
0.9442535585999999
 40
0.9631148107999999
 40
0.9712291296
 40
0.9784891663999999
 40
1.0
 40
1.0
 40
1.0
 40
1.0
 10
74.84122306511517
 20
16.71736692289965
 30
0.0
 10
74.84122306511517
 20
16.71491932759965
 30
0.0
 10
74.83931720621517
 20
16.71179669449965
 30
0.0
 10
74.83647422431516
 20
16.70876981299965
 30
0.0
 10
74.83357556861517
 20
16.70614449609965
 30
0.0
 10
74.82904181611516
 20
16.70281740169965
 30
0.0
 10
74.82251039281518
 20
16.69885251369965
 30
0.0
 10
74.81469676301516
 20
16.69480348689965
 30
0.0
 10
74.80566340451517
 20
16.69072885489965
 30
0.0
 10
74.79547802841517
 20
16.68670545439965
 30
0.0
 10
74.78421558771517
 20
16.68281355169965
 30
0.0
 10
74.76739138651517
 20
16.67778064539965
 30
0.0
 10
74.74432539091516
 20
16.67245969289965
 30
0.0
 10
74.71473952441517
 20
16.66829089699965
 30
0.0
 10
74.68371903151517
 20
16.66681662309965
 30
0.0
 10
74.65269867311516
 20
16.66829176569965
 30
0.0
 10
74.62311340801517
 20
16.67246108409965
 30
0.0
 10
74.60004820071516
 20
16.67778219399965
 30
0.0
 10
74.58322521501518
 20
16.68281542309965
 30
0.0
 10
74.57196368861517
 20
16.68670696189965
 30
0.0
 10
74.56177942801517
 20
16.69073040189965
 30
0.0
 10
74.55274678801517
 20
16.69480463579965
 30
0.0
 10
74.54493392381516
 20
16.69885360689965
 30
0.0
 10
74.53840299461517
 20
16.70281823229965
 30
0.0
 10
74.53386973781516
 20
16.70614524189965
 30
0.0
 10
74.53097137041517
 20
16.70877038489965
 30
0.0
 10
74.52812861611517
 20
16.71179702329965
 30
0.0
 10
74.52622306511518
 20
16.71491949469965
 30
0.0
 10
74.52622306511518
 20
16.71736692289965
 30
0.0
  0
SPLINE
  5
229A
330
220
100
AcDbEntity
  8
DATUM_AXIS
  6
Continuous
 62
     7
100
AcDbSpline
210
0.0
220
0.0
230
1.0
 70
     8
 71
     3
 72
    33
 73
    29
 74
     0
 42
0.0000000001
 43
0.0000000001
 40
0.0
 40
0.0
 40
0.0
 40
0.0
 40
0.0215123022
 40
0.02877303
 40
0.036888229
 40
0.055750758
 40
0.0781449785
 40
0.1039678576
 40
0.13305678
 40
0.1652060443
 40
0.2001879648
 40
0.2377549081
 40
0.3195137893
 40
0.4079702431000001
 40
0.5000118191
 40
0.5920532475
 40
0.6805089115000001
 40
0.7622642609999999
 40
0.7998289616
 40
0.8348072864
 40
0.8669537329
 40
0.8960400957999999
 40
0.9218611560999999
 40
0.9442535585999999
 40
0.9631148107999999
 40
0.9712291296
 40
0.9784891663999999
 40
1.0
 40
1.0
 40
1.0
 40
1.0
 10
75.34122306511517
 20
16.71736692289965
 30
0.0
 10
75.34122306511517
 20
16.71491932759965
 30
0.0
 10
75.33931720621517
 20
16.71179669449965
 30
0.0
 10
75.33647422431517
 20
16.70876981299965
 30
0.0
 10
75.33357556861517
 20
16.70614449609965
 30
0.0
 10
75.32904181611517
 20
16.70281740169965
 30
0.0
 10
75.32251039281516
 20
16.69885251369965
 30
0.0
 10
75.31469676301518
 20
16.69480348689965
 30
0.0
 10
75.30566340451517
 20
16.69072885489965
 30
0.0
 10
75.29547802841517
 20
16.68670545439965
 30
0.0
 10
75.28421558771516
 20
16.68281355169965
 30
0.0
 10
75.26739138651517
 20
16.67778064539965
 30
0.0
 10
75.24432539091517
 20
16.67245969289965
 30
0.0
 10
75.21473952441517
 20
16.66829089699965
 30
0.0
 10
75.18371903151517
 20
16.66681662309965
 30
0.0
 10
75.15269867311516
 20
16.66829176569965
 30
0.0
 10
75.12311340801517
 20
16.67246108409965
 30
0.0
 10
75.10004820071516
 20
16.67778219399965
 30
0.0
 10
75.08322521501518
 20
16.68281542309965
 30
0.0
 10
75.07196368861517
 20
16.68670696189965
 30
0.0
 10
75.06177942801517
 20
16.69073040189965
 30
0.0
 10
75.05274678801517
 20
16.69480463579965
 30
0.0
 10
75.04493392381516
 20
16.69885360689965
 30
0.0
 10
75.03840299461517
 20
16.70281823229965
 30
0.0
 10
75.03386973781516
 20
16.70614524189965
 30
0.0
 10
75.03097137041518
 20
16.70877038489965
 30
0.0
 10
75.02812861611516
 20
16.71179702329965
 30
0.0
 10
75.02622306511518
 20
16.71491949469965
 30
0.0
 10
75.02622306511518
 20
16.71736692289965
 30
0.0
  0
SPLINE
  5
229B
330
220
100
AcDbEntity
  8
DATUM_AXIS
  6
Continuous
 62
     7
100
AcDbSpline
210
0.0
220
0.0
230
1.0
 70
     8
 71
     3
 72
    33
 73
    29
 74
     0
 42
0.0000000001
 43
0.0000000001
 40
0.0
 40
0.0
 40
0.0
 40
0.0
 40
0.0215123022
 40
0.02877303
 40
0.036888229
 40
0.055750758
 40
0.0781449785
 40
0.1039678576
 40
0.13305678
 40
0.1652060443
 40
0.2001879648
 40
0.2377549081
 40
0.3195137893
 40
0.4079702431000001
 40
0.5000118191
 40
0.5920532475
 40
0.6805089115000001
 40
0.7622642609999999
 40
0.7998289616
 40
0.8348072864
 40
0.8669537329
 40
0.8960400957999999
 40
0.9218611560999999
 40
0.9442535585999999
 40
0.9631148107999999
 40
0.9712291296
 40
0.9784891663999999
 40
1.0
 40
1.0
 40
1.0
 40
1.0
 10
75.84122306511517
 20
16.71736692289965
 30
0.0
 10
75.84122306511517
 20
16.71491932759965
 30
0.0
 10
75.83931720621517
 20
16.71179669449965
 30
0.0
 10
75.83647422431517
 20
16.70876981299965
 30
0.0
 10
75.83357556861518
 20
16.70614449609965
 30
0.0
 10
75.82904181611517
 20
16.70281740169965
 30
0.0
 10
75.82251039281516
 20
16.69885251369965
 30
0.0
 10
75.81469676301518
 20
16.69480348689965
 30
0.0
 10
75.80566340451517
 20
16.69072885489965
 30
0.0
 10
75.79547802841517
 20
16.68670545439965
 30
0.0
 10
75.78421558771516
 20
16.68281355169965
 30
0.0
 10
75.76739138651517
 20
16.67778064539965
 30
0.0
 10
75.74432539091517
 20
16.67245969289965
 30
0.0
 10
75.71473952441516
 20
16.66829089699965
 30
0.0
 10
75.68371903151517
 20
16.66681662309965
 30
0.0
 10
75.65269867311517
 20
16.66829176569965
 30
0.0
 10
75.62311340801517
 20
16.67246108409965
 30
0.0
 10
75.60004820071516
 20
16.67778219399965
 30
0.0
 10
75.58322521501517
 20
16.68281542309965
 30
0.0
 10
75.57196368861517
 20
16.68670696189965
 30
0.0
 10
75.56177942801517
 20
16.69073040189965
 30
0.0
 10
75.55274678801517
 20
16.69480463579965
 30
0.0
 10
75.54493392381516
 20
16.69885360689965
 30
0.0
 10
75.53840299461517
 20
16.70281823229965
 30
0.0
 10
75.53386973781517
 20
16.70614524189965
 30
0.0
 10
75.53097137041517
 20
16.70877038489965
 30
0.0
 10
75.52812861611517
 20
16.71179702329965
 30
0.0
 10
75.52622306511517
 20
16.71491949469965
 30
0.0
 10
75.52622306511517
 20
16.71736692289965
 30
0.0
  0
SPLINE
  5
229C
330
220
100
AcDbEntity
  8
0
  6
Continuous
 62
     7
100
AcDbSpline
210
0.0
220
0.0
230
1.0
 70
     8
 71
     3
 72
    26
 73
    22
 74
     0
 42
0.0000000001
 43
0.0000000001
 40
0.0
 40
0.0
 40
0.0
 40
0.0
 40
0.0177828304
 40
0.0365242828
 40
0.0562661878
 40
0.0769883838
 40
0.12129194
 40
0.1692412423
 40
0.2207583534
 40
0.2761295287
 40
0.3357499315
 40
0.367281822
 40
0.4000133227
 40
0.433872875
 40
0.4686907287
 40
0.5406070955
 40
0.6147656229999999
 40
0.6904484705
 40
0.7671291087000001
 40
0.8444342298
 40
1.0
 40
1.0
 40
1.0
 40
1.0
 10
78.98505987081517
 20
23.07794748739965
 30
0.0
 10
78.96681721521517
 20
23.07467359999965
 30
0.0
 10
78.92931615941517
 20
23.06812693909965
 30
0.0
 10
78.87142880641516
 20
23.05873341739965
 30
0.0
 10
78.81041520101518
 20
23.04950301879966
 30
0.0
 10
78.72293578661516
 20
23.03713087819965
 30
0.0
 10
78.60613206631517
 20
23.02220473199965
 30
0.0
 10
78.45723494641517
 20
23.00535195699966
 30
0.0
 10
78.29666087121516
 20
22.98921136869966
 30
0.0
 10
78.12377643261517
 20
22.97405185909966
 30
0.0
 10
77.97148101691516
 20
22.96269192839965
 30
0.0
 10
77.84263066551517
 20
22.95437715679965
 30
0.0
 10
77.74052956601517
 20
22.94851557229965
 30
0.0
 10
77.63497110461518
 20
22.94316854559965
 30
0.0
 10
77.48858449651518
 20
22.93659635249965
 30
0.0
 10
77.30017722711517
 20
22.92958265359965
 30
0.0
 10
77.06914867451516
 20
22.92280120489965
 30
0.0
 10
76.83311776491517
 20
22.91737964109965
 30
0.0
 10
76.59378391441517
 20
22.91309683469965
 30
0.0
 10
76.27118555941517
 20
22.90859892189965
 30
0.0
 10
76.02848669751518
 20
22.90628008889965
 30
0.0
 10
75.86635440391517
 20
22.90492780279965
 30
0.0
  0
SPLINE
  5
229D
330
220
100
AcDbEntity
  8
DATUM_AXIS
  6
Continuous
 62
     7
100
AcDbSpline
210
0.0
220
0.0
230
1.0
 70
     8
 71
     3
 72
    37
 73
    33
 74
     0
 42
0.0000000001
 43
0.0000000001
 40
0.0
 40
0.0
 40
0.0
 40
0.0
 40
0.0046010253
 40
0.0092937371
 40
0.0199153769
 40
0.0262624794
 40
0.0334402592
 40
0.050514915
 40
0.071419545
 40
0.0961669667
 40
0.1246522234
 40
0.1566690049
 40
0.1919595696
 40
0.2302044279
 40
0.3141160731
 40
0.4052200838
 40
0.5000001011000001
 40
0.5947801068000001
 40
0.6858841021
 40
0.7697957336
 40
0.8080405823999999
 40
0.8433311384999999
 40
0.8753479051000001
 40
0.9038331443999998
 40
0.9285805411
 40
0.9494851440000001
 40
0.9665597777
 40
0.9737375448000001
 40
0.9800846380999999
 40
0.9907062658999999
 40
0.9953989751000001
 40
1.0
 40
1.0
 40
1.0
 40
1.0
 10
74.52622306511518
 20
16.71736692289965
 30
0.0
 10
74.52622306511518
 20
16.71786659599965
 30
0.0
 10
74.52634765851517
 20
16.71888096459965
 30
0.0
 10
74.52715302711517
 20
16.72091065679965
 30
0.0
 10
74.52877497811517
 20
16.72270811149965
 30
0.0
 10
74.53089726801517
 20
16.72424685339965
 30
0.0
 10
74.53379792871517
 20
16.72588472259965
 30
0.0
 10
74.53837337271517
 20
16.72769772209965
 30
0.0
 10
74.54494183781517
 20
16.72952741059965
 30
0.0
 10
74.55283675871517
 20
16.73113271179965
 30
0.0
 10
74.56199207521517
 20
16.73252506279965
 30
0.0
 10
74.57232806111517
 20
16.73371962849965
 30
0.0
 10
74.58374740091517
 20
16.73473079789965
 30
0.0
 10
74.60080783601516
 20
16.73588903339965
 30
0.0
 10
74.62394911761517
 20
16.73689641589965
 30
0.0
 10
74.65324251191517
 20
16.73756990629965
 30
0.0
 10
74.68372309711518
 20
16.73778798529965
 30
0.0
 10
74.71420368071517
 20
16.73756990539965
 30
0.0
 10
74.74349707051517
 20
16.73689641399965
 30
0.0
 10
74.76663834801517
 20
16.73588903079965
 30
0.0
 10
74.78369877961516
 20
16.73473079379965
 30
0.0
 10
74.79511811571517
 20
16.73371962409965
 30
0.0
 10
74.80545409691517
 20
16.73252505669965
 30
0.0
 10
74.81460940711517
 20
16.73113270599965
 30
0.0
 10
74.82250432031517
 20
16.72952740419965
 30
0.0
 10
74.82907277671516
 20
16.72769771509965
 30
0.0
 10
74.83364821431518
 20
16.72588471719965
 30
0.0
 10
74.83654886951517
 20
16.72424684799965
 30
0.0
 10
74.83867115641517
 20
16.72270810849965
 30
0.0
 10
74.84029310591516
 20
16.72091065549965
 30
0.0
 10
74.84109847221517
 20
16.71888096419965
 30
0.0
 10
74.84122306511517
 20
16.71786659589965
 30
0.0
 10
74.84122306511517
 20
16.71736692289965
 30
0.0
  0
SPLINE
  5
229E
330
220
100
AcDbEntity
  8
DATUM_AXIS
  6
Continuous
 62
     7
100
AcDbSpline
210
0.0
220
0.0
230
1.0
 70
     8
 71
     3
 72
    37
 73
    33
 74
     0
 42
0.0000000001
 43
0.0000000001
 40
0.0
 40
0.0
 40
0.0
 40
0.0
 40
0.0046010253
 40
0.0092937371
 40
0.0199153769
 40
0.0262624794
 40
0.0334402592
 40
0.050514915
 40
0.071419545
 40
0.0961669667
 40
0.1246522234
 40
0.1566690049
 40
0.1919595696
 40
0.2302044279
 40
0.3141160731
 40
0.4052200838
 40
0.5000001011000001
 40
0.5947801068000001
 40
0.6858841021
 40
0.7697957336
 40
0.8080405823999999
 40
0.8433311384999999
 40
0.8753479051000001
 40
0.9038331443999998
 40
0.9285805411
 40
0.9494851440000001
 40
0.9665597777
 40
0.9737375448000001
 40
0.9800846380999999
 40
0.9907062658999999
 40
0.9953989751000001
 40
1.0
 40
1.0
 40
1.0
 40
1.0
 10
75.02622306511518
 20
16.71736692289965
 30
0.0
 10
75.02622306511518
 20
16.71786659599965
 30
0.0
 10
75.02634765851516
 20
16.71888096459965
 30
0.0
 10
75.02715302711518
 20
16.72091065679965
 30
0.0
 10
75.02877497811517
 20
16.72270811149965
 30
0.0
 10
75.03089726801516
 20
16.72424685339965
 30
0.0
 10
75.03379792871517
 20
16.72588472259965
 30
0.0
 10
75.03837337271517
 20
16.72769772209965
 30
0.0
 10
75.04494183781517
 20
16.72952741059965
 30
0.0
 10
75.05283675871517
 20
16.73113271179965
 30
0.0
 10
75.06199207521517
 20
16.73252506279965
 30
0.0
 10
75.07232806111517
 20
16.73371962849965
 30
0.0
 10
75.08374740091517
 20
16.73473079789965
 30
0.0
 10
75.10080783601516
 20
16.73588903339965
 30
0.0
 10
75.12394911761517
 20
16.73689641589965
 30
0.0
 10
75.15324251191517
 20
16.73756990629965
 30
0.0
 10
75.18372309711518
 20
16.73778798529965
 30
0.0
 10
75.21420368071517
 20
16.73756990539965
 30
0.0
 10
75.24349707051517
 20
16.73689641399965
 30
0.0
 10
75.26663834801516
 20
16.73588903079965
 30
0.0
 10
75.28369877961516
 20
16.73473079379965
 30
0.0
 10
75.29511811571516
 20
16.73371962409965
 30
0.0
 10
75.30545409691517
 20
16.73252505669965
 30
0.0
 10
75.31460940711517
 20
16.73113270599965
 30
0.0
 10
75.32250432031517
 20
16.72952740419965
 30
0.0
 10
75.32907277671516
 20
16.72769771509965
 30
0.0
 10
75.33364821431518
 20
16.72588471719965
 30
0.0
 10
75.33654886951516
 20
16.72424684799965
 30
0.0
 10
75.33867115641517
 20
16.72270810849965
 30
0.0
 10
75.34029310591517
 20
16.72091065549965
 30
0.0
 10
75.34109847221516
 20
16.71888096419965
 30
0.0
 10
75.34122306511517
 20
16.71786659589965
 30
0.0
 10
75.34122306511517
 20
16.71736692289965
 30
0.0
  0
SPLINE
  5
229F
330
220
100
AcDbEntity
  8
DATUM_AXIS
  6
Continuous
 62
     7
100
AcDbSpline
210
0.0
220
0.0
230
1.0
 70
     8
 71
     3
 72
    37
 73
    33
 74
     0
 42
0.0000000001
 43
0.0000000001
 40
0.0
 40
0.0
 40
0.0
 40
0.0
 40
0.0046010253
 40
0.0092937371
 40
0.0199153769
 40
0.0262624794
 40
0.0334402592
 40
0.050514915
 40
0.071419545
 40
0.0961669667
 40
0.1246522234
 40
0.1566690049
 40
0.1919595696
 40
0.2302044279
 40
0.3141160731
 40
0.4052200838
 40
0.5000001011000001
 40
0.5947801068000001
 40
0.6858841021
 40
0.7697957336
 40
0.8080405823999999
 40
0.8433311384999999
 40
0.8753479051000001
 40
0.9038331443999998
 40
0.9285805411
 40
0.9494851440000001
 40
0.9665597777
 40
0.9737375448000001
 40
0.9800846380999999
 40
0.9907062658999999
 40
0.9953989751000001
 40
1.0
 40
1.0
 40
1.0
 40
1.0
 10
75.52622306511517
 20
16.71736692289965
 30
0.0
 10
75.52622306511517
 20
16.71786659599965
 30
0.0
 10
75.52634765851516
 20
16.71888096459965
 30
0.0
 10
75.52715302711516
 20
16.72091065679965
 30
0.0
 10
75.52877497811516
 20
16.72270811149965
 30
0.0
 10
75.53089726801516
 20
16.72424685339965
 30
0.0
 10
75.53379792871517
 20
16.72588472259965
 30
0.0
 10
75.53837337271517
 20
16.72769772209965
 30
0.0
 10
75.54494183781518
 20
16.72952741059965
 30
0.0
 10
75.55283675871518
 20
16.73113271179965
 30
0.0
 10
75.56199207521517
 20
16.73252506279965
 30
0.0
 10
75.57232806111517
 20
16.73371962849965
 30
0.0
 10
75.58374740091517
 20
16.73473079789965
 30
0.0
 10
75.60080783601517
 20
16.73588903339965
 30
0.0
 10
75.62394911761517
 20
16.73689641589965
 30
0.0
 10
75.65324251191516
 20
16.73756990629965
 30
0.0
 10
75.68372309711517
 20
16.73778798529965
 30
0.0
 10
75.71420368071517
 20
16.73756990539965
 30
0.0
 10
75.74349707051517
 20
16.73689641399965
 30
0.0
 10
75.76663834801516
 20
16.73588903079965
 30
0.0
 10
75.78369877961517
 20
16.73473079379965
 30
0.0
 10
75.79511811571517
 20
16.73371962409965
 30
0.0
 10
75.80545409691517
 20
16.73252505669965
 30
0.0
 10
75.81460940711517
 20
16.73113270599965
 30
0.0
 10
75.82250432031518
 20
16.72952740419965
 30
0.0
 10
75.82907277671516
 20
16.72769771509965
 30
0.0
 10
75.83364821431517
 20
16.72588471719965
 30
0.0
 10
75.83654886951517
 20
16.72424684799965
 30
0.0
 10
75.83867115641517
 20
16.72270810849965
 30
0.0
 10
75.84029310591517
 20
16.72091065549965
 30
0.0
 10
75.84109847221516
 20
16.71888096419965
 30
0.0
 10
75.84122306511517
 20
16.71786659589965
 30
0.0
 10
75.84122306511517
 20
16.71736692289965
 30
0.0
  0
SPLINE
  5
22A2
330
220
100
AcDbEntity
  8
0
  6
Continuous
 62
     7
100
AcDbSpline
210
0.0
220
0.0
230
1.0
 70
     8
 71
     3
 72
    15
 73
    11
 74
     0
 42
0.0000000001
 43
0.0000000001
 40
0.0
 40
0.0
 40
0.0
 40
0.0
 40
0.124757494
 40
0.2495843763
 40
0.374507411
 40
0.4995171667000001
 40
0.6246015817
 40
0.7497364104000001
 40
0.8748761915999999
 40
1.0
 40
1.0
 40
1.0
 40
1.0
 10
79.57609188061517
 20
23.30953159889965
 30
0.0
 10
79.57611530661516
 20
23.31770793449965
 30
0.0
 10
79.57459561691516
 20
23.33411319869965
 30
0.0
 10
79.56765760481516
 20
23.35780890929965
 30
0.0
 10
79.55626977191517
 20
23.37974865289965
 30
0.0
 10
79.54081002041516
 20
23.39906029309965
 30
0.0
 10
79.52183891981516
 20
23.41496236789965
 30
0.0
 10
79.50007798671517
 20
23.42678906149965
 30
0.0
 10
79.47640486441517
 20
23.43404760429965
 30
0.0
 10
79.45995075631516
 20
23.43564470549965
 30
0.0
 10
79.45175041391516
 20
23.43562095219965
 30
0.0
  0
SPLINE
  5
22A3
330
220
100
AcDbEntity
  8
0
  6
Continuous
 62
     7
100
AcDbSpline
210
0.0
220
0.0
230
1.0
 70
     8
 71
     3
 72
    15
 73
    11
 74
     0
 42
0.0000000001
 43
0.0000000001
 40
0.0
 40
0.0
 40
0.0
 40
0.0
 40
0.1251235804
 40
0.2502631824
 40
0.3753979065999999
 40
0.5004823
 40
0.6254920822
 40
0.7504152395000001
 40
0.8752422905999999
 40
1.0
 40
1.0
 40
1.0
 40
1.0
 10
79.45175041391516
 20
16.49730111699965
 30
0.0
 10
79.45995074151517
 20
16.49727743659965
 30
0.0
 10
79.47640482401516
 20
16.49887441309965
 30
0.0
 10
79.50007791261517
 20
16.50613299399965
 30
0.0
 10
79.52183883761517
 20
16.51795964509965
 30
0.0
 10
79.54080994341516
 20
16.53386170849965
 30
0.0
 10
79.55626971191517
 20
16.55317334029965
 30
0.0
 10
79.56765759581518
 20
16.57511308809965
 30
0.0
 10
79.57459557231516
 20
16.59880883289965
 30
0.0
 10
79.57611537111517
 20
16.61521412089965
 30
0.0
 10
79.57609188061517
 20
16.62339047039965
 30
0.0
  0
SPLINE
  5
22A4
330
220
100
AcDbEntity
  8
0
  6
Continuous
 62
     7
100
AcDbSpline
210
0.0
220
0.0
230
1.0
 70
     8
 71
     3
 72
    11
 73
     7
 74
     0
 42
0.0000000001
 43
0.0000000001
 40
0.0
 40
0.0
 40
0.0
 40
0.0
 40
0.2537769332
 40
0.5064778485
 40
0.7557344255
 40
1.0
 40
1.0
 40
1.0
 40
1.0
 10
79.04277341561517
 20
23.06447233859965
 30
0.0
 10
79.03842770461517
 20
23.06710376409965
 30
0.0
 10
79.02927128181516
 20
23.07160137739965
 30
0.0
 10
79.01468839401516
 20
23.07586148929965
 30
0.0
 10
78.99984612641516
 20
23.07790128579966
 30
0.0
 10
78.98994783771517
 20
23.07808581249965
 30
0.0
 10
78.98505987281517
 20
23.07794793139965
 30
0.0
  0
SPLINE
  5
22A5
330
220
100
AcDbEntity
  8
0
  6
Continuous
 62
     7
100
AcDbSpline
210
0.0
220
0.0
230
1.0
 70
     8
 71
     3
 72
    11
 73
     7
 74
     0
 42
0.0000000001
 43
0.0000000001
 40
0.0
 40
0.0
 40
0.0
 40
0.0
 40
0.2485920067
 40
0.4983702351
 40
0.7488423597000001
 40
1.0
 40
1.0
 40
1.0
 40
1.0
 10
79.07766378921516
 20
23.02930833459965
 30
0.0
 10
79.07559010651517
 20
23.03289979339965
 30
0.0
 10
79.07098485601517
 20
23.03985390299965
 30
0.0
 10
79.06273986981517
 20
23.04928890409966
 30
0.0
 10
79.05328410351517
 20
23.05756867789965
 30
0.0
 10
79.04635761681517
 20
23.06230235059965
 30
0.0
 10
79.04277368391517
 20
23.06447283359965
 30
0.0
  0
SPLINE
  5
22A6
330
220
100
AcDbEntity
  8
0
  6
Continuous
 62
     7
100
AcDbSpline
210
0.0
220
0.0
230
1.0
 70
     8
 71
     3
 72
    11
 73
     7
 74
     0
 42
0.0000000001
 43
0.0000000001
 40
0.0
 40
0.0
 40
0.0
 40
0.0
 40
0.2483948401
 40
0.4996602387
 40
0.7508340981
 40
1.0
 40
1.0
 40
1.0
 40
1.0
 10
79.08659292841517
 20
22.99055635179966
 30
0.0
 10
79.08680351901516
 20
22.99388913659965
 30
0.0
 10
79.08680276811518
 20
23.00063054699965
 30
0.0
 10
79.08532970361517
 20
23.01065606959965
 30
0.0
 10
79.08230698011516
 20
23.02034041029966
 30
0.0
 10
79.07933880131517
 20
23.02640739119965
 30
0.0
 10
79.07766372991517
 20
23.02930830149966
 30
0.0
  0
SPLINE
  5
22A7
330
220
100
AcDbEntity
  8
0
  6
Continuous
 62
     7
100
AcDbSpline
210
0.0
220
0.0
230
1.0
 70
     8
 71
     3
 72
    11
 73
     7
 74
     0
 42
0.0000000001
 43
0.0000000001
 40
0.0
 40
0.0
 40
0.0
 40
0.0
 40
0.2547814823
 40
0.5061994406000001
 40
0.7543045491
 40
1.0
 40
1.0
 40
1.0
 40
1.0
 10
79.07912514561516
 20
16.90379959259965
 30
0.0
 10
79.08154520921517
 20
16.90868937809965
 30
0.0
 10
79.08513039241516
 20
16.91903496119965
 30
0.0
 10
79.08745633671516
 20
16.93507472939965
 30
0.0
 10
79.08778141371517
 20
16.95105670549965
 30
0.0
 10
79.08709640661517
 20
16.96161870229965
 30
0.0
 10
79.08659359351517
 20
16.96685594029965
 30
0.0
  0
SPLINE
  5
22A8
330
220
100
AcDbEntity
  8
0
  6
Continuous
 62
     7
100
AcDbSpline
210
0.0
220
0.0
230
1.0
 70
     8
 71
     3
 72
    11
 73
     7
 74
     0
 42
0.0000000001
 43
0.0000000001
 40
0.0
 40
0.0
 40
0.0
 40
0.0
 40
0.2504970838
 40
0.5007671302000001
 40
0.7504655791000001
 40
1.0
 40
1.0
 40
1.0
 40
1.0
 10
79.05193365841516
 20
16.87498873869965
 30
0.0
 10
79.05490268161518
 20
16.87657148039965
 30
0.0
 10
79.06063825471517
 20
16.88014385649965
 30
0.0
 10
79.06818553221516
 20
16.88691203769965
 30
0.0
 10
79.07434893191517
 20
16.89493159919965
 30
0.0
 10
79.07763829821516
 20
16.90079579649965
 30
0.0
 10
79.07912559621516
 20
16.90379934019965
 30
0.0
  0
SPLINE
  5
22A9
330
220
100
AcDbEntity
  8
0
  6
Continuous
 62
     7
100
AcDbSpline
210
0.0
220
0.0
230
1.0
 70
     8
 71
     3
 72
    11
 73
     7
 74
     0
 42
0.0000000001
 43
0.0000000001
 40
0.0
 40
0.0
 40
0.0
 40
0.0
 40
0.24476859
 40
0.4929938735000001
 40
0.7451506174000001
 40
1.0
 40
1.0
 40
1.0
 40
1.0
 10
79.00591244921518
 20
16.86948173189965
 30
0.0
 10
79.00971762341517
 20
16.86895912279965
 30
0.0
 10
79.01742808501516
 20
16.86820279909965
 30
0.0
 10
79.02915094921517
 20
16.86829989019965
 30
0.0
 10
79.04091037991517
 20
16.87019877119965
 30
0.0
 10
79.04840438581517
 20
16.87310810959965
 30
0.0
 10
79.05193363611516
 20
16.87498881349965
 30
0.0
  0
SPLINE
  5
22B0
330
220
100
AcDbEntity
  8
0
  6
Continuous
 62
     7
100
AcDbSpline
210
0.0
220
0.0
230
1.0
 70
     8
 71
     3
 72
    11
 73
     7
 74
     0
 42
0.0000000001
 43
0.0000000001
 40
0.0
 40
0.0
 40
0.0
 40
0.0
 40
0.2504970838
 40
0.5007671302000001
 40
0.7504655791000001
 40
1.0
 40
1.0
 40
1.0
 40
1.0
 10
71.31551247181517
 20
16.87498873869965
 30
0.0
 10
71.31254344871518
 20
16.87657148039965
 30
0.0
 10
71.30680787561516
 20
16.88014385649965
 30
0.0
 10
71.29926059801516
 20
16.88691203769965
 30
0.0
 10
71.29309719841517
 20
16.89493159919965
 30
0.0
 10
71.28980783211517
 20
16.90079579649965
 30
0.0
 10
71.28832053401517
 20
16.90379934019965
 30
0.0
  0
SPLINE
  5
22B1
330
220
100
AcDbEntity
  8
0
  6
Continuous
 62
     7
100
AcDbSpline
210
0.0
220
0.0
230
1.0
 70
     8
 71
     3
 72
    19
 73
    15
 74
     0
 42
0.0000000001
 43
0.0000000001
 40
0.0
 40
0.0
 40
0.0
 40
0.0
 40
0.1232173316
 40
0.247318278
 40
0.3099393075
 40
0.3729674217999999
 40
0.4363555069
 40
0.5000114995000001
 40
0.5636610949000001
 40
0.6270514706000001
 40
0.6900824023000001
 40
0.7526944966000001
 40
0.8767887049999998
 40
1.0
 40
1.0
 40
1.0
 40
1.0
 10
70.61625624211517
 20
23.50910183799965
 30
0.0
 10
70.61471015671518
 20
23.51618621369965
 30
0.0
 10
70.61238134441516
 20
23.53059154089965
 30
0.0
 10
70.61224233491516
 20
23.54895174149965
 30
0.0
 10
70.61462371281518
 20
23.56349336579965
 30
0.0
 10
70.61797594981517
 20
23.57414921479966
 30
0.0
 10
70.62314796441516
 20
23.58414116329965
 30
0.0
 10
70.63024309631517
 20
23.59294359989965
 30
0.0
 10
70.63904652781516
 20
23.60003718619966
 30
0.0
 10
70.64903737681517
 20
23.60521137169965
 30
0.0
 10
70.65969402731517
 20
23.60856062609965
 30
0.0
 10
70.67423460691516
 20
23.61094280319965
 30
0.0
 10
70.69259365871516
 20
23.61080188729965
 30
0.0
 10
70.70699825481518
 20
23.60847396689965
 30
0.0
 10
70.71408226171516
 20
23.60692785759965
 30
0.0
  0
SPLINE
  5
22B2
330
220
100
AcDbEntity
  8
0
  6
Continuous
 62
     7
100
AcDbSpline
210
0.0
220
0.0
230
1.0
 70
     8
 71
     3
 72
    19
 73
    15
 74
     0
 42
0.0000000001
 43
0.0000000001
 40
0.0
 40
0.0
 40
0.0
 40
0.0
 40
0.1232173316
 40
0.247318278
 40
0.3099393075
 40
0.3729674217999999
 40
0.4363555069
 40
0.5000114995000001
 40
0.5636610949000001
 40
0.6270514706000001
 40
0.6900824023000001
 40
0.7526944966000001
 40
0.8767887049999998
 40
1.0
 40
1.0
 40
1.0
 40
1.0
 10
70.71408226171516
 20
16.32599421159965
 30
0.0
 10
70.70699788601517
 20
16.32444812619965
 30
0.0
 10
70.69259255881516
 20
16.32211931399965
 30
0.0
 10
70.67423235831516
 20
16.32198030439965
 30
0.0
 10
70.65969073401517
 20
16.32436168229965
 30
0.0
 10
70.64903488501517
 20
16.32771391929965
 30
0.0
 10
70.63904293651517
 20
16.33288593389965
 30
0.0
 10
70.63024049991518
 20
16.33998106589965
 30
0.0
 10
70.62314691351517
 20
16.34878449729965
 30
0.0
 10
70.61797272811516
 20
16.35877534629965
 30
0.0
 10
70.61462347361517
 20
16.36943199679965
 30
0.0
 10
70.61224129661517
 20
16.38397257639965
 30
0.0
 10
70.61238221251517
 20
16.40233162819965
 30
0.0
 10
70.61471013281518
 20
16.41673622439965
 30
0.0
 10
70.61625624211517
 20
16.42382023119965
 30
0.0
  0
SPLINE
  5
22B3
330
220
100
AcDbEntity
  8
0
  6
Continuous
 62
     7
100
AcDbSpline
210
0.0
220
0.0
230
1.0
 70
     8
 71
     3
 72
    11
 73
     7
 74
     0
 42
0.0000000001
 43
0.0000000001
 40
0.0
 40
0.0
 40
0.0
 40
0.0
 40
0.2485920067
 40
0.4983702351
 40
0.7488423597000001
 40
1.0
 40
1.0
 40
1.0
 40
1.0
 10
71.28978234101516
 20
23.02930833459965
 30
0.0
 10
71.29185602371517
 20
23.03289979339965
 30
0.0
 10
71.29646127431517
 20
23.03985390299965
 30
0.0
 10
71.30470626051518
 20
23.04928890409966
 30
0.0
 10
71.31416202681517
 20
23.05756867789965
 30
0.0
 10
71.32108851341516
 20
23.06230235059965
 30
0.0
 10
71.32467244641516
 20
23.06447283359965
 30
0.0
  0
SPLINE
  5
22B4
330
220
100
AcDbEntity
  8
0
  6
Continuous
 62
     7
100
AcDbSpline
210
0.0
220
0.0
230
1.0
 70
     8
 71
     3
 72
    21
 73
    17
 74
     0
 42
0.0000000001
 43
0.0000000001
 40
0.0
 40
0.0
 40
0.0
 40
0.0
 40
0.1249406261
 40
0.1874414693
 40
0.2499361386
 40
0.3124355672
 40
0.3749471521
 40
0.4374689928000001
 40
0.500000029
 40
0.5625310598
 40
0.6250528956000001
 40
0.6875644751000002
 40
0.7500639016
 40
0.8125585712000001
 40
0.8750593993
 40
1.0
 40
1.0
 40
1.0
 40
1.0
 10
74.77930906231517
 20
21.23558544169966
 30
0.0
 10
74.75572077261516
 20
21.26100051329965
 30
0.0
 10
74.72312825101517
 20
21.30192876099965
 30
0.0
 10
74.68718624921518
 20
21.36133478759965
 30
0.0
 10
74.66434751261516
 20
21.40817802439965
 30
0.0
 10
74.64605245901516
 20
21.45698072399965
 30
0.0
 10
74.63268033031517
 20
21.50737140009965
 30
0.0
 10
74.62452523551516
 20
21.55887736499965
 30
0.0
 10
74.62178005421517
 20
21.61096105749965
 30
0.0
 10
74.62452524221517
 20
21.66304474789965
 30
0.0
 10
74.63268033581517
 20
21.71455070859965
 30
0.0
 10
74.64605247121517
 20
21.76494137949966
 30
0.0
 10
74.66434752681516
 20
21.81374407609965
 30
0.0
 10
74.68718626351517
 20
21.86058730759965
 30
0.0
 10
74.72312826181516
 20
21.91999332309965
 30
0.0
 10
74.75572077661516
 20
21.96092156189966
 30
0.0
 10
74.77930906231517
 20
21.98633662759965
 30
0.0
  0
SPLINE
  5
22B5
330
220
100
AcDbEntity
  8
0
  6
Continuous
 62
     7
100
AcDbSpline
210
0.0
220
0.0
230
1.0
 70
     8
 71
     3
 72
    14
 73
    10
 74
     0
 42
0.0000000001
 43
0.0000000001
 40
0.0
 40
0.0
 40
0.0
 40
0.0
 40
0.1250308195
 40
0.2500522552
 40
0.3750599766
 40
0.5000547019
 40
0.6250523397
 40
0.7500661157
 40
1.0
 40
1.0
 40
1.0
 40
1.0
 10
75.18372306511517
 20
21.04985448159965
 30
0.0
 10
75.16633661901517
 20
21.04985470689965
 30
0.0
 10
75.13153770251517
 20
21.05169465649965
 30
0.0
 10
75.07993948581518
 20
21.05988238129965
 30
0.0
 10
75.02945528821517
 20
21.07331394549965
 30
0.0
 10
74.98056425041517
 20
21.09168209499965
 30
0.0
 10
74.93364426781517
 20
21.11462045299965
 30
0.0
 10
74.87414537521516
 20
21.15071156809965
 30
0.0
 10
74.83316931421517
 20
21.18343760319965
 30
0.0
 10
74.80773153011516
 20
21.20711962139965
 30
0.0
  0
SPLINE
  5
22BC
330
220
100
AcDbEntity
  8
0
  6
Continuous
 62
     7
100
AcDbSpline
210
0.0
220
0.0
230
1.0
 70
     8
 71
     3
 72
    11
 73
     7
 74
     0
 42
0.0000000001
 43
0.0000000001
 40
0.0
 40
0.0
 40
0.0
 40
0.0
 40
0.24476859
 40
0.4929938735000001
 40
0.7451506174000001
 40
1.0
 40
1.0
 40
1.0
 40
1.0
 10
71.36153368101517
 20
16.86948173189965
 30
0.0
 10
71.35772850681516
 20
16.86895912279965
 30
0.0
 10
71.35001804521516
 20
16.86820279909965
 30
0.0
 10
71.33829518101517
 20
16.86829989019965
 30
0.0
 10
71.32653575041517
 20
16.87019877119965
 30
0.0
 10
71.31904174451517
 20
16.87310810959965
 30
0.0
 10
71.31551249411517
 20
16.87498881349965
 30
0.0
  0
SPLINE
  5
22BD
330
220
100
AcDbEntity
  8
0
  6
Continuous
 62
     7
100
AcDbSpline
210
0.0
220
0.0
230
1.0
 70
     8
 71
     3
 72
    11
 73
     7
 74
     0
 42
0.0000000001
 43
0.0000000001
 40
0.0
 40
0.0
 40
0.0
 40
0.0
 40
0.2547814823
 40
0.5061994406000001
 40
0.7543045491
 40
1.0
 40
1.0
 40
1.0
 40
1.0
 10
71.28832098471517
 20
16.90379959259965
 30
0.0
 10
71.28590092111517
 20
16.90868937809965
 30
0.0
 10
71.28231573781516
 20
16.91903496119965
 30
0.0
 10
71.27998979351517
 20
16.93507472939965
 30
0.0
 10
71.27966471661517
 20
16.95105670549965
 30
0.0
 10
71.28034972371517
 20
16.96161870229965
 30
0.0
 10
71.28085253681518
 20
16.96685594029965
 30
0.0
  0
SPLINE
  5
22BE
330
220
100
AcDbEntity
  8
0
  6
Continuous
 62
     7
100
AcDbSpline
210
0.0
220
0.0
230
1.0
 70
     8
 71
     3
 72
    11
 73
     7
 74
     0
 42
0.0000000001
 43
0.0000000001
 40
0.0
 40
0.0
 40
0.0
 40
0.0
 40
0.2483948401
 40
0.4996602387
 40
0.7508340981
 40
1.0
 40
1.0
 40
1.0
 40
1.0
 10
71.28085320181518
 20
22.99055635179966
 30
0.0
 10
71.28064261121517
 20
22.99388913659965
 30
0.0
 10
71.28064336221517
 20
23.00063054699965
 30
0.0
 10
71.28211642661518
 20
23.01065606959965
 30
0.0
 10
71.28513915011517
 20
23.02034041029966
 30
0.0
 10
71.28810732891517
 20
23.02640739119965
 30
0.0
 10
71.28978240041516
 20
23.02930830149966
 30
0.0
  0
SPLINE
  5
22BF
330
220
100
AcDbEntity
  8
0
  6
Continuous
 62
     7
100
AcDbSpline
210
0.0
220
0.0
230
1.0
 70
     8
 71
     3
 72
    11
 73
     7
 74
     0
 42
0.0000000001
 43
0.0000000001
 40
0.0
 40
0.0
 40
0.0
 40
0.0
 40
0.2537769332
 40
0.5064778485
 40
0.7557344255
 40
1.0
 40
1.0
 40
1.0
 40
1.0
 10
71.32467271471516
 20
23.06447233859965
 30
0.0
 10
71.32901842571516
 20
23.06710376409965
 30
0.0
 10
71.33817484841516
 20
23.07160137739965
 30
0.0
 10
71.35275773621517
 20
23.07586148929965
 30
0.0
 10
71.36760000381517
 20
23.07790128579966
 30
0.0
 10
71.37749829261517
 20
23.07808581249965
 30
0.0
 10
71.38238625741516
 20
23.07794793139965
 30
0.0
  0
SPLINE
  5
22C0
330
220
100
AcDbEntity
  8
0
  6
Continuous
 62
     7
100
AcDbSpline
210
0.0
220
0.0
230
1.0
 70
     8
 71
     3
 72
    15
 73
    11
 74
     0
 42
0.0000000001
 43
0.0000000001
 40
0.0
 40
0.0
 40
0.0
 40
0.0
 40
0.124757494
 40
0.2495843763
 40
0.374507411
 40
0.4995171667000001
 40
0.6246015817
 40
0.7497364104000001
 40
0.8748761915999999
 40
1.0
 40
1.0
 40
1.0
 40
1.0
 10
70.79135424971517
 20
23.30953159889965
 30
0.0
 10
70.79133082361517
 20
23.31770793449965
 30
0.0
 10
70.79285051341518
 20
23.33411319869965
 30
0.0
 10
70.79978852541517
 20
23.35780890929965
 30
0.0
 10
70.81117635831517
 20
23.37974865289965
 30
0.0
 10
70.82663610981517
 20
23.39906029309965
 30
0.0
 10
70.84560721051516
 20
23.41496236789965
 30
0.0
 10
70.86736814351517
 20
23.42678906149965
 30
0.0
 10
70.89104126581517
 20
23.43404760429965
 30
0.0
 10
70.90749537401517
 20
23.43564470549965
 30
0.0
 10
70.91569571631517
 20
23.43562095219965
 30
0.0
  0
SPLINE
  5
22C1
330
220
100
AcDbEntity
  8
0
  6
Continuous
 62
     7
100
AcDbSpline
210
0.0
220
0.0
230
1.0
 70
     8
 71
     3
 72
    15
 73
    11
 74
     0
 42
0.0000000001
 43
0.0000000001
 40
0.0
 40
0.0
 40
0.0
 40
0.0
 40
0.1251235804
 40
0.2502631824
 40
0.3753979065999999
 40
0.5004823
 40
0.6254920822
 40
0.7504152395000001
 40
0.8752422905999999
 40
1.0
 40
1.0
 40
1.0
 40
1.0
 10
70.91569571631517
 20
16.49730111699965
 30
0.0
 10
70.90749538881516
 20
16.49727743659965
 30
0.0
 10
70.89104130631517
 20
16.49887441309965
 30
0.0
 10
70.86736821771516
 20
16.50613299399965
 30
0.0
 10
70.84560729261517
 20
16.51795964509965
 30
0.0
 10
70.82663618691516
 20
16.53386170849965
 30
0.0
 10
70.81117641831517
 20
16.55317334029965
 30
0.0
 10
70.79978853441517
 20
16.57511308809965
 30
0.0
 10
70.79285055791517
 20
16.59880883289965
 30
0.0
 10
70.79133075911517
 20
16.61521412089965
 30
0.0
 10
70.79135424971517
 20
16.62339047039965
 30
0.0
  0
SPLINE
  5
22C2
330
220
100
AcDbEntity
  8
0
  6
Continuous
 62
     7
100
AcDbSpline
210
0.0
220
0.0
230
1.0
 70
     8
 71
     3
 72
    19
 73
    15
 74
     0
 42
0.0000000001
 43
0.0000000001
 40
0.0
 40
0.0
 40
0.0
 40
0.0
 40
0.1232173316
 40
0.247318278
 40
0.3099393075
 40
0.3729674217999999
 40
0.4363555069
 40
0.5000114995000001
 40
0.5636610949000001
 40
0.6270514706000001
 40
0.6900824023000001
 40
0.7526944966000001
 40
0.8767887049999998
 40
1.0
 40
1.0
 40
1.0
 40
1.0
 10
79.75118988811516
 20
23.50910183799965
 30
0.0
 10
79.75273597361518
 20
23.51618621369965
 30
0.0
 10
79.75506478581516
 20
23.53059154089965
 30
0.0
 10
79.75520379531516
 20
23.54895174149965
 30
0.0
 10
79.75282241741517
 20
23.56349336579965
 30
0.0
 10
79.74947018051517
 20
23.57414921479966
 30
0.0
 10
79.74429816581516
 20
23.58414116329965
 30
0.0
 10
79.73720303391516
 20
23.59294359989965
 30
0.0
 10
79.72839960251516
 20
23.60003718619966
 30
0.0
 10
79.71840875341517
 20
23.60521137169965
 30
0.0
 10
79.70775210301517
 20
23.60856062609965
 30
0.0
 10
79.69321152331517
 20
23.61094280319965
 30
0.0
 10
79.67485247161516
 20
23.61080188729965
 30
0.0
 10
79.66044787541517
 20
23.60847396689965
 30
0.0
 10
79.65336386851517
 20
23.60692785759965
 30
0.0
  0
SPLINE
  5
22C3
330
220
100
AcDbEntity
  8
0
  6
Continuous
 62
     7
100
AcDbSpline
210
0.0
220
0.0
230
1.0
 70
     8
 71
     3
 72
    19
 73
    15
 74
     0
 42
0.0000000001
 43
0.0000000001
 40
0.0
 40
0.0
 40
0.0
 40
0.0
 40
0.1232173316
 40
0.247318278
 40
0.3099393075
 40
0.3729674217999999
 40
0.4363555069
 40
0.5000114995000001
 40
0.5636610949000001
 40
0.6270514706000001
 40
0.6900824023000001
 40
0.7526944966000001
 40
0.8767887049999998
 40
1.0
 40
1.0
 40
1.0
 40
1.0
 10
79.65336386851517
 20
16.32599421159965
 30
0.0
 10
79.66044824421517
 20
16.32444812619965
 30
0.0
 10
79.67485357141517
 20
16.32211931399965
 30
0.0
 10
79.69321377201517
 20
16.32198030439965
 30
0.0
 10
79.70775539621516
 20
16.32436168229965
 30
0.0
 10
79.71841124531517
 20
16.32771391929965
 30
0.0
 10
79.72840319381517
 20
16.33288593389965
 30
0.0
 10
79.73720563041517
 20
16.33998106589965
 30
0.0
 10
79.74429921671516
 20
16.34878449729965
 30
0.0
 10
79.74947340211517
 20
16.35877534629965
 30
0.0
 10
79.75282265661516
 20
16.36943199679965
 30
0.0
 10
79.75520483371517
 20
16.38397257639965
 30
0.0
 10
79.75506391781516
 20
16.40233162819965
 30
0.0
 10
79.75273599741517
 20
16.41673622439965
 30
0.0
 10
79.75118988811516
 20
16.42382023119965
 30
0.0
  0
SPLINE
  5
22C4
330
220
100
AcDbEntity
  8
0
  6
Continuous
 62
     7
100
AcDbSpline
210
0.0
220
0.0
230
1.0
 70
     8
 71
     3
 72
    21
 73
    17
 74
     0
 42
0.0000000001
 43
0.0000000001
 40
0.0
 40
0.0
 40
0.0
 40
0.0
 40
0.1249406261
 40
0.1874414693
 40
0.2499361386
 40
0.3124355672
 40
0.3749471521
 40
0.4374689928000001
 40
0.500000029
 40
0.5625310598
 40
0.6250528956000001
 40
0.6875644751000002
 40
0.7500639016
 40
0.8125585712000001
 40
0.8750593993
 40
1.0
 40
1.0
 40
1.0
 40
1.0
 10
75.58813706791517
 20
21.23558544169966
 30
0.0
 10
75.61172535761517
 20
21.26100051329965
 30
0.0
 10
75.64431787931517
 20
21.30192876099965
 30
0.0
 10
75.68025988111518
 20
21.36133478759965
 30
0.0
 10
75.70309861761517
 20
21.40817802439965
 30
0.0
 10
75.72139367131517
 20
21.45698072399965
 30
0.0
 10
75.73476580001517
 20
21.50737140009965
 30
0.0
 10
75.74292089481517
 20
21.55887736499965
 30
0.0
 10
75.74566607611517
 20
21.61096105749965
 30
0.0
 10
75.74292088801517
 20
21.66304474789965
 30
0.0
 10
75.73476579441517
 20
21.71455070859965
 30
0.0
 10
75.72139365911517
 20
21.76494137949966
 30
0.0
 10
75.70309860341517
 20
21.81374407609965
 30
0.0
 10
75.68025986681516
 20
21.86058730759965
 30
0.0
 10
75.64431786841517
 20
21.91999332309965
 30
0.0
 10
75.61172535361517
 20
21.96092156189966
 30
0.0
 10
75.58813706791517
 20
21.98633662759965
 30
0.0
  0
SPLINE
  5
22C5
330
220
100
AcDbEntity
  8
0
  6
Continuous
 62
     7
100
AcDbSpline
210
0.0
220
0.0
230
1.0
 70
     8
 71
     3
 72
    14
 73
    10
 74
     0
 42
0.0000000001
 43
0.0000000001
 40
0.0
 40
0.0
 40
0.0
 40
0.0
 40
0.1250251449
 40
0.2500424886
 40
0.3750490171
 40
0.5000448747
 40
0.6250439505
 40
0.7500577724
 40
1.0
 40
1.0
 40
1.0
 40
1.0
 10
75.18372306511517
 20
21.04985161269965
 30
0.0
 10
75.20110873071516
 20
21.04985183799966
 30
0.0
 10
75.23590601921516
 20
21.05169652419965
 30
0.0
 10
75.28750306931517
 20
21.05988076039965
 30
0.0
 10
75.33798675161517
 20
21.07331258969965
 30
0.0
 10
75.38687826581517
 20
21.09167994249965
 30
0.0
 10
75.43379865771517
 20
21.11461844459965
 30
0.0
 10
75.49329868281517
 20
21.15071034809965
 30
0.0
 10
75.53427595431518
 20
21.18343680089965
 30
0.0
 10
75.55971460021517
 20
21.20711962139965
 30
0.0
  0
SPLINE
  5
22C8
330
220
100
AcDbEntity
  8
0
  6
Continuous
 62
     7
100
AcDbSpline
210
0.0
220
0.0
230
1.0
 70
     8
 71
     3
 72
    26
 73
    22
 74
     0
 42
0.0000000001
 43
0.0000000001
 40
0.0
 40
0.0
 40
0.0
 40
0.0
 40
0.0177828304
 40
0.0365242828
 40
0.0562661878
 40
0.0769883838
 40
0.12129194
 40
0.1692412423
 40
0.2207583534
 40
0.2761295287
 40
0.3357499315
 40
0.367281822
 40
0.4000133227
 40
0.433872875
 40
0.4686907287
 40
0.5406070955
 40
0.6147656229999999
 40
0.6904484705
 40
0.7671291087000001
 40
0.8444342298
 40
1.0
 40
1.0
 40
1.0
 40
1.0
 10
71.38238625951517
 20
23.07794748739965
 30
0.0
 10
71.40062891511516
 20
23.07467359999965
 30
0.0
 10
71.43812997081517
 20
23.06812693909965
 30
0.0
 10
71.49601732381516
 20
23.05873341739965
 30
0.0
 10
71.55703092931517
 20
23.04950301879966
 30
0.0
 10
71.64451034371516
 20
23.03713087819965
 30
0.0
 10
71.76131406391516
 20
23.02220473199965
 30
0.0
 10
71.91021118391517
 20
23.00535195699966
 30
0.0
 10
72.07078525911517
 20
22.98921136869966
 30
0.0
 10
72.24366969761518
 20
22.97405185909966
 30
0.0
 10
72.39596511341517
 20
22.96269192839965
 30
0.0
 10
72.52481546471518
 20
22.95437715679965
 30
0.0
 10
72.62691656431517
 20
22.94851557229965
 30
0.0
 10
72.73247502561517
 20
22.94316854559965
 30
0.0
 10
72.87886163381516
 20
22.93659635249965
 30
0.0
 10
73.06726890321517
 20
22.92958265359965
 30
0.0
 10
73.29829745571517
 20
22.92280120489965
 30
0.0
 10
73.53432836541516
 20
22.91737964109965
 30
0.0
 10
73.77366221581517
 20
22.91309683469965
 30
0.0
 10
74.09626057081517
 20
22.90859892189965
 30
0.0
 10
74.33895943281517
 20
22.90628008889965
 30
0.0
 10
74.50109172641517
 20
22.90492780279965
 30
0.0
  0
ENDSEC
  0
SECTION
  2
OBJECTS
  0
DICTIONARY
  5
C
330
0
100
AcDbDictionary
281
     1
  3
ACAD_COLOR
350
D07
  3
ACAD_GROUP
350
D
  3
ACAD_LAYOUT
350
1A
  3
ACAD_MATERIAL
350
CDD
  3
ACAD_MLEADERSTYLE
350
D2A
  3
ACAD_MLINESTYLE
350
17
  3
ACAD_PLOTSETTINGS
350
19
  3
ACAD_PLOTSTYLENAME
350
E
  3
ACAD_SCALELIST
350
D08
  3
ACAD_TABLESTYLE
350
CD6
  3
ACAD_VISUALSTYLE
350
CF6
  3
ACDB_RECOMPOSE_DATA
350
D39
  3
AcDbVariableDictionary
350
D3A
  3
AcmDictionary
350
D9D
  3
AMG
350
D44
  3
AMGSNAPSETTINGS
350
1949
  0
DICTIONARY
  5
DDE
330
10
100
AcDbDictionary
280
     1
281
     1
  3
ADSK_XREC_LAYER_RECONCILED
360
DDF
  0
DICTIONARY
  5
DE4
330
1FC
100
AcDbDictionary
280
     1
281
     1
  3
ADSK_XREC_LAYER_RECONCILED
360
DE5
  0
DICTIONARY
  5
DE8
330
1FE
100
AcDbDictionary
280
     1
281
     1
  3
ADSK_XREC_LAYER_RECONCILED
360
DE9
  0
DICTIONARY
  5
2922
330
220
100
AcDbDictionary
280
     1
281
     1
  3
ACAD_SORTENTS
360
2923
  0
DICTIONARY
  5
D07
102
{ACAD_REACTORS
330
C
102
}
330
C
100
AcDbDictionary
281
     1
  0
DICTIONARY
  5
D
102
{ACAD_REACTORS
330
C
102
}
330
C
100
AcDbDictionary
281
     1
  0
DICTIONARY
  5
1A
102
{ACAD_REACTORS
330
C
102
}
330
C
100
AcDbDictionary
281
     1
  3
Layout1
350
CD8
  3
Model
350
CD7
  0
DICTIONARY
  5
CDD
102
{ACAD_REACTORS
330
C
102
}
330
C
100
AcDbDictionary
281
     1
  3
ByBlock
350
CE6
  3
ByLayer
350
CDE
  3
Global
350
CEE
  0
DICTIONARY
  5
D2A
102
{ACAD_REACTORS
330
C
102
}
330
C
100
AcDbDictionary
281
     1
  3
Standard
350
D2B
  0
DICTIONARY
  5
17
102
{ACAD_REACTORS
330
C
102
}
330
C
100
AcDbDictionary
281
     1
  3
Standard
350
18
  0
DICTIONARY
  5
19
102
{ACAD_REACTORS
330
C
102
}
330
C
100
AcDbDictionary
281
     1
  0
ACDBDICTIONARYWDFLT
  5
E
102
{ACAD_REACTORS
330
C
102
}
330
C
100
AcDbDictionary
281
     1
  3
Normal
350
F
100
AcDbDictionaryWithDefault
340
F
  0
DICTIONARY
  5
D08
102
{ACAD_REACTORS
330
C
102
}
330
C
100
AcDbDictionary
281
     1
  3
A0
350
D09
  3
A1
350
D0A
  3
A2
350
D0B
  3
A3
350
D0C
  3
A4
350
D0D
  3
A5
350
D0E
  3
A6
350
D0F
  3
A7
350
D10
  3
A8
350
D11
  3
A9
350
D12
  3
B0
350
D13
  3
B1
350
D14
  3
B2
350
D15
  3
B3
350
D16
  3
B4
350
D17
  3
B5
350
D18
  3
B6
350
D19
  3
B7
350
D1A
  3
B8
350
D1B
  3
B9
350
D1C
  3
C0
350
D1D
  3
C1
350
D1E
  3
C2
350
D1F
  3
C3
350
D20
  3
C4
350
D21
  3
C5
350
D22
  3
C6
350
D23
  3
C7
350
D24
  3
C8
350
D25
  3
C9
350
D26
  3
D0
350
D27
  3
D1
350
D28
  3
D2
350
D29
  0
DICTIONARY
  5
CD6
330
C
100
AcDbDictionary
281
     1
  3
Standard
350
CD9
  0
DICTIONARY
  5
CF6
102
{ACAD_REACTORS
330
C
102
}
330
C
100
AcDbDictionary
281
     1
  3
2dWireframe
350
CFC
  3
3D Hidden
350
CFE
  3
3dWireframe
350
CFD
  3
Basic
350
CFB
  3
Brighten
350
D02
  3
ColorChange
350
D06
  3
Conceptual
350
CFF
  3
Dim
350
D01
  3
Facepattern
350
D05
  3
Flat
350
CF7
  3
FlatWithEdges
350
CF8
  3
Gouraud
350
CF9
  3
GouraudWithEdges
350
CFA
  3
Linepattern
350
D04
  3
Realistic
350
D00
  3
Thicken
350
D03
  0
XRECORD
  5
D39
102
{ACAD_REACTORS
330
C
102
}
330
C
100
AcDbXrecord
280
     1
 90
        1
330
CD9
  0
DICTIONARY
  5
D3A
102
{ACAD_REACTORS
330
C
102
}
330
C
100
AcDbDictionary
281
     1
  3
CANNOSCALE
350
D3D
  3
CMLEADERSTYLE
350
D3C
  3
CTABLESTYLE
350
D3B
  3
LAYEREVAL
350
2946
  3
LAYERNOTIFY
350
2947
  0
DICTIONARY
  5
D9D
102
{ACAD_REACTORS
330
C
102
}
330
C
100
AcDbDictionary
281
     1
  3
AcmStdDictionary
350
DAA
  0
DICTIONARY
  5
D44
102
{ACAD_REACTORS
330
C
102
}
330
C
100
AcDbDictionary
281
     1
  0
DICTIONARY
  5
1949
102
{ACAD_REACTORS
330
C
102
}
330
C
100
AcDbDictionary
281
     1
  0
XRECORD
  5
DDF
102
{ACAD_REACTORS
330
DDE
102
}
330
DDE
100
AcDbXrecord
280
     1
290
     1
  0
XRECORD
  5
DE5
102
{ACAD_REACTORS
330
DE4
102
}
330
DE4
100
AcDbXrecord
280
     1
290
     1
  0
XRECORD
  5
DE9
102
{ACAD_REACTORS
330
DE8
102
}
330
DE8
100
AcDbXrecord
280
     1
290
     1
  0
SORTENTSTABLE
  5
2923
102
{ACAD_REACTORS
330
2922
102
}
330
2922
100
AcDbSortentsTable
330
220
331
22BD
  5
22BD
331
229B
  5
229B
331
223C
  5
223C
331
2129
  5
2129
331
2107
  5
2107
331
2108
  5
2108
331
22BE
  5
22BE
331
229C
  5
229C
331
223D
  5
223D
331
1B68
  5
1B68
331
229D
  5
229D
331
22BF
  5
22BF
331
223E
  5
223E
331
2157
  5
2157
331
211A
  5
211A
331
2109
  5
2109
331
20F8
  5
20F8
331
229E
  5
229E
331
22C0
  5
22C0
331
223F
  5
223F
331
2158
  5
2158
331
2147
  5
2147
331
210A
  5
210A
331
22C1
  5
22C1
331
22B0
  5
22B0
331
229F
  5
229F
331
222F
  5
222F
331
2230
  5
2230
331
22C2
  5
22C2
331
22B1
  5
22B1
331
20FB
  5
20FB
331
2231
  5
2231
331
22C3
  5
22C3
331
22B2
  5
22B2
331
210D
  5
210D
331
2232
  5
2232
331
22A2
  5
22A2
331
22C4
  5
22C4
331
22B3
  5
22B3
331
214B
  5
214B
331
213A
  5
213A
331
210E
  5
210E
331
2244
  5
2244
331
22B4
  5
22B4
331
22A3
  5
22A3
331
22C5
  5
22C5
331
215D
  5
215D
331
210F
  5
210F
331
20FE
  5
20FE
331
22B5
  5
22B5
331
22A4
  5
22A4
331
2245
  5
2245
331
22A5
  5
22A5
331
2246
  5
2246
331
22C8
  5
22C8
331
22A6
  5
22A6
331
2247
  5
2247
331
2160
  5
2160
331
214F
  5
214F
331
2248
  5
2248
331
2161
  5
2161
331
2150
  5
2150
331
22A7
  5
22A7
331
213F
  5
213F
331
2102
  5
2102
331
20F1
  5
20F1
331
22A8
  5
22A8
331
2162
  5
2162
331
2151
  5
2151
331
2114
  5
2114
331
22A9
  5
22A9
331
2141
  5
2141
331
2299
  5
2299
331
2153
  5
2153
331
2116
  5
2116
331
2105
  5
2105
331
22BC
  5
22BC
331
229A
  5
229A
331
223B
  5
223B
331
2106
  5
2106
  0
LAYOUT
  5
CD8
102
{ACAD_REACTORS
330
1A
102
}
330
1A
100
AcDbPlotSettings
  1

  2
none_device
  4
ANSI_D_(34.00_x_22.00_Inches)
  6

 40
0.0
 41
0.0
 42
0.0
 43
0.0
 44
863.6000000000001
 45
558.8
 46
0.0
 47
0.0
 48
0.0
 49
0.0
140
0.0
141
0.0
142
1.0
143
1.0
 70
     0
 72
     0
 73
     0
 74
     0
  7

 75
     0
147
1.0
 76
     0
 77
     2
 78
   300
148
0.0
149
0.0
100
AcDbLayout
  1
Layout1
 70
     1
 71
     1
 10
0.0
 20
0.0
 11
12.0
 21
9.0
 12
0.0
 22
0.0
 32
0.0
 14
1.000000000000000E+20
 24
1.000000000000000E+20
 34
1.000000000000000E+20
 15
-1.000000000000000E+20
 25
-1.000000000000000E+20
 35
-1.000000000000000E+20
146
0.0
 13
0.0
 23
0.0
 33
0.0
 16
1.0
 26
0.0
 36
0.0
 17
0.0
 27
1.0
 37
0.0
 76
     0
330
221
  0
LAYOUT
  5
CD7
102
{ACAD_REACTORS
330
1A
102
}
330
1A
100
AcDbPlotSettings
  1

  2
none_device
  4
ANSI_D_(34.00_x_22.00_Inches)
  6

 40
0.0
 41
0.0
 42
0.0
 43
0.0
 44
863.6000000000001
 45
558.8
 46
0.0
 47
0.0
 48
0.0
 49
0.0
140
0.0
141
0.0
142
1.0
143
1.0
 70
  1024
 72
     0
 73
     0
 74
     0
  7

 75
     0
147
1.0
 76
     0
 77
     2
 78
   300
148
0.0
149
0.0
100
AcDbLayout
  1
Model
 70
     0
 71
     0
 10
0.0
 20
0.0
 11
34.0
 21
22.0
 12
0.0
 22
0.0
 32
0.0
 14
0.0
 24
0.0
 34
0.0
 15
0.0
 25
0.0
 35
0.0
146
0.0
 13
0.0
 23
0.0
 33
0.0
 16
1.0
 26
0.0
 36
0.0
 17
0.0
 27
1.0
 37
0.0
 76
     0
330
220
331
1F4
  0
MATERIAL
  5
CE6
102
{ACAD_XDICTIONARY
360
CE7
102
}
102
{ACAD_REACTORS
330
CDD
102
}
330
CDD
100
AcDbMaterial
  1
ByBlock
 72
     0
 43
0.0208333333333333
 43
0.0
 43
0.0
 43
0.0
 43
0.0
 43
0.0208333333333333
 43
0.0
 43
0.0
 43
0.0
 43
0.0
 43
1.0
 43
0.0
 43
0.0
 43
0.0
 43
0.0
 43
1.0
 77
     0
 47
0.0208333333333333
 47
0.0
 47
0.0
 47
0.0
 47
0.0
 47
0.0208333333333333
 47
0.0
 47
0.0
 47
0.0
 47
0.0
 47
1.0
 47
0.0
 47
0.0
 47
0.0
 47
0.0
 47
1.0
171
     0
 49
0.0208333333333333
 49
0.0
 49
0.0
 49
0.0
 49
0.0
 49
0.0208333333333333
 49
0.0
 49
0.0
 49
0.0
 49
0.0
 49
1.0
 49
0.0
 49
0.0
 49
0.0
 49
0.0
 49
1.0
175
     0
142
0.0208333333333333
142
0.0
142
0.0
142
0.0
142
0.0
142
0.0208333333333333
142
0.0
142
0.0
142
0.0
142
0.0
142
1.0
142
0.0
142
0.0
142
0.0
142
0.0
142
1.0
179
     0
144
0.0208333333333333
144
0.0
144
0.0
144
0.0
144
0.0
144
0.0208333333333333
144
0.0
144
0.0
144
0.0
144
0.0
144
1.0
144
0.0
144
0.0
144
0.0
144
0.0
144
1.0
147
0.0208333333333333
147
0.0
147
0.0
147
0.0
147
0.0
147
0.0208333333333333
147
0.0
147
0.0
147
0.0
147
0.0
147
1.0
147
0.0
147
0.0
147
0.0
147
0.0
147
1.0
  0
MATERIAL
  5
CDE
102
{ACAD_XDICTIONARY
360
CDF
102
}
102
{ACAD_REACTORS
330
CDD
102
}
330
CDD
100
AcDbMaterial
  1
ByLayer
 72
     0
 43
0.0208333333333333
 43
0.0
 43
0.0
 43
0.0
 43
0.0
 43
0.0208333333333333
 43
0.0
 43
0.0
 43
0.0
 43
0.0
 43
1.0
 43
0.0
 43
0.0
 43
0.0
 43
0.0
 43
1.0
 77
     0
 47
0.0208333333333333
 47
0.0
 47
0.0
 47
0.0
 47
0.0
 47
0.0208333333333333
 47
0.0
 47
0.0
 47
0.0
 47
0.0
 47
1.0
 47
0.0
 47
0.0
 47
0.0
 47
0.0
 47
1.0
171
     0
 49
0.0208333333333333
 49
0.0
 49
0.0
 49
0.0
 49
0.0
 49
0.0208333333333333
 49
0.0
 49
0.0
 49
0.0
 49
0.0
 49
1.0
 49
0.0
 49
0.0
 49
0.0
 49
0.0
 49
1.0
175
     0
142
0.0208333333333333
142
0.0
142
0.0
142
0.0
142
0.0
142
0.0208333333333333
142
0.0
142
0.0
142
0.0
142
0.0
142
1.0
142
0.0
142
0.0
142
0.0
142
0.0
142
1.0
179
     0
144
0.0208333333333333
144
0.0
144
0.0
144
0.0
144
0.0
144
0.0208333333333333
144
0.0
144
0.0
144
0.0
144
0.0
144
1.0
144
0.0
144
0.0
144
0.0
144
0.0
144
1.0
147
0.0208333333333333
147
0.0
147
0.0
147
0.0
147
0.0
147
0.0208333333333333
147
0.0
147
0.0
147
0.0
147
0.0
147
1.0
147
0.0
147
0.0
147
0.0
147
0.0
147
1.0
  0
MATERIAL
  5
CEE
102
{ACAD_XDICTIONARY
360
CEF
102
}
102
{ACAD_REACTORS
330
CDD
102
}
330
CDD
100
AcDbMaterial
  1
Global
 72
     0
 43
0.0208333333333333
 43
0.0
 43
0.0
 43
0.0
 43
0.0
 43
0.0208333333333333
 43
0.0
 43
0.0
 43
0.0
 43
0.0
 43
1.0
 43
0.0
 43
0.0
 43
0.0
 43
0.0
 43
1.0
 77
     0
 47
0.0208333333333333
 47
0.0
 47
0.0
 47
0.0
 47
0.0
 47
0.0208333333333333
 47
0.0
 47
0.0
 47
0.0
 47
0.0
 47
1.0
 47
0.0
 47
0.0
 47
0.0
 47
0.0
 47
1.0
171
     0
 49
0.0208333333333333
 49
0.0
 49
0.0
 49
0.0
 49
0.0
 49
0.0208333333333333
 49
0.0
 49
0.0
 49
0.0
 49
0.0
 49
1.0
 49
0.0
 49
0.0
 49
0.0
 49
0.0
 49
1.0
175
     0
142
0.0208333333333333
142
0.0
142
0.0
142
0.0
142
0.0
142
0.0208333333333333
142
0.0
142
0.0
142
0.0
142
0.0
142
1.0
142
0.0
142
0.0
142
0.0
142
0.0
142
1.0
179
     0
144
0.0208333333333333
144
0.0
144
0.0
144
0.0
144
0.0
144
0.0208333333333333
144
0.0
144
0.0
144
0.0
144
0.0
144
1.0
144
0.0
144
0.0
144
0.0
144
0.0
144
1.0
147
0.0208333333333333
147
0.0
147
0.0
147
0.0
147
0.0
147
0.0208333333333333
147
0.0
147
0.0
147
0.0
147
0.0
147
1.0
147
0.0
147
0.0
147
0.0
147
0.0
147
1.0
  0
MLEADERSTYLE
  5
D2B
102
{ACAD_REACTORS
330
D2A
102
}
330
D2A
100
AcDbMLeaderStyle
170
     2
171
     1
172
     0
 90
        2
 40
0.0
 41
0.0
173
     1
 91
-1056964608
340
14
 92
       -2
290
     1
 42
0.09
291
     1
 43
0.36
  3
Standard
 44
0.18
300

342
11
174
     1
178
     6
175
     1
176
     0
 93
-1056964608
 45
0.18
292
     0
297
     0
 46
0.18
 94
-1056964608
 47
1.0
 49
1.0
140
1.0
293
     1
141
0.0
294
     1
177
     0
142
1.0
295
     0
296
     0
143
0.125
1001
ACAD_MLEADERVER
1070
     2
  0
MLINESTYLE
  5
18
102
{ACAD_REACTORS
330
17
102
}
330
17
100
AcDbMlineStyle
  2
STANDARD
 70
     0
  3

 62
   256
 51
90.0
 52
90.0
 71
     2
 49
0.5
 62
   256
  6
BYLAYER
 49
-0.5
 62
   256
  6
BYLAYER
  0
ACDBPLACEHOLDER
  5
F
102
{ACAD_REACTORS
330
E
102
}
330
E
  0
SCALE
  5
D09
102
{ACAD_REACTORS
330
D08
102
}
330
D08
100
AcDbScale
 70
     0
300
1:1
140
1.0
141
1.0
290
     1
  0
SCALE
  5
D0A
102
{ACAD_REACTORS
330
D08
102
}
330
D08
100
AcDbScale
 70
     0
300
1:2
140
1.0
141
2.0
290
     0
  0
SCALE
  5
D0B
102
{ACAD_REACTORS
330
D08
102
}
330
D08
100
AcDbScale
 70
     0
300
1:4
140
1.0
141
4.0
290
     0
  0
SCALE
  5
D0C
102
{ACAD_REACTORS
330
D08
102
}
330
D08
100
AcDbScale
 70
     0
300
1:5
140
1.0
141
5.0
290
     0
  0
SCALE
  5
D0D
102
{ACAD_REACTORS
330
D08
102
}
330
D08
100
AcDbScale
 70
     0
300
1:8
140
1.0
141
8.0
290
     0
  0
SCALE
  5
D0E
102
{ACAD_REACTORS
330
D08
102
}
330
D08
100
AcDbScale
 70
     0
300
1:10
140
1.0
141
10.0
290
     0
  0
SCALE
  5
D0F
102
{ACAD_REACTORS
330
D08
102
}
330
D08
100
AcDbScale
 70
     0
300
1:16
140
1.0
141
16.0
290
     0
  0
SCALE
  5
D10
102
{ACAD_REACTORS
330
D08
102
}
330
D08
100
AcDbScale
 70
     0
300
1:20
140
1.0
141
20.0
290
     0
  0
SCALE
  5
D11
102
{ACAD_REACTORS
330
D08
102
}
330
D08
100
AcDbScale
 70
     0
300
1:30
140
1.0
141
30.0
290
     0
  0
SCALE
  5
D12
102
{ACAD_REACTORS
330
D08
102
}
330
D08
100
AcDbScale
 70
     0
300
1:40
140
1.0
141
40.0
290
     0
  0
SCALE
  5
D13
102
{ACAD_REACTORS
330
D08
102
}
330
D08
100
AcDbScale
 70
     0
300
1:50
140
1.0
141
50.0
290
     0
  0
SCALE
  5
D14
102
{ACAD_REACTORS
330
D08
102
}
330
D08
100
AcDbScale
 70
     0
300
1:100
140
1.0
141
100.0
290
     0
  0
SCALE
  5
D15
102
{ACAD_REACTORS
330
D08
102
}
330
D08
100
AcDbScale
 70
     0
300
2:1
140
2.0
141
1.0
290
     0
  0
SCALE
  5
D16
102
{ACAD_REACTORS
330
D08
102
}
330
D08
100
AcDbScale
 70
     0
300
4:1
140
4.0
141
1.0
290
     0
  0
SCALE
  5
D17
102
{ACAD_REACTORS
330
D08
102
}
330
D08
100
AcDbScale
 70
     0
300
8:1
140
8.0
141
1.0
290
     0
  0
SCALE
  5
D18
102
{ACAD_REACTORS
330
D08
102
}
330
D08
100
AcDbScale
 70
     0
300
10:1
140
10.0
141
1.0
290
     0
  0
SCALE
  5
D19
102
{ACAD_REACTORS
330
D08
102
}
330
D08
100
AcDbScale
 70
     0
300
100:1
140
100.0
141
1.0
290
     0
  0
SCALE
  5
D1A
102
{ACAD_REACTORS
330
D08
102
}
330
D08
100
AcDbScale
 70
     0
300
1/128" = 1'-0"
140
0.0078125
141
12.0
290
     0
  0
SCALE
  5
D1B
102
{ACAD_REACTORS
330
D08
102
}
330
D08
100
AcDbScale
 70
     0
300
1/64" = 1'-0"
140
0.015625
141
12.0
290
     0
  0
SCALE
  5
D1C
102
{ACAD_REACTORS
330
D08
102
}
330
D08
100
AcDbScale
 70
     0
300
1/32" = 1'-0"
140
0.03125
141
12.0
290
     0
  0
SCALE
  5
D1D
102
{ACAD_REACTORS
330
D08
102
}
330
D08
100
AcDbScale
 70
     0
300
1/16" = 1'-0"
140
0.0625
141
12.0
290
     0
  0
SCALE
  5
D1E
102
{ACAD_REACTORS
330
D08
102
}
330
D08
100
AcDbScale
 70
     0
300
3/32" = 1'-0"
140
0.09375
141
12.0
290
     0
  0
SCALE
  5
D1F
102
{ACAD_REACTORS
330
D08
102
}
330
D08
100
AcDbScale
 70
     0
300
1/8" = 1'-0"
140
0.125
141
12.0
290
     0
  0
SCALE
  5
D20
102
{ACAD_REACTORS
330
D08
102
}
330
D08
100
AcDbScale
 70
     0
300
3/16" = 1'-0"
140
0.1875
141
12.0
290
     0
  0
SCALE
  5
D21
102
{ACAD_REACTORS
330
D08
102
}
330
D08
100
AcDbScale
 70
     0
300
1/4" = 1'-0"
140
0.25
141
12.0
290
     0
  0
SCALE
  5
D22
102
{ACAD_REACTORS
330
D08
102
}
330
D08
100
AcDbScale
 70
     0
300
3/8" = 1'-0"
140
0.375
141
12.0
290
     0
  0
SCALE
  5
D23
102
{ACAD_REACTORS
330
D08
102
}
330
D08
100
AcDbScale
 70
     0
300
1/2" = 1'-0"
140
0.5
141
12.0
290
     0
  0
SCALE
  5
D24
102
{ACAD_REACTORS
330
D08
102
}
330
D08
100
AcDbScale
 70
     0
300
3/4" = 1'-0"
140
0.75
141
12.0
290
     0
  0
SCALE
  5
D25
102
{ACAD_REACTORS
330
D08
102
}
330
D08
100
AcDbScale
 70
     0
300
1" = 1'-0"
140
1.0
141
12.0
290
     0
  0
SCALE
  5
D26
102
{ACAD_REACTORS
330
D08
102
}
330
D08
100
AcDbScale
 70
     0
300
1-1/2" = 1'-0"
140
1.5
141
12.0
290
     0
  0
SCALE
  5
D27
102
{ACAD_REACTORS
330
D08
102
}
330
D08
100
AcDbScale
 70
     0
300
3" = 1'-0"
140
3.0
141
12.0
290
     0
  0
SCALE
  5
D28
102
{ACAD_REACTORS
330
D08
102
}
330
D08
100
AcDbScale
 70
     0
300
6" = 1'-0"
140
6.0
141
12.0
290
     0
  0
SCALE
  5
D29
102
{ACAD_REACTORS
330
D08
102
}
330
D08
100
AcDbScale
 70
     0
300
1'-0" = 1'-0"
140
12.0
141
12.0
290
     0
  0
TABLESTYLE
  5
CD9
102
{ACAD_XDICTIONARY
360
D35
102
}
102
{ACAD_REACTORS
330
CD6
102
}
330
CD6
100
AcDbTableStyle
  3
Standard
 70
     0
 71
     0
 40
0.06
 41
0.06
280
     1
281
     1
  7
STANDARD
140
0.18
170
     1
 62
     0
 63
     7
283
     0
 90
      512
 91
        0
  1

274
    -2
284
     1
 64
     0
275
    -2
285
     1
 65
     0
276
    -2
286
     1
 66
     0
277
    -2
287
     1
 67
     0
278
    -2
288
     1
 68
     0
279
    -2
289
     1
 69
     0
  7
STANDARD
140
0.18
170
     1
 62
     0
 63
     7
283
     0
 90
      512
 91
        0
  1

274
    -2
284
     1
 64
     0
275
    -2
285
     1
 65
     0
276
    -2
286
     1
 66
     0
277
    -2
287
     1
 67
     0
278
    -2
288
     1
 68
     0
279
    -2
289
     1
 69
     0
  7
STANDARD
140
0.18
170
     1
 62
     0
 63
     7
283
     0
 90
      512
 91
        0
  1

274
    -2
284
     1
 64
     0
275
    -2
285
     1
 65
     0
276
    -2
286
     1
 66
     0
277
    -2
287
     1
 67
     0
278
    -2
288
     1
 68
     0
279
    -2
289
     1
 69
     0
  0
VISUALSTYLE
  5
CFC
102
{ACAD_REACTORS
330
CF6
102
}
330
CF6
100
AcDbVisualStyle
  2
2dWireframe
 70
     4
 71
     0
 72
     2
 73
     0
 90
        0
 40
-0.6
 41
-30.0
 62
     5
 63
     7
421
 16777215
 74
     1
 91
        4
 64
     7
 65
   257
 75
     1
175
     1
 42
1.0
 92
        0
 66
   257
 43
1.0
 76
     1
 77
     6
 78
     2
 67
     7
 79
     5
170
     0
171
     0
290
     0
174
     0
 93
        1
 44
0.0
173
     0
291
     0
 45
0.0
  0
VISUALSTYLE
  5
CFE
102
{ACAD_REACTORS
330
CF6
102
}
330
CF6
100
AcDbVisualStyle
  2
3D Hidden
 70
     6
 71
     1
 72
     2
 73
     2
 90
        0
 40
-0.6
 41
-30.0
 62
     5
 63
     7
421
 16777215
 74
     2
 91
        2
 64
     7
 65
   257
 75
     2
175
     1
 42
40.0
 92
        0
 66
   257
 43
1.0
 76
     1
 77
     6
 78
     2
 67
     7
 79
     3
170
     0
171
     0
290
     0
174
     0
 93
        1
 44
0.0
173
     0
291
     0
 45
0.0
  0
VISUALSTYLE
  5
CFD
102
{ACAD_REACTORS
330
CF6
102
}
330
CF6
100
AcDbVisualStyle
  2
3dWireframe
 70
     5
 71
     0
 72
     2
 73
     0
 90
        0
 40
-0.6
 41
-30.0
 62
     5
 63
     7
421
 16777215
 74
     1
 91
        4
 64
     7
 65
   257
 75
     1
175
     1
 42
1.0
 92
        0
 66
   257
 43
1.0
 76
     1
 77
     6
 78
     2
 67
     7
 79
     5
170
     0
171
     0
290
     0
174
     0
 93
        1
 44
0.0
173
     0
291
     0
 45
0.0
  0
VISUALSTYLE
  5
CFB
102
{ACAD_REACTORS
330
CF6
102
}
330
CF6
100
AcDbVisualStyle
  2
Basic
 70
     7
 71
     1
 72
     0
 73
     1
 90
        0
 40
-0.6
 41
-30.0
 62
     5
 63
     7
421
 16777215
 74
     0
 91
        4
 64
     7
 65
   257
 75
     1
175
     1
 42
1.0
 92
        8
 66
     7
 43
1.0
 76
     1
 77
     6
 78
     2
 67
     7
 79
     5
170
     0
171
     0
290
     0
174
     0
 93
        1
 44
0.0
173
     0
291
     1
 45
0.0
  0
VISUALSTYLE
  5
D02
102
{ACAD_REACTORS
330
CF6
102
}
330
CF6
100
AcDbVisualStyle
  2
Brighten
 70
    12
 71
     2
 72
     2
 73
     0
 90
        0
 40
-0.6
 41
-30.0
 62
     5
 63
     7
421
 16777215
 74
     1
 91
        4
 64
     7
 65
   257
 75
     1
175
     1
 42
1.0
 92
        8
 66
     7
 43
1.0
 76
     1
 77
     6
 78
     2
 67
     7
 79
     5
170
     0
171
     0
290
     0
174
     0
 93
        1
 44
50.0
173
     0
291
     1
 45
0.0
  0
VISUALSTYLE
  5
D06
102
{ACAD_REACTORS
330
CF6
102
}
330
CF6
100
AcDbVisualStyle
  2
ColorChange
 70
    16
 71
     2
 72
     2
 73
     3
 90
        0
 40
-0.6
 41
-30.0
 62
     5
 63
     8
421
  8421504
 74
     1
 91
        4
 64
     7
 65
   257
 75
     1
175
     1
 42
1.0
 92
        8
 66
     8
424
  8421504
 43
1.0
 76
     1
 77
     6
 78
     2
 67
     7
 79
     5
170
     0
171
     0
290
     0
174
     0
 93
        1
 44
0.0
173
     0
291
     1
 45
0.0
  0
VISUALSTYLE
  5
CFF
102
{ACAD_REACTORS
330
CF6
102
}
330
CF6
100
AcDbVisualStyle
  2
Conceptual
 70
     9
 71
     3
 72
     2
 73
     0
 90
        0
 40
-0.6
 41
-30.0
 62
     5
 63
     7
421
 16777215
 74
     2
 91
        2
 64
     7
 65
   257
 75
     1
175
     1
 42
40.0
 92
        8
 66
     7
 43
1.0
 76
     1
 77
     6
 78
     2
 67
     7
 79
     3
170
     0
171
     0
290
     0
174
     0
 93
        1
 44
0.0
173
     0
291
     0
 45
0.0
  0
VISUALSTYLE
  5
D01
102
{ACAD_REACTORS
330
CF6
102
}
330
CF6
100
AcDbVisualStyle
  2
Dim
 70
    11
 71
     2
 72
     2
 73
     0
 90
        0
 40
-0.6
 41
-30.0
 62
     5
 63
     7
421
 16777215
 74
     1
 91
        4
 64
     7
 65
   257
 75
     1
175
     1
 42
1.0
 92
        8
 66
     7
 43
1.0
 76
     1
 77
     6
 78
     2
 67
     7
 79
     5
170
     0
171
     0
290
     0
174
     0
 93
        1
 44
-50.0
173
     0
291
     1
 45
0.0
  0
VISUALSTYLE
  5
D05
102
{ACAD_REACTORS
330
CF6
102
}
330
CF6
100
AcDbVisualStyle
  2
Facepattern
 70
    15
 71
     2
 72
     2
 73
     0
 90
        0
 40
-0.6
 41
-30.0
 62
     5
 63
     7
421
 16777215
 74
     1
 91
        4
 64
     7
 65
   257
 75
     1
175
     1
 42
1.0
 92
        8
 66
     7
 43
1.0
 76
     1
 77
     6
 78
     2
 67
     7
 79
     5
170
     0
171
     0
290
     0
174
     0
 93
        1
 44
0.0
173
     0
291
     1
 45
0.0
  0
VISUALSTYLE
  5
CF7
102
{ACAD_REACTORS
330
CF6
102
}
330
CF6
100
AcDbVisualStyle
  2
Flat
 70
     0
 71
     2
 72
     1
 73
     1
 90
        2
 40
-0.6
 41
30.0
 62
     5
 63
     7
421
 16777215
 74
     0
 91
        4
 64
     7
 65
   257
 75
     1
175
     1
 42
1.0
 92
        8
 66
     7
 43
1.0
 76
     1
 77
     6
 78
     2
 67
     7
 79
     5
170
     0
171
     0
290
     0
174
     0
 93
       13
 44
0.0
173
     0
291
     1
 45
0.0
  0
VISUALSTYLE
  5
CF8
102
{ACAD_REACTORS
330
CF6
102
}
330
CF6
100
AcDbVisualStyle
  2
FlatWithEdges
 70
     1
 71
     2
 72
     1
 73
     1
 90
        2
 40
-0.6
 41
30.0
 62
     5
 63
     7
421
 16777215
 74
     1
 91
        4
 64
     7
 65
   257
 75
     1
175
     1
 42
1.0
 92
        0
 66
   257
 43
1.0
 76
     1
 77
     6
 78
     2
 67
     7
 79
     5
170
     0
171
     0
290
     0
174
     0
 93
       13
 44
0.0
173
     0
291
     1
 45
0.0
  0
VISUALSTYLE
  5
CF9
102
{ACAD_REACTORS
330
CF6
102
}
330
CF6
100
AcDbVisualStyle
  2
Gouraud
 70
     2
 71
     2
 72
     2
 73
     1
 90
        2
 40
-0.6
 41
30.0
 62
     5
 63
     7
421
 16777215
 74
     0
 91
        4
 64
     7
 65
   257
 75
     1
175
     1
 42
1.0
 92
        0
 66
     7
 43
1.0
 76
     1
 77
     6
 78
     2
 67
     7
 79
     5
170
     0
171
     0
290
     0
174
     0
 93
       13
 44
0.0
173
     0
291
     1
 45
0.0
  0
VISUALSTYLE
  5
CFA
102
{ACAD_REACTORS
330
CF6
102
}
330
CF6
100
AcDbVisualStyle
  2
GouraudWithEdges
 70
     3
 71
     2
 72
     2
 73
     1
 90
        2
 40
-0.6
 41
30.0
 62
     5
 63
     7
421
 16777215
 74
     1
 91
        4
 64
     7
 65
   257
 75
     1
175
     1
 42
1.0
 92
        0
 66
   257
 43
1.0
 76
     1
 77
     6
 78
     2
 67
     7
 79
     5
170
     0
171
     0
290
     0
174
     0
 93
       13
 44
0.0
173
     0
291
     1
 45
0.0
  0
VISUALSTYLE
  5
D04
102
{ACAD_REACTORS
330
CF6
102
}
330
CF6
100
AcDbVisualStyle
  2
Linepattern
 70
    14
 71
     2
 72
     2
 73
     0
 90
        0
 40
-0.6
 41
-30.0
 62
     5
 63
     7
421
 16777215
 74
     1
 91
        4
 64
     7
 65
   257
 75
     7
175
     7
 42
1.0
 92
        8
 66
     7
 43
1.0
 76
     1
 77
     6
 78
     2
 67
     7
 79
     5
170
     0
171
     0
290
     0
174
     0
 93
        1
 44
0.0
173
     0
291
     1
 45
0.0
  0
VISUALSTYLE
  5
D00
102
{ACAD_REACTORS
330
CF6
102
}
330
CF6
100
AcDbVisualStyle
  2
Realistic
 70
     8
 71
     2
 72
     2
 73
     0
 90
        0
 40
-0.6
 41
-30.0
 62
     5
 63
     7
421
 16777215
 74
     1
 91
        0
 64
     7
 65
   257
 75
     1
175
     1
 42
1.0
 92
        8
 66
     8
424
  7895160
 43
1.0
 76
     1
 77
     6
 78
     2
 67
     7
 79
     5
170
     0
171
     0
290
     0
174
     0
 93
       13
 44
0.0
173
     0
291
     0
 45
0.0
  0
VISUALSTYLE
  5
D03
102
{ACAD_REACTORS
330
CF6
102
}
330
CF6
100
AcDbVisualStyle
  2
Thicken
 70
    13
 71
     2
 72
     2
 73
     0
 90
        0
 40
-0.6
 41
-30.0
 62
     5
 63
     7
421
 16777215
 74
     1
 91
        4
 64
     7
 65
   257
 75
     1
175
     1
 42
1.0
 92
       12
 66
     7
 43
1.0
 76
     1
 77
     6
 78
     2
 67
     7
 79
     5
170
     0
171
     0
290
     0
174
     0
 93
        1
 44
0.0
173
     0
291
     1
 45
0.0
  0
DICTIONARYVAR
  5
D3D
102
{ACAD_REACTORS
330
D3A
102
}
330
D3A
100
DictionaryVariables
280
     0
  1
1:1
  0
DICTIONARYVAR
  5
D3C
102
{ACAD_REACTORS
330
D3A
102
}
330
D3A
100
DictionaryVariables
280
     0
  1
STANDARD
  0
DICTIONARYVAR
  5
D3B
102
{ACAD_REACTORS
330
D3A
102
}
330
D3A
100
DictionaryVariables
280
     0
  1
STANDARD
  0
DICTIONARYVAR
  5
2946
102
{ACAD_REACTORS
330
D3A
102
}
330
D3A
100
DictionaryVariables
280
     0
  1
1
  0
DICTIONARYVAR
  5
2947
102
{ACAD_REACTORS
330
D3A
102
}
330
D3A
100
DictionaryVariables
280
     0
  1
15
  0
DICTIONARY
  5
DAA
102
{ACAD_REACTORS
330
D9D
102
}
330
D9D
100
AcDbDictionary
281
     1
  0
DICTIONARY
  5
CE7
330
CE6
100
AcDbDictionary
280
     1
281
     1
  3
BUMPTILE
360
CE9
  3
DIFFUSETILE
360
CE8
  3
OPACITYTILE
360
CEC
  3
REFLECTIONTILE
360
CEB
  3
REFRACTIONTILE
360
CED
  3
SPECULARTILE
360
CEA
  0
DICTIONARY
  5
CDF
330
CDE
100
AcDbDictionary
280
     1
281
     1
  3
BUMPTILE
360
CE1
  3
DIFFUSETILE
360
CE0
  3
OPACITYTILE
360
CE4
  3
REFLECTIONTILE
360
CE3
  3
REFRACTIONTILE
360
CE5
  3
SPECULARTILE
360
CE2
  0
DICTIONARY
  5
CEF
330
CEE
100
AcDbDictionary
280
     1
281
     1
  3
BUMPTILE
360
CF1
  3
DIFFUSETILE
360
CF0
  3
OPACITYTILE
360
CF4
  3
REFLECTIONTILE
360
CF3
  3
REFRACTIONTILE
360
CF5
  3
SPECULARTILE
360
CF2
  0
DICTIONARY
  5
D35
330
CD9
100
AcDbDictionary
280
     1
281
     1
  3
ACAD_ROUNDTRIP_2008_TABLESTYLE_CELLSTYLEMAP
360
2948
  0
XRECORD
  5
CE9
102
{ACAD_REACTORS
330
CE7
102
}
330
CE7
100
AcDbXrecord
280
     1
270
     1
271
     1
  0
XRECORD
  5
CE8
102
{ACAD_REACTORS
330
CE7
102
}
330
CE7
100
AcDbXrecord
280
     1
270
     1
271
     1
  0
XRECORD
  5
CEC
102
{ACAD_REACTORS
330
CE7
102
}
330
CE7
100
AcDbXrecord
280
     1
270
     1
271
     1
  0
XRECORD
  5
CEB
102
{ACAD_REACTORS
330
CE7
102
}
330
CE7
100
AcDbXrecord
280
     1
270
     1
271
     1
  0
XRECORD
  5
CED
102
{ACAD_REACTORS
330
CE7
102
}
330
CE7
100
AcDbXrecord
280
     1
270
     1
271
     1
  0
XRECORD
  5
CEA
102
{ACAD_REACTORS
330
CE7
102
}
330
CE7
100
AcDbXrecord
280
     1
270
     1
271
     1
  0
XRECORD
  5
CE1
102
{ACAD_REACTORS
330
CDF
102
}
330
CDF
100
AcDbXrecord
280
     1
270
     1
271
     1
  0
XRECORD
  5
CE0
102
{ACAD_REACTORS
330
CDF
102
}
330
CDF
100
AcDbXrecord
280
     1
270
     1
271
     1
  0
XRECORD
  5
CE4
102
{ACAD_REACTORS
330
CDF
102
}
330
CDF
100
AcDbXrecord
280
     1
270
     1
271
     1
  0
XRECORD
  5
CE3
102
{ACAD_REACTORS
330
CDF
102
}
330
CDF
100
AcDbXrecord
280
     1
270
     1
271
     1
  0
XRECORD
  5
CE5
102
{ACAD_REACTORS
330
CDF
102
}
330
CDF
100
AcDbXrecord
280
     1
270
     1
271
     1
  0
XRECORD
  5
CE2
102
{ACAD_REACTORS
330
CDF
102
}
330
CDF
100
AcDbXrecord
280
     1
270
     1
271
     1
  0
XRECORD
  5
CF1
102
{ACAD_REACTORS
330
CEF
102
}
330
CEF
100
AcDbXrecord
280
     1
270
     1
271
     1
  0
XRECORD
  5
CF0
102
{ACAD_REACTORS
330
CEF
102
}
330
CEF
100
AcDbXrecord
280
     1
270
     1
271
     1
  0
XRECORD
  5
CF4
102
{ACAD_REACTORS
330
CEF
102
}
330
CEF
100
AcDbXrecord
280
     1
270
     1
271
     1
  0
XRECORD
  5
CF3
102
{ACAD_REACTORS
330
CEF
102
}
330
CEF
100
AcDbXrecord
280
     1
270
     1
271
     1
  0
XRECORD
  5
CF5
102
{ACAD_REACTORS
330
CEF
102
}
330
CEF
100
AcDbXrecord
280
     1
270
     1
271
     1
  0
XRECORD
  5
CF2
102
{ACAD_REACTORS
330
CEF
102
}
330
CEF
100
AcDbXrecord
280
     1
270
     1
271
     1
  0
CELLSTYLEMAP
  5
2948
102
{ACAD_REACTORS
330
D35
102
}
330
D35
100
AcDbCellStyleMap
 90
        3
300
CELLSTYLE
  1
TABLEFORMAT_BEGIN
 90
        5
170
     1
 91
        0
 92
    32768
 62
   257
 93
        1
300
CONTENTFORMAT
  1
CONTENTFORMAT_BEGIN
 90
        0
 91
        0
 92
      512
 93
        0
300

 40
0.0
140
1.0
 94
        1
 62
     0
340
11
144
0.18
309
CONTENTFORMAT_END
171
     0
 94
        0
309
TABLEFORMAT_END
  1
CELLSTYLE_BEGIN
 90
        1
 91
        1
300
_TITLE
309
CELLSTYLE_END
300
CELLSTYLE
  1
TABLEFORMAT_BEGIN
 90
        5
170
     1
 91
        0
 92
        0
 62
   257
 93
        1
300
CONTENTFORMAT
  1
CONTENTFORMAT_BEGIN
 90
        0
 91
        0
 92
      512
 93
        0
300

 40
0.0
140
1.0
 94
        1
 62
     0
340
11
144
0.18
309
CONTENTFORMAT_END
171
     0
 94
        0
309
TABLEFORMAT_END
  1
CELLSTYLE_BEGIN
 90
        2
 91
        1
300
_HEADER
309
CELLSTYLE_END
300
CELLSTYLE
  1
TABLEFORMAT_BEGIN
 90
        5
170
     1
 91
        0
 92
        0
 62
   257
 93
        1
300
CONTENTFORMAT
  1
CONTENTFORMAT_BEGIN
 90
        0
 91
        0
 92
      512
 93
        0
300

 40
0.0
140
1.0
 94
        1
 62
     0
340
11
144
0.18
309
CONTENTFORMAT_END
171
     0
 94
        0
309
TABLEFORMAT_END
  1
CELLSTYLE_BEGIN
 90
        3
 91
        2
300
_DATA
309
CELLSTYLE_END
  0
ENDSEC
  0
EOF
