  0
SECTION
  2
HEADER
  9
$ACADVER
  1
AC1018
  9
$ACADMAINTVER
 70
    76
  9
$DWGCODEPAGE
  3
ANSI_936
  9
$INSBASE
 10
0.0
 20
0.0
 30
0.0
  9
$EXTMIN
 10
3.280101206999999
 20
4.1622576409
 30
0.0
  9
$EXTMAX
 10
28.36628700560133
 20
21.22908412432871
 30
0.0
  9
$LIMMIN
 10
0.0
 20
0.0
  9
$LIMMAX
 10
34.0
 20
22.0
  9
$ORTHOMODE
 70
     1
  9
$REGENMODE
 70
     1
  9
$FILLMODE
 70
     1
  9
$QTEXTMODE
 70
     0
  9
$MIRRTEXT
 70
     1
  9
$LTSCALE
 40
1.87
  9
$ATTMODE
 70
     1
  9
$TEXTSIZE
 40
0.2
  9
$TRACEWID
 40
0.05
  9
$TEXTSTYLE
  7
STANDARD
  9
$CLAYER
  8
0
  9
$CELTYPE
  6
ByLayer
  9
$CECOLOR
 62
   256
  9
$CELTSCALE
 40
1.0
  9
$DISPSILH
 70
     0
  9
$DIMSCALE
 40
1.0
  9
$DIMASZ
 40
0.1875
  9
$DIMEXO
 40
0.2125
  9
$DIMDLI
 40
1.292
  9
$DIMRND
 40
0.0
  9
$DIMDLE
 40
0.0
  9
$DIMEXE
 40
0.612
  9
$DIMTP
 40
0.01
  9
$DIMTM
 40
0.01
  9
$DIMTXT
 40
0.15625
  9
$DIMCEN
 40
0.306
  9
$DIMTSZ
 40
0.0
  9
$DIMTOL
 70
     1
  9
$DIMLIM
 70
     0
  9
$DIMTIH
 70
     1
  9
$DIMTOH
 70
     1
  9
$DIMSE1
 70
     0
  9
$DIMSE2
 70
     0
  9
$DIMTAD
 70
     0
  9
$DIMZIN
 70
     0
  9
$DIMBLK
  1
_FILLED
  9
$DIMASO
 70
     1
  9
$DIMSHO
 70
     1
  9
$DIMPOST
  1

  9
$DIMAPOST
  1

  9
$DIMALT
 70
     0
  9
$DIMALTD
 70
     2
  9
$DIMALTF
 40
25.4
  9
$DIMLFAC
 40
1.0
  9
$DIMTOFL
 70
     0
  9
$DIMTVP
 40
0.0
  9
$DIMTIX
 70
     0
  9
$DIMSOXD
 70
     0
  9
$DIMSAH
 70
     0
  9
$DIMBLK1
  1

  9
$DIMBLK2
  1

  9
$DIMSTYLE
  2
STANDARD
  9
$DIMCLRD
 70
     0
  9
$DIMCLRE
 70
     0
  9
$DIMCLRT
 70
     0
  9
$DIMTFAC
 40
1.0
  9
$DIMGAP
 40
0.09
  9
$DIMJUST
 70
     0
  9
$DIMSD1
 70
     0
  9
$DIMSD2
 70
     0
  9
$DIMTOLJ
 70
     1
  9
$DIMTZIN
 70
     0
  9
$DIMALTZ
 70
     0
  9
$DIMALTTZ
 70
     0
  9
$DIMUPT
 70
     0
  9
$DIMDEC
 70
     4
  9
$DIMTDEC
 70
     4
  9
$DIMALTU
 70
     2
  9
$DIMALTTD
 70
     2
  9
$DIMTXSTY
  7
STANDARD
  9
$DIMAUNIT
 70
     0
  9
$DIMADEC
 70
     0
  9
$DIMALTRND
 40
0.0
  9
$DIMAZIN
 70
     0
  9
$DIMDSEP
 70
     0
  9
$DIMATFIT
 70
     3
  9
$DIMFRAC
 70
     0
  9
$DIMLDRBLK
  1

  9
$DIMLUNIT
 70
     2
  9
$DIMLWD
 70
     0
  9
$DIMLWE
 70
     0
  9
$DIMTMOVE
 70
     0
  9
$LUNITS
 70
     2
  9
$LUPREC
 70
     4
  9
$SKETCHINC
 40
0.1
  9
$FILLETRAD
 40
0.0
  9
$AUNITS
 70
     0
  9
$AUPREC
 70
     0
  9
$MENU
  1
acad
  9
$ELEVATION
 40
0.0
  9
$PELEVATION
 40
0.0
  9
$THICKNESS
 40
0.0
  9
$LIMCHECK
 70
     0
  9
$CHAMFERA
 40
0.0
  9
$CHAMFERB
 40
0.0
  9
$CHAMFERC
 40
0.0
  9
$CHAMFERD
 40
0.0
  9
$SKPOLY
 70
     0
  9
$TDCREATE
 40
2454540.471788715
  9
$TDUCREATE
 40
2454540.138455382
  9
$TDUPDATE
 40
2454659.602184826
  9
$TDUUPDATE
 40
2454659.268851493
  9
$TDINDWG
 40
0.1292733912
  9
$TDUSRTIMER
 40
0.1292733912
  9
$USRTIMER
 70
     1
  9
$ANGBASE
 50
0.0
  9
$ANGDIR
 70
     0
  9
$PDMODE
 70
     3
  9
$PDSIZE
 40
0.3125
  9
$PLINEWID
 40
0.0
  9
$SPLFRAME
 70
     0
  9
$SPLINETYPE
 70
     6
  9
$SPLINESEGS
 70
     8
  9
$HANDSEED
  5
75E
  9
$SURFTAB1
 70
     6
  9
$SURFTAB2
 70
     6
  9
$SURFTYPE
 70
     6
  9
$SURFU
 70
     6
  9
$SURFV
 70
     6
  9
$UCSBASE
  2

  9
$UCSNAME
  2

  9
$UCSORG
 10
0.0
 20
0.0
 30
0.0
  9
$UCSXDIR
 10
1.0
 20
0.0
 30
0.0
  9
$UCSYDIR
 10
0.0
 20
1.0
 30
0.0
  9
$UCSORTHOREF
  2

  9
$UCSORTHOVIEW
 70
     0
  9
$UCSORGTOP
 10
0.0
 20
0.0
 30
0.0
  9
$UCSORGBOTTOM
 10
0.0
 20
0.0
 30
0.0
  9
$UCSORGLEFT
 10
0.0
 20
0.0
 30
0.0
  9
$UCSORGRIGHT
 10
0.0
 20
0.0
 30
0.0
  9
$UCSORGFRONT
 10
0.0
 20
0.0
 30
0.0
  9
$UCSORGBACK
 10
0.0
 20
0.0
 30
0.0
  9
$PUCSBASE
  2

  9
$PUCSNAME
  2

  9
$PUCSORG
 10
0.0
 20
0.0
 30
0.0
  9
$PUCSXDIR
 10
1.0
 20
0.0
 30
0.0
  9
$PUCSYDIR
 10
0.0
 20
1.0
 30
0.0
  9
$PUCSORTHOREF
  2

  9
$PUCSORTHOVIEW
 70
     0
  9
$PUCSORGTOP
 10
0.0
 20
0.0
 30
0.0
  9
$PUCSORGBOTTOM
 10
0.0
 20
0.0
 30
0.0
  9
$PUCSORGLEFT
 10
0.0
 20
0.0
 30
0.0
  9
$PUCSORGRIGHT
 10
0.0
 20
0.0
 30
0.0
  9
$PUCSORGFRONT
 10
0.0
 20
0.0
 30
0.0
  9
$PUCSORGBACK
 10
0.0
 20
0.0
 30
0.0
  9
$USERI1
 70
     0
  9
$USERI2
 70
     0
  9
$USERI3
 70
     0
  9
$USERI4
 70
     0
  9
$USERI5
 70
     0
  9
$USERR1
 40
0.0
  9
$USERR2
 40
0.0
  9
$USERR3
 40
0.0
  9
$USERR4
 40
0.0
  9
$USERR5
 40
0.0
  9
$WORLDVIEW
 70
     1
  9
$SHADEDGE
 70
     3
  9
$SHADEDIF
 70
    70
  9
$TILEMODE
 70
     1
  9
$MAXACTVP
 70
    16
  9
$PINSBASE
 10
0.0
 20
0.0
 30
0.0
  9
$PLIMCHECK
 70
     0
  9
$PEXTMIN
 10
1.000000000000000E+20
 20
1.000000000000000E+20
 30
1.000000000000000E+20
  9
$PEXTMAX
 10
-1.000000000000000E+20
 20
-1.000000000000000E+20
 30
-1.000000000000000E+20
  9
$PLIMMIN
 10
0.0
 20
0.0
  9
$PLIMMAX
 10
12.0
 20
9.0
  9
$UNITMODE
 70
     0
  9
$VISRETAIN
 70
     0
  9
$PLINEGEN
 70
     1
  9
$PSLTSCALE
 70
     0
  9
$TREEDEPTH
 70
  3020
  9
$CMLSTYLE
  2
Standard
  9
$CMLJUST
 70
     0
  9
$CMLSCALE
 40
1.0
  9
$PROXYGRAPHICS
 70
     0
  9
$MEASUREMENT
 70
     0
  9
$CELWEIGHT
370
     0
  9
$ENDCAPS
280
     0
  9
$JOINSTYLE
280
     0
  9
$LWDISPLAY
290
     0
  9
$INSUNITS
 70
     1
  9
$HYPERLINKBASE
  1

  9
$STYLESHEET
  1

  9
$XEDIT
290
     1
  9
$CEPSNTYPE
380
     0
  9
$PSTYLEMODE
290
     1
  9
$FINGERPRINTGUID
  2

  9
$VERSIONGUID
  2
{43351549-C9DE-4642-A855-23CDF218F67A}
  9
$EXTNAMES
290
     1
  9
$PSVPSCALE
 40
0.0
  9
$OLESTARTUP
290
     0
  9
$SORTENTS
280
   127
  9
$INDEXCTL
280
     0
  9
$HIDETEXT
280
     0
  9
$XCLIPFRAME
290
     0
  9
$HALOGAP
280
     0
  9
$OBSCOLOR
 70
   257
  9
$OBSLTYPE
280
     0
  9
$INTERSECTIONDISPLAY
280
     0
  9
$INTERSECTIONCOLOR
 70
   257
  9
$DIMASSOC
280
     1
  9
$PROJECTNAME
  1

  0
ENDSEC
  0
SECTION
  2
CLASSES
  0
CLASS
  1
ACDBDICTIONARYWDFLT
  2
AcDbDictionaryWithDefault
  3
ObjectDBX Classes
 90
        0
 91
        1
280
     0
281
     0
  0
CLASS
  1
IMAGE
  2
AcDbRasterImage
  3
ISM
 90
      127
 91
        0
280
     0
281
     1
  0
CLASS
  1
DICTIONARYVAR
  2
AcDbDictionaryVar
  3
ObjectDBX Classes
 90
        0
 91
        1
280
     0
281
     0
  0
CLASS
  1
RASTERVARIABLES
  2
AcDbRasterVariables
  3
ISM
 90
        0
 91
        0
280
     0
281
     0
  0
CLASS
  1
IMAGEDEF
  2
AcDbRasterImageDef
  3
ISM
 90
        0
 91
        0
280
     0
281
     0
  0
CLASS
  1
IMAGEDEF_REACTOR
  2
AcDbRasterImageDefReactor
  3
ISM
 90
        1
 91
        0
280
     0
281
     0
  0
CLASS
  1
IDBUFFER
  2
AcDbIdBuffer
  3
ObjectDBX Classes
 90
        0
 91
        0
280
     0
281
     0
  0
CLASS
  1
SPATIAL_FILTER
  2
AcDbSpatialFilter
  3
ObjectDBX Classes
 90
        0
 91
        0
280
     0
281
     0
  0
CLASS
  1
SORTENTSTABLE
  2
AcDbSortentsTable
  3
ObjectDBX Classes
 90
        0
 91
        0
280
     0
281
     0
  0
CLASS
  1
LAYER_INDEX
  2
AcDbLayerIndex
  3
ObjectDBX Classes
 90
        0
 91
        0
280
     0
281
     0
  0
CLASS
  1
SPATIAL_INDEX
  2
AcDbSpatialIndex
  3
ObjectDBX Classes
 90
        0
 91
        0
280
     0
281
     0
  0
CLASS
  1
OBJECT_PTR
  2
CAseDLPNTableRecord
  3
ASE-LPNTableRecord
 90
        1
 91
        0
280
     0
281
     0
  0
CLASS
  1
PLOTSETTINGS
  2
AcDbPlotSettings
  3
ObjectDBX Classes
 90
        0
 91
        0
280
     0
281
     0
  0
CLASS
  1
WIPEOUT
  2
AcDbWipeout
  3
"WipeOut|Product Desc: Object Enabler for WipeOut entity^I^I^I^I^I^I|Company: Autodesk, Inc.^I^I^I^I^I^I|WEB Address: www.autodesk.com"
 90
      127
 91
        0
280
     0
281
     1
  0
CLASS
  1
WIPEOUTVARIABLES
  2
AcDbWipeoutVariables
  3
"WipeOut|Product Desc:     WipeOut Dbx Application|Company:          Autodesk, Inc.|WEB Address:      www.autodesk.com"
 90
        0
 91
        0
280
     0
281
     0
  0
CLASS
  1
RTEXT
  2
RText
  3
RText|AutoCAD Express Tool|expresstools@autodesk.com
 90
     1023
 91
        0
280
     0
281
     1
  0
CLASS
  1
ARCALIGNEDTEXT
  2
AcDbArcAlignedText
  3
ATEXT|AutoCAD Express Tool|expresstools@autodesk.com
 90
        0
 91
        0
280
     0
281
     1
  0
CLASS
  1
TABLESTYLE
  2
AcDbTableStyle
  3
ObjectDBX Classes
 90
     2047
 91
        1
280
     0
281
     0
  0
CLASS
  1
ACME_DOCUMENT
  2
AcMeDbDoc
  3
AcMeServices
 90
        0
 91
        2
280
     0
281
     0
  0
CLASS
  1
ACMESCOPE
  2
AcMeScope
  3
AcMeServices
 90
        0
 91
        1
280
     0
281
     0
  0
CLASS
  1
ACMECOMMANDHISTORY
  2
AcMeCommandHistory
  3
AcMeServices
 90
        0
 91
        1
280
     0
281
     0
  0
CLASS
  1
ACIMSYSVARMAN
  2
AcImSysVarManager
  3
AcMeServices
 90
        0
 91
        5
280
     0
281
     0
  0
CLASS
  1
ACIMINTSYSVAR
  2
AcImIntSysVar
  3
AcMeServices
 90
        0
 91
       26
280
     0
281
     0
  0
CLASS
  1
ACMEDRAWINGMAN
  2
AcMeDrawingMan
  3
AcMeServices
 90
        0
 91
        1
280
     0
281
     0
  0
CLASS
  1
ACMEVIEW
  2
AcMeView
  3
AcMeServices
 90
        0
 91
        1
280
     0
281
     0
  0
CLASS
  1
ACDBENTITYCACHE
  2
AcMeEntityCache
  3
AcMeServices
 90
        0
 91
        1
280
     0
281
     0
  0
CLASS
  1
GSMANAGER
  2
AcMeGSManager
  3
AcMeServices
 90
        0
 91
        1
280
     0
281
     0
  0
CLASS
  1
AMDTINTERNALREACTOR
  2
AmdtInternalReactor
  3
AcMeServices
 90
        0
 91
        2
280
     0
281
     0
  0
CLASS
  1
ACMESTATEMGR
  2
AcMeStateMgr
  3
AcMeServices
 90
        0
 91
        1
280
     0
281
     0
  0
CLASS
  1
ACGREFMASTER
  2
AcGrefMaster
  3
AcAttribServices
 90
        0
 91
        1
280
     0
281
     0
  0
CLASS
  1
AM_DRAWING_MGR
  2
AcDmDwgMgr
  3
AcMechDwgViewMgmt
 90
        0
 91
        1
280
     0
281
     0
  0
CLASS
  1
AM_DWG_DOCUMENT
  2
AcDmDwgDocument
  3
AcMechDwgViewMgmt
 90
        0
 91
        1
280
     0
281
     0
  0
CLASS
  1
AM_DWG_SHEET
  2
AcDmSheet
  3
AcMechDwgViewMgmt
 90
        0
 91
        2
280
     0
281
     0
  0
CLASS
  1
AM_VIEWDIMPARMAP
  2
AcDmViewDimParMap
  3
AcMechDwgViewMgmt
 90
        0
 91
        2
280
     0
281
     0
  0
CLASS
  1
ACIMREALSYSVAR
  2
AcImRealSysVar
  3
AcMeServices
 90
        0
 91
        1
280
     0
281
     0
  0
CLASS
  1
AM_DWGMGR_NAME
  2
AcDmDwgMgrName
  3
AcMechDwgViewMgmt
 90
        0
 91
        1
280
     0
281
     0
  0
CLASS
  1
ACME_DATABASE
  2
AcMeDbDatabase
  3
AcMeServices
 90
        0
 91
        1
280
     0
281
     0
  0
CLASS
  1
ACRFINSADJUSTERMGR
  2
AcRfInsAdjusterMgr
  3
AcMeServices
 90
        0
 91
        1
280
     0
281
     0
  0
CLASS
  1
ACGREFACADMASTER
  2
AcGrefacadMaster
  3
AcGrefServices
 90
        0
 91
        1
280
     0
281
     0
  0
CLASS
  1
AMDTMENUSTATEMGR
  2
AmdtMenuStateMgr
  3
McadcomServices
 90
        0
 91
        1
280
     0
281
     0
  0
CLASS
  1
AMDTMCOMMENUSTATE
  2
AmdtMcomMenuState
  3
McadcomServices
 90
        0
 91
        1
280
     0
281
     0
  0
CLASS
  1
AMIMASTER
  2
AmiMaster
  3
AmiServices
 90
        0
 91
        1
280
     0
281
     0
  0
CLASS
  1
AMGSETTINGSOBJ
  2
AmgSettingsObj
  3
"AcadM|Product Description: AutoCAD Mechanical 2000|Company: Autodesk"
 90
        0
 91
        2
280
     0
281
     0
  0
CLASS
  1
MAPIAMMOUDLE
  2
MApiAmModule
  3
MApiAmServices
 90
        0
 91
        1
280
     0
281
     0
  0
CLASS
  1
ACIMSTRSYSVAR
  2
AcImStrSysVar
  3
AcMeServices
 90
        0
 91
        5
280
     0
281
     0
  0
CLASS
  1
AMDTADMENUSTATE
  2
AmdtAdMenuState
  3
DesignerServices
 90
        0
 91
        1
280
     0
281
     0
  0
CLASS
  1
ADAPPL
  2
AcAdAppl
  3
DesignerServices
 90
        0
 91
        1
280
     0
281
     0
  0
CLASS
  1
DEPMGR
  2
AcAdDepMgr
  3
DesignerServices
 90
        0
 91
        1
280
     0
281
     0
  0
CLASS
  1
PARAMMGR
  2
AcAdParamMgr
  3
DesignerServices
 90
        0
 91
        1
280
     0
281
     0
  0
CLASS
  1
PARAMSCOPE
  2
AcAdParamScope
  3
DesignerServices
 90
        0
 91
        1
280
     0
281
     0
  0
CLASS
  1
NAMEDAPPL
  2
AcAdNamedAppl
  3
DesignerServices
 90
        0
 91
        1
280
     0
281
     0
  0
CLASS
  1
AMDTDMMENUSTATE
  2
AmdtDmMenuState
  3
AcMechDwgViewMgmt
 90
        0
 91
        1
280
     0
281
     0
  0
CLASS
  1
AMDTAMMENUSTATE
  2
AmdtAmMenuState
  3
DesignerAssemblies
 90
        0
 91
        1
280
     0
281
     0
  0
CLASS
  1
ACAMPROJECT
  2
AcAmProject
  3
DesignerAssemblies
 90
        0
 91
        1
280
     0
281
     0
  0
CLASS
  1
ACAMGRCOMPDEF
  2
AcAmGrCompDef
  3
DesignerAssemblies
 90
        0
 91
        1
280
     0
281
     0
  0
CLASS
  1
ACCMCONTEXT
  2
AcCmContext
  3
DesignerAssemblies
 90
        0
 91
        1
280
     0
281
     0
  0
CLASS
  1
ACAMCOMPDEF
  2
AcAmCompDef
  3
DesignerAssemblies
 90
        0
 91
        1
280
     0
281
     0
  0
CLASS
  1
ACAMCOMPDEFMGR
  2
AcAmCompDefMgr
  3
DesignerAssemblies
 90
        0
 91
        1
280
     0
281
     0
  0
CLASS
  1
AMCONTEXTMGR
  2
AcAmContextMgr
  3
DesignerAssemblies
 90
        0
 91
        1
280
     0
281
     0
  0
CLASS
  1
ACAMCONTEXTMODELER
  2
AcAmContextModeler
  3
DesignerAssemblies
 90
        0
 91
        1
280
     0
281
     0
  0
CLASS
  1
ACMDATADICTIONARY
  2
AcmDataDictionary
  3
"AcmSymBB|Product Description: AutoCAD Mechanical 2004 DX|Company: Autodesk"
 90
        0
 91
        1
280
     0
281
     0
  0
CLASS
  1
CATALOGSTATE
  2
AcAmCatalogState
  3
DesignerAssemblies
 90
        0
 91
        1
280
     0
281
     0
  0
CLASS
  1
ACAMGRCOMPDEFSET
  2
AcAmGrCompDefSet
  3
DesignerAssemblies
 90
        0
 91
        1
280
     0
281
     0
  0
CLASS
  1
AMDTBROWSERDBTAB
  2
AmdtBrowserDbTab
  3
McadcomServices
 90
        0
 91
        1
280
     0
281
     0
  0
CLASS
  1
CBROWSERAPPOBJECT
  2
CBrowserAppObject
  3
McadcomServices
 90
        0
 91
        3
280
     0
281
     0
  0
CLASS
  1
DM_PLACEHOLDER
  2
AcDmSelsetPlaceholder
  3
AcMechDwgViewMgmt
 90
        0
 91
        1
280
     0
281
     0
  0
CLASS
  1
ACMSTANDARDANSI
  2
AcmStandardANSI
  3
"Amdt_StdImp|Product Description: AutoCAD Mechanical 2004 DX|Company: Autodesk"
 90
        0
 91
        1
280
     0
281
     0
  0
CLASS
  1
AMGOBJPROPCFG
  2
AmgObjPropCfg
  3
"AmgLay|Product Description: AutoCAD Mechanical 2000|Company: Autodesk"
 90
        1
 91
        1
280
     0
281
     0
  0
CLASS
  1
ACMSURFSTANDARDANSI
  2
AcmSurfTextStdANSI
  3
"Amdt_StdImp|Product Description: AutoCAD Mechanical 2004 DX|Company: Autodesk"
 90
        0
 91
        1
280
     0
281
     0
  0
CLASS
  1
ACMFCFSTANDARDANSI
  2
AcmFCFStdANSI
  3
"Amdt_StdImp|Product Description: AutoCAD Mechanical 2004 DX|Company: Autodesk"
 90
        0
 91
        1
280
     0
281
     0
  0
CLASS
  1
ACMWELDSTANDARDANSI
  2
AcmWeldingStdANSI
  3
"Amdt_StdImp|Product Description: AutoCAD Mechanical 2004 DX|Company: Autodesk"
 90
        0
 91
        1
280
     0
281
     0
  0
CLASS
  1
ACMIDSTANDARDANSI
  2
AcmIdStdANSI
  3
"Amdt_StdImp|Product Description: AutoCAD Mechanical 2004 DX|Company: Autodesk"
 90
        0
 91
        1
280
     0
281
     0
  0
CLASS
  1
ACMDATUMSTANDARDANSI
  2
AcmDatumStdANSI
  3
"Amdt_StdImp|Product Description: AutoCAD Mechanical 2004 DX|Company: Autodesk"
 90
        0
 91
        1
280
     0
281
     0
  0
CLASS
  1
ACMBOMSTANDARDANSI
  2
AcmBOMStdANSI
  3
"Amdt_StdImp|Product Description: AutoCAD Mechanical 2004 DX|Company: Autodesk"
 90
        0
 91
        1
280
     0
281
     0
  0
CLASS
  1
ACMDETAILSTANDARDANSI
  2
AmdtDetailSymStdANSI
  3
"Amdt_StdImp|Product Description: AutoCAD Mechanical 2004 DX|Company: Autodesk"
 90
        0
 91
        1
280
     0
281
     0
  0
CLASS
  1
ACMSECTIONSTANDARDANSI
  2
AmdtSectionSymStdANSI
  3
"Amdt_StdImp|Product Description: AutoCAD Mechanical 2004 DX|Company: Autodesk"
 90
        0
 91
        1
280
     0
281
     0
  0
CLASS
  1
ACMCENTERLINESTANDARDANSI
  2
AmdtCenterLineStdANSI
  3
"Amdt_StdImp|Product Description: AutoCAD Mechanical 2004 DX|Company: Autodesk"
 90
        0
 91
        1
280
     0
281
     0
  0
CLASS
  1
ACMTHREADLINESTANDARDANSI
  2
AmdtThreadLineStdANSI
  3
"Amdt_StdImp|Product Description: AutoCAD Mechanical 2004 DX|Company: Autodesk"
 90
        0
 91
        1
280
     0
281
     0
  0
CLASS
  1
ACMNOTESTANDARDANSI
  2
AmdtNoteStdANSI
  3
"Amdt_StdImp|Product Description: AutoCAD Mechanical 2004 DX|Company: Autodesk"
 90
        0
 91
        1
280
     0
281
     0
  0
CLASS
  1
AMDTNOTETEMPLATEDB
  2
AmdtNoteTemplateDB
  3
AMDT_STDIMP_MODULE_NAME
 90
        0
 91
        6
280
     0
281
     0
  0
CLASS
  1
ACAMGLAYSTD
  2
AcAmgLayStd
  3
"AcAmgLayStd|Product Description: AutoCAD Mechanical 2000|Company: Autodesk"
 90
        0
 91
        1
280
     0
281
     0
  0
CLASS
  1
ACAMGDIMSTD
  2
AcAmgDimStd
  3
"AcAmgDimStd|Product Description: AutoCAD Mechanical 2000|Company: Autodesk"
 90
        0
 91
        1
280
     0
281
     0
  0
CLASS
  1
ACAMGHOLECHARTSTDANSI
  2
AcAmgHoleChartStdANSI
  3
ACMSYMBB_MODULE_NAME
 90
        0
 91
        1
280
     0
281
     0
  0
CLASS
  1
ACAMGTITLESTD
  2
AcAmgTitleStd
  3
"TITLEAPP"
 90
        0
 91
        1
280
     0
281
     0
  0
CLASS
  1
ACAMGFILTERDAT
  2
AcAmgFilterDat
  3
"AcadM|Product Description: AutoCAD Mechanical 2000|Company: Autodesk"
 90
        0
 91
        6
280
     0
281
     0
  0
ENDSEC
  0
SECTION
  2
TABLES
  0
TABLE
  2
VPORT
  5
8
330
0
100
AcDbSymbolTable
 70
     4
  0
VPORT
  5
75D
330
8
100
AcDbSymbolTableRecord
100
AcDbViewportTableRecord
  2
*Active
 70
     0
 10
0.0
 20
0.0
 11
1.0
 21
1.0
 12
24.30460030300196
 22
9.50879386671438
 13
0.0
 23
0.0
 14
1.0
 24
1.0
 15
0.0
 25
0.0
 16
0.0
 26
0.0
 36
1.0
 17
0.0
 27
0.0
 37
0.0
 40
6.881780012484121
 41
1.504492939666238
 42
50.0
 43
0.0
 44
0.0
 50
0.0
 51
0.0
 71
     0
 72
   100
 73
     1
 74
     1
 75
     0
 76
     0
 77
     0
 78
     0
281
     0
 65
     0
110
0.0
120
0.0
130
0.0
111
1.0
121
0.0
131
0.0
112
0.0
122
1.0
132
0.0
 79
     0
146
0.0
  0
ENDTAB
  0
TABLE
  2
LTYPE
  5
5
330
0
100
AcDbSymbolTable
 70
    19
  0
LTYPE
  5
14
330
5
100
AcDbSymbolTableRecord
100
AcDbLinetypeTableRecord
  2
ByBlock
 70
     0
  3

 72
    65
 73
     0
 40
0.0
  0
LTYPE
  5
15
330
5
100
AcDbSymbolTableRecord
100
AcDbLinetypeTableRecord
  2
ByLayer
 70
     0
  3

 72
    65
 73
     0
 40
0.0
  0
LTYPE
  5
16
330
5
100
AcDbSymbolTableRecord
100
AcDbLinetypeTableRecord
  2
CONTINUOUS
 70
     0
  3
Solid line
 72
    65
 73
     0
 40
0.0
  0
LTYPE
  5
1F5
330
5
100
AcDbSymbolTableRecord
100
AcDbLinetypeTableRecord
  2
CENTER
 70
     0
  3
____ _ ____ _ ____ _ ____ _ ____ _ ____ _ ____
 72
    65
 73
     4
 40
0.6
 49
0.375
 74
     0
 49
-0.075
 74
     0
 49
0.075
 74
     0
 49
-0.075
 74
     0
  0
LTYPE
  5
1F6
330
5
100
AcDbSymbolTableRecord
100
AcDbLinetypeTableRecord
  2
HIDDEN
 70
     0
  3
- - - - - - - - - - - - - - - - - - - -
 72
    65
 73
     2
 40
0.2
 49
0.1
 74
     0
 49
-0.1
 74
     0
  0
LTYPE
  5
1F7
330
5
100
AcDbSymbolTableRecord
100
AcDbLinetypeTableRecord
  2
PHANTOM
 70
     0
  3
_____ _ _ _____ _ _ _____ _ _ _____
 72
    65
 73
     6
 40
0.8
 49
0.45
 74
     0
 49
-0.05
 74
     0
 49
0.1
 74
     0
 49
-0.05
 74
     0
 49
0.1
 74
     0
 49
-0.05
 74
     0
  0
LTYPE
  5
1F8
330
5
100
AcDbSymbolTableRecord
100
AcDbLinetypeTableRecord
  2
DOT
 70
     0
  3
. . . . . . . . . . . . . . . . . . . .
 72
    65
 73
     2
 40
0.2
 49
0.1
 74
     0
 49
-0.1
 74
     0
  0
LTYPE
  5
1F9
330
5
100
AcDbSymbolTableRecord
100
AcDbLinetypeTableRecord
  2
DASHED
 70
     0
  3
- - - - - - - - - - - - - - - - - - - -
 72
    65
 73
     2
 40
0.2
 49
0.1
 74
     0
 49
-0.1
 74
     0
  0
LTYPE
  5
694
330
5
100
AcDbSymbolTableRecord
100
AcDbLinetypeTableRecord
  2
PHANTOM2
 70
     0
  3
Phantom (.5x) ___ _ _ ___ _ _ ___ _ _ ___ _ _
 72
    65
 73
     6
 40
1.25
 49
0.625
 74
     0
 49
-0.125
 74
     0
 49
0.125
 74
     0
 49
-0.125
 74
     0
 49
0.125
 74
     0
 49
-0.125
 74
     0
  0
LTYPE
  5
6CC
330
5
100
AcDbSymbolTableRecord
100
AcDbLinetypeTableRecord
  2
AM_ISO02W050
 70
     0
  3
__ __ __ __ __ __ __ __ __ __ __ __ __ __ __
 72
    65
 73
     2
 40
7.5
 49
6.0
 74
     0
 49
-1.5
 74
     0
  0
LTYPE
  5
6CD
330
5
100
AcDbSymbolTableRecord
100
AcDbLinetypeTableRecord
  2
AM_ISO08W050
 70
     0
  3
____ . ____ . ____ . ____ . ____ . ____ . ____
 72
    65
 73
     4
 40
18.0
 49
12.0
 74
     0
 49
-1.5
 74
     0
 49
3.0
 74
     0
 49
-1.5
 74
     0
  0
LTYPE
  5
6CE
330
5
100
AcDbSymbolTableRecord
100
AcDbLinetypeTableRecord
  2
AM_ISO09W050
 70
     0
  3
_____ . . _____ . . _____ . . ____ .. ____
 72
    65
 73
     6
 40
22.5
 49
12.0
 74
     0
 49
-1.5
 74
     0
 49
3.0
 74
     0
 49
-1.5
 74
     0
 49
3.0
 74
     0
 49
-1.5
 74
     0
  0
LTYPE
  5
6CF
330
5
100
AcDbSymbolTableRecord
100
AcDbLinetypeTableRecord
  2
Amconstr
 70
     0
  3
_______________________
 72
    65
 73
     2
 40
9999.0
 49
9999.0
 74
     0
 49
0.0
 74
     0
  0
LTYPE
  5
6D0
330
5
100
AcDbSymbolTableRecord
100
AcDbLinetypeTableRecord
  2
AM_ISO08W050x2
 70
     0
  3
__ . __ . __ . __ . __ . __
 72
    65
 73
     4
 40
9.0
 49
6.0
 74
     0
 49
-0.75
 74
     0
 49
1.5
 74
     0
 49
-0.75
 74
     0
  0
LTYPE
  5
6D1
330
5
100
AcDbSymbolTableRecord
100
AcDbLinetypeTableRecord
  2
AM_ISO02W050x2
 70
     0
  3
 _ _ _ _ _ _ _ _ _ _ _ _
 72
    65
 73
     2
 40
3.75
 49
3.0
 74
     0
 49
-0.75
 74
     0
  0
LTYPE
  5
6D4
330
5
100
AcDbSymbolTableRecord
100
AcDbLinetypeTableRecord
  2
Amzigzag
 70
     0
  3
/\/-/\/-/\/-/\/-/\/-/\/
 72
    65
 73
     2
 40
11.0001
 49
0.0001
 74
     4
 75
   136
340
6D3
 46
0.04
 50
0.0
 44
0.0
 45
0.0
 49
-11.0
 74
     0
  0
LTYPE
  5
6D5
330
5
100
AcDbSymbolTableRecord
100
AcDbLinetypeTableRecord
  2
CENTER2
 70
     0
  3
Center (.5x) ___ _ ___ _ ___ _ ___ _ ___ _ ___
 72
    65
 73
     4
 40
1.125
 49
0.75
 74
     0
 49
-0.125
 74
     0
 49
0.125
 74
     0
 49
-0.125
 74
     0
  0
LTYPE
  5
6D6
330
5
100
AcDbSymbolTableRecord
100
AcDbLinetypeTableRecord
  2
HIDDEN2
 70
     0
  3
Hidden (.5x) _ _ _ _ _ _ _ _ _ _ _ _ _ _ _ _ _
 72
    65
 73
     2
 40
0.1875
 49
0.125
 74
     0
 49
-0.0625
 74
     0
  0
LTYPE
  5
6D7
330
5
100
AcDbSymbolTableRecord
100
AcDbLinetypeTableRecord
  2
Amzigzag2
 70
     0
  3
/\/-/\/-/\/-/\/-/\/-/\/
 72
    65
 73
     2
 40
0.4401
 49
0.0001
 74
     4
 75
   136
340
6D3
 46
0.0016
 50
0.0
 44
0.0
 45
0.0
 49
-0.4400000000000001
 74
     0
  0
LTYPE
  5
6E5
330
5
100
AcDbSymbolTableRecord
100
AcDbLinetypeTableRecord
  2
ACANSTGB
 70
     0
  3
__ . . __ . .
 72
    65
 73
     6
 40
0.35433070866
 49
0.15748031496
 74
     0
 49
-0.03937007874
 74
     0
 49
0.03937007874
 74
     0
 49
-0.03937007874
 74
     0
 49
0.03937007874
 74
     0
 49
-0.03937007874
 74
     0
  0
LTYPE
  5
6E6
330
5
100
AcDbSymbolTableRecord
100
AcDbLinetypeTableRecord
  2
ACANSTGL
 70
     0
  3
_ _ _ _ _
 72
    65
 73
     2
 40
0.11811023622
 49
0.07874015748
 74
     0
 49
-0.03937007874
 74
     0
  0
ENDTAB
  0
TABLE
  2
LAYER
  5
2
330
0
100
AcDbSymbolTable
 70
    22
  0
LAYER
  5
10
330
2
100
AcDbSymbolTableRecord
100
AcDbLayerTableRecord
  2
0
 70
     0
 62
     7
  6
CONTINUOUS
370
    -3
390
F
  0
LAYER
  5
1FA
330
2
100
AcDbSymbolTableRecord
100
AcDbLayerTableRecord
  2
DEFAULT_1
 70
     0
 62
     7
  6
CENTER
370
    -3
390
F
  0
LAYER
  5
1FB
330
2
100
AcDbSymbolTableRecord
100
AcDbLayerTableRecord
  2
DEFAULT_2
 70
     0
 62
     8
  6
HIDDEN
370
    -3
390
F
  0
LAYER
  5
1FC
330
2
100
AcDbSymbolTableRecord
100
AcDbLayerTableRecord
  2
DEFAULT_3
 70
     0
 62
     7
  6
PHANTOM
370
    -3
390
F
  0
LAYER
  5
1FD
330
2
100
AcDbSymbolTableRecord
100
AcDbLayerTableRecord
  2
_2D_DELETED_OBJS
 70
     0
 62
     7
  6
CONTINUOUS
370
    -3
390
F
  0
LAYER
  5
1FE
330
2
100
AcDbSymbolTableRecord
100
AcDbLayerTableRecord
  2
DATUMS
 70
     0
 62
     7
  6
CONTINUOUS
370
    -3
390
F
  0
LAYER
  5
1FF
330
2
100
AcDbSymbolTableRecord
100
AcDbLayerTableRecord
  2
DATUM_AXIS
 70
     0
 62
     7
  6
CONTINUOUS
370
    -3
390
F
  0
LAYER
  5
200
330
2
100
AcDbSymbolTableRecord
100
AcDbLayerTableRecord
  2
DATUM_CSYS
 70
     0
 62
     7
  6
CONTINUOUS
370
    -3
390
F
  0
LAYER
  5
201
330
2
100
AcDbSymbolTableRecord
100
AcDbLayerTableRecord
  2
DATUM_PLANE
 70
     0
 62
     7
  6
CONTINUOUS
370
    -3
390
F
  0
LAYER
  5
202
330
2
100
AcDbSymbolTableRecord
100
AcDbLayerTableRecord
  2
DATUM_POINT
 70
     0
 62
     7
  6
CONTINUOUS
370
    -3
390
F
  0
LAYER
  5
203
330
2
100
AcDbSymbolTableRecord
100
AcDbLayerTableRecord
  2
IMPORT
 70
     0
 62
     7
  6
CONTINUOUS
370
    -3
390
F
  0
LAYER
  5
204
330
2
100
AcDbSymbolTableRecord
100
AcDbLayerTableRecord
  2
INTF_14
 70
     0
 62
     7
  6
CONTINUOUS
370
    -3
390
F
  0
LAYER
  5
205
330
2
100
AcDbSymbolTableRecord
100
AcDbLayerTableRecord
  2
LAY0001
 70
     0
 62
     7
  6
CONTINUOUS
370
    -3
390
F
  0
LAYER
  5
206
330
2
100
AcDbSymbolTableRecord
100
AcDbLayerTableRecord
  2
NODE_401
 70
     0
 62
     7
  6
CONTINUOUS
370
    -3
390
F
  0
LAYER
  5
207
330
2
100
AcDbSymbolTableRecord
100
AcDbLayerTableRecord
  2
TEMPLATE
 70
     0
 62
     7
  6
CONTINUOUS
370
    -3
390
F
  0
LAYER
  5
208
330
2
100
AcDbSymbolTableRecord
100
AcDbLayerTableRecord
  2
_CURVE
 70
     0
 62
     7
  6
CONTINUOUS
370
    -3
390
F
  0
LAYER
  5
209
330
2
100
AcDbSymbolTableRecord
100
AcDbLayerTableRecord
  2
_SURFACE
 70
     0
 62
     7
  6
CONTINUOUS
370
    -3
390
F
  0
LAYER
  5
20A
330
2
100
AcDbSymbolTableRecord
100
AcDbLayerTableRecord
  2
__REF_CURVE
 70
     0
 62
     7
  6
CONTINUOUS
370
    -3
390
F
  0
LAYER
  5
20B
330
2
100
AcDbSymbolTableRecord
100
AcDbLayerTableRecord
  2
__REF_SURFACE
 70
     0
 62
     7
  6
CONTINUOUS
370
    -3
390
F
  0
LAYER
  5
20C
330
2
100
AcDbSymbolTableRecord
100
AcDbLayerTableRecord
  2
___COSMETIC_SKETCH
 70
     0
 62
     7
  6
CONTINUOUS
370
    -3
390
F
  0
LAYER
  5
20D
330
2
100
AcDbSymbolTableRecord
100
AcDbLayerTableRecord
  2
___NOTE
 70
     0
 62
     7
  6
CONTINUOUS
370
    -3
390
F
  0
LAYER
  5
20E
330
2
100
AcDbSymbolTableRecord
100
AcDbLayerTableRecord
  2
___SYMBOL
 70
     0
 62
     7
  6
CONTINUOUS
370
    -3
390
F
  0
ENDTAB
  0
TABLE
  2
STYLE
  5
3
330
0
100
AcDbSymbolTable
 70
     5
  0
STYLE
  5
11
330
3
100
AcDbSymbolTableRecord
100
AcDbTextStyleTableRecord
  2
STANDARD
 70
     0
 40
0.0
 41
0.8
 50
0.0
 71
     0
 42
0.2
  3
txt
  4

  0
STYLE
  5
20F
330
3
100
AcDbSymbolTableRecord
100
AcDbTextStyleTableRecord
  2
TEXTSTYLE_1
 70
     0
 40
0.0
 41
1.0299999783
 50
0.0
 71
     0
 42
0.2
  3
txt
  4

  0
STYLE
  5
6D3
330
3
100
AcDbSymbolTableRecord
100
AcDbTextStyleTableRecord
  2

 70
     1
 40
0.0
 41
1.0
 50
0.0
 71
     0
 42
0.2
  3
genltshp.shx
  4

  0
STYLE
  5
6D8
330
3
100
AcDbSymbolTableRecord
100
AcDbTextStyleTableRecord
  2
ACANSTS
 70
     0
 40
1.0
 41
1.0
 50
0.0
 71
     0
 42
0.2
  3
romans.shx
  4
gbcbig.shx
  0
STYLE
  5
6E4
330
3
100
AcDbSymbolTableRecord
100
AcDbTextStyleTableRecord
  2
ACANSGDT
 70
     0
 40
0.0
 41
1.0
 50
0.0
 71
     0
 42
0.2
  3
AMGDT
  4

  0
ENDTAB
  0
TABLE
  2
VIEW
  5
6
330
0
100
AcDbSymbolTable
 70
     0
  0
ENDTAB
  0
TABLE
  2
UCS
  5
7
330
0
100
AcDbSymbolTable
 70
     0
  0
ENDTAB
  0
TABLE
  2
APPID
  5
9
330
0
100
AcDbSymbolTable
 70
    11
  0
APPID
  5
210
330
9
100
AcDbSymbolTableRecord
100
AcDbRegAppTableRecord
  2
ACAD
 70
     0
  0
APPID
  5
665
330
9
100
AcDbSymbolTableRecord
100
AcDbRegAppTableRecord
  2
MCAD_NO_VIS
 70
     0
  0
APPID
  5
666
330
9
100
AcDbSymbolTableRecord
100
AcDbRegAppTableRecord
  2
ACAD_TEMP_GRAPHIC
 70
     0
  0
APPID
  5
696
330
9
100
AcDbSymbolTableRecord
100
AcDbRegAppTableRecord
  2
AD_DRAW
 70
     0
  0
APPID
  5
699
330
9
100
AcDbSymbolTableRecord
100
AcDbRegAppTableRecord
  2
ACATTRIBSERVICES
 70
     0
  0
APPID
  5
6BD
330
9
100
AcDbSymbolTableRecord
100
AcDbRegAppTableRecord
  2
DESIGNERASSEMBLIES
 70
     0
  0
APPID
  5
6C3
330
9
100
AcDbSymbolTableRecord
100
AcDbRegAppTableRecord
  2
ACADM_DIM_EDIT
 70
     0
  0
APPID
  5
6C4
330
9
100
AcDbSymbolTableRecord
100
AcDbRegAppTableRecord
  2
AMDT_DM_ADJ
 70
     0
  0
APPID
  5
6F3
330
9
100
AcDbSymbolTableRecord
100
AcDbRegAppTableRecord
  2
ACAD_DSTYLE_DIMARC_LENGTH_SYMBOL
 70
     0
  0
APPID
  5
6F4
330
9
100
AcDbSymbolTableRecord
100
AcDbRegAppTableRecord
  2
ACAD_DSTYLE_DIMJOGGED_JOGANGLE_SYMBOL
 70
     0
  0
APPID
  5
714
330
9
100
AcDbSymbolTableRecord
100
AcDbRegAppTableRecord
  2
DCO15
 70
     0
  0
ENDTAB
  0
TABLE
  2
DIMSTYLE
  5
A
330
0
100
AcDbSymbolTable
 70
    12
100
AcDbDimStyleTable
 71
     0
  0
DIMSTYLE
105
238
330
A
100
AcDbSymbolTableRecord
100
AcDbDimStyleTableRecord
  2
STANDARD
 70
     0
 41
0.1875
 47
0.01
 48
0.01
 71
     1
 78
     4
140
0.15625
271
     3
272
     3
284
     4
340
11
341
211
342
211
343
211
344
211
  0
DIMSTYLE
105
239
330
A
100
AcDbSymbolTableRecord
100
AcDbDimStyleTableRecord
  2
DIMSTYLE_1
 70
     0
 41
0.1875
 47
0.08
 48
0.11
 72
     1
 78
     4
140
0.15625
144
2.0
271
     2
272
     2
284
     4
340
11
341
211
342
211
343
211
344
211
  0
DIMSTYLE
105
23A
330
A
100
AcDbSymbolTableRecord
100
AcDbDimStyleTableRecord
  2
DIMSTYLE_2
 70
     0
 41
0.1875
 47
0.02
 48
0.02
 78
     4
140
0.15625
144
2.0
271
     2
272
     2
284
     4
340
11
341
211
342
211
343
211
344
211
  0
DIMSTYLE
105
23B
330
A
100
AcDbSymbolTableRecord
100
AcDbDimStyleTableRecord
  2
DIMSTYLE_3
 70
     0
 41
0.1875
 47
0.01
 48
0.01
 78
     4
140
0.15625
144
2.0
271
     3
272
     3
284
     4
340
11
341
211
342
211
343
211
344
211
  0
DIMSTYLE
105
23C
330
A
100
AcDbSymbolTableRecord
100
AcDbDimStyleTableRecord
  2
DIMSTYLE_4
 70
     0
 41
0.1875
 47
0.01
 48
0.01
 78
     4
140
0.15625
144
2.0
271
     3
272
     3
284
     4
340
11
341
211
342
211
343
211
344
211
  0
DIMSTYLE
105
23D
330
A
100
AcDbSymbolTableRecord
100
AcDbDimStyleTableRecord
  2
DIMSTYLE_5
 70
     0
 41
0.1875
 47
3.0
 48
3.0
 78
     4
140
0.15625
144
2.0
271
     1
272
     1
284
     4
340
11
341
211
342
211
343
211
344
211
  0
DIMSTYLE
105
6F2
330
A
100
AcDbSymbolTableRecord
100
AcDbDimStyleTableRecord
  2
AM_ANSI
 70
     0
  4
mm
 41
0.1
 42
0.05
 43
0.5
 44
0.1
 47
0.1
 48
0.1
 78
     7
 79
     2
140
0.12
141
0.0
146
0.71
147
0.06
176
   256
177
   256
178
     2
274
     4
284
     7
340
11
371
    -1
372
    -1
1001
ACAD_DSTYLE_DIMARC_LENGTH_SYMBOL
1070
   379
1070
     1
1001
ACAD_DSTYLE_DIMJOGGED_JOGANGLE_SYMBOL
1070
   384
1040
0.7853981633974483
  0
DIMSTYLE
105
6FB
330
A
100
AcDbSymbolTableRecord
100
AcDbDimStyleTableRecord
  2
AM_ANSI$3
 70
     0
  4
mm
 41
0.1
 42
0.05
 43
0.5
 44
0.1
 47
0.1
 48
0.1
 78
     7
 79
     2
140
0.12
141
0.0
146
0.71
147
0.06
176
   256
177
   256
178
     2
274
     4
284
     7
288
     1
289
     0
340
11
371
    -1
372
    -1
1001
ACAD_DSTYLE_DIMARC_LENGTH_SYMBOL
1070
   379
1070
     1
1001
ACAD_DSTYLE_DIMJOGGED_JOGANGLE_SYMBOL
1070
   384
1040
0.7853981633974483
  0
DIMSTYLE
105
6FE
330
A
100
AcDbSymbolTableRecord
100
AcDbDimStyleTableRecord
  2
AM_ANSI$4
 70
     0
  4
mm
 41
0.1
 42
0.05
 43
0.5
 44
0.1
 47
0.1
 48
0.1
 78
     7
 79
     2
140
0.12
141
0.0
146
0.71
147
0.06
176
   256
177
   256
178
     2
274
     4
284
     7
288
     1
289
     0
340
11
371
    -1
372
    -1
1001
ACAD_DSTYLE_DIMARC_LENGTH_SYMBOL
1070
   379
1070
     1
1001
ACAD_DSTYLE_DIMJOGGED_JOGANGLE_SYMBOL
1070
   384
1040
0.7853981633974483
  0
DIMSTYLE
105
703
330
A
100
AcDbSymbolTableRecord
100
AcDbDimStyleTableRecord
  2
AM_ANSI$7
 70
     0
  4
mm
 41
0.1
 42
0.05
 43
0.5
 44
0.1
 47
0.1
 48
0.1
 78
     7
 79
     2
140
0.24
141
0.0
146
0.71
147
0.06
176
   256
177
   256
178
     2
274
     4
284
     7
340
11
371
    -1
372
    -1
1001
ACAD_DSTYLE_DIMARC_LENGTH_SYMBOL
1070
   379
1070
     1
1001
ACAD_DSTYLE_DIMJOGGED_JOGANGLE_SYMBOL
1070
   384
1040
0.7853981633974483
  0
DIMSTYLE
105
706
330
A
100
AcDbSymbolTableRecord
100
AcDbDimStyleTableRecord
  2
AM_ANSI$SF
 70
     0
  4
mm
 41
0.1
 42
0.05
 43
0.5
 44
0.1
 47
0.1
 48
0.1
 75
     1
 76
     1
 78
     7
 79
     2
140
0.12
141
0.0
146
0.71
147
0.06
176
   256
177
   256
178
     2
274
     4
284
     7
340
11
371
    -1
372
    -1
1001
ACAD_DSTYLE_DIMARC_LENGTH_SYMBOL
1070
   379
1070
     1
1001
ACAD_DSTYLE_DIMJOGGED_JOGANGLE_SYMBOL
1070
   384
1040
0.7853981633974483
  0
DIMSTYLE
105
70D
330
A
100
AcDbSymbolTableRecord
100
AcDbDimStyleTableRecord
  2
AM_ANSI$SH
 70
     0
  4
mm
 41
0.1
 42
0.05
 43
0.5
 44
0.1
 47
0.1
 48
0.1
 75
     1
 76
     1
 78
     7
 79
     2
140
0.12
141
0.0
146
0.71
147
0.06
173
     1
176
   256
177
   256
178
     2
274
     4
284
     7
340
11
343
707
371
    -1
372
    -1
1001
ACAD_DSTYLE_DIMARC_LENGTH_SYMBOL
1070
   379
1070
     1
1001
ACAD_DSTYLE_DIMJOGGED_JOGANGLE_SYMBOL
1070
   384
1040
0.7853981633974483
  0
ENDTAB
  0
TABLE
  2
BLOCK_RECORD
  5
1
330
0
100
AcDbSymbolTable
 70
    41
  0
BLOCK_RECORD
  5
1F
330
1
100
AcDbSymbolTableRecord
100
AcDbBlockTableRecord
  2
*MODEL_SPACE
340
22
  0
BLOCK_RECORD
  5
1B
330
1
100
AcDbSymbolTableRecord
100
AcDbBlockTableRecord
  2
*PAPER_SPACE
340
1E
  0
BLOCK_RECORD
  5
212
330
1
100
AcDbSymbolTableRecord
100
AcDbBlockTableRecord
  2
KOHLER_BL0
340
0
  0
BLOCK_RECORD
  5
213
330
1
100
AcDbSymbolTableRecord
100
AcDbBlockTableRecord
  2
C_ARROW_BL1
340
0
  0
BLOCK_RECORD
  5
214
330
1
100
AcDbSymbolTableRecord
100
AcDbBlockTableRecord
  2
C_ARROW_BL2
340
0
  0
BLOCK_RECORD
  5
215
330
1
100
AcDbSymbolTableRecord
100
AcDbBlockTableRecord
  2
C_ARROW_BL3
340
0
  0
BLOCK_RECORD
  5
216
330
1
100
AcDbSymbolTableRecord
100
AcDbBlockTableRecord
  2
C_ARROW_BL4
340
0
  0
BLOCK_RECORD
  5
22C
330
1
100
AcDbSymbolTableRecord
100
AcDbBlockTableRecord
  2
DELTA_BL5
340
0
  0
BLOCK_RECORD
  5
22D
330
1
100
AcDbSymbolTableRecord
100
AcDbBlockTableRecord
  2
DELTA_BL6
340
0
  0
BLOCK_RECORD
  5
22E
330
1
100
AcDbSymbolTableRecord
100
AcDbBlockTableRecord
  2
DELTA_BL7
340
0
  0
BLOCK_RECORD
  5
22F
330
1
100
AcDbSymbolTableRecord
100
AcDbBlockTableRecord
  2
DELTA_BL8
340
0
  0
BLOCK_RECORD
  5
230
330
1
100
AcDbSymbolTableRecord
100
AcDbBlockTableRecord
  2
DELTA_BL9
340
0
  0
BLOCK_RECORD
  5
231
330
1
100
AcDbSymbolTableRecord
100
AcDbBlockTableRecord
  2
DELTA_BL10
340
0
  0
BLOCK_RECORD
  5
232
330
1
100
AcDbSymbolTableRecord
100
AcDbBlockTableRecord
  2
REVISION_BL11
340
0
  0
BLOCK_RECORD
  5
233
330
1
100
AcDbSymbolTableRecord
100
AcDbBlockTableRecord
  2
REVISION_BL12
340
0
  0
BLOCK_RECORD
  5
234
330
1
100
AcDbSymbolTableRecord
100
AcDbBlockTableRecord
  2
REVISION_BL13
340
0
  0
BLOCK_RECORD
  5
235
330
1
100
AcDbSymbolTableRecord
100
AcDbBlockTableRecord
  2
REVISION_BL14
340
0
  0
BLOCK_RECORD
  5
236
330
1
100
AcDbSymbolTableRecord
100
AcDbBlockTableRecord
  2
CHARACTERISTIC_BL15
340
0
  0
BLOCK_RECORD
  5
237
330
1
100
AcDbSymbolTableRecord
100
AcDbBlockTableRecord
  2
CHARACTERISTIC_BL16
340
0
  0
BLOCK_RECORD
  5
211
330
1
100
AcDbSymbolTableRecord
100
AcDbBlockTableRecord
  2
_FILLED
340
0
102
{BLKREFS
331
2BC
331
2BD
331
2C5
331
2C6
331
2CF
331
2D0
331
2D9
331
2DA
331
2E1
331
2E8
331
2F0
331
2F1
331
2F9
331
2FA
331
302
331
303
331
30B
331
30C
331
314
331
315
331
31D
331
31E
331
326
331
327
331
32F
331
330
331
338
331
339
331
341
331
342
331
34A
331
34B
331
353
331
354
331
365
331
366
331
36F
331
370
102
}
  0
BLOCK_RECORD
  5
707
330
1
100
AcDbSymbolTableRecord
100
AcDbBlockTableRecord
  2
GENAXEH
340
0
  0
ENDTAB
  0
ENDSEC
  0
SECTION
  2
BLOCKS
  0
BLOCK
  5
20
330
1F
100
AcDbEntity
  8
0
100
AcDbBlockBegin
  2
*MODEL_SPACE
 70
     0
 10
0.0
 20
0.0
 30
0.0
  3
*MODEL_SPACE
  1

  0
ENDBLK
  5
21
330
1F
100
AcDbEntity
  8
0
100
AcDbBlockEnd
  0
BLOCK
  5
1C
330
1B
100
AcDbEntity
 67
     1
  8
0
100
AcDbBlockBegin
  2
*PAPER_SPACE
 70
     0
 10
0.0
 20
0.0
 30
0.0
  3
*PAPER_SPACE
  1

  0
ENDBLK
  5
1D
330
1B
100
AcDbEntity
 67
     1
  8
0
100
AcDbBlockEnd
  0
BLOCK
  5
23E
330
212
100
AcDbEntity
  8
0
  6
Continuous
 62
     2
100
AcDbBlockBegin
  2
KOHLER_BL0
 70
     0
 10
30.2123715
 20
2.261645999999999
 30
0.0
  3
KOHLER_BL0
  1

  0
ARC
  5
23F
330
212
100
AcDbEntity
  8
0
  6
Continuous
 62
     2
100
AcDbCircle
 10
30.778184
 20
2.31711475
 30
0.0
 40
0.03065625
100
AcDbArc
 50
270.0
 51
90.0
  0
LINE
  5
240
330
212
100
AcDbEntity
  8
0
  6
Continuous
 62
     2
100
AcDbLine
 10
29.528184
 20
2.121020999999999
 30
0.0
 11
29.528184
 21
2.402270999999999
 31
0.0
  0
LINE
  5
241
330
212
100
AcDbEntity
  8
0
  6
Continuous
 62
     2
100
AcDbLine
 10
29.528184
 20
2.402270999999999
 30
0.0
 11
29.595184
 21
2.402270999999999
 31
0.0
  0
LINE
  5
242
330
212
100
AcDbEntity
  8
0
  6
Continuous
 62
     2
100
AcDbLine
 10
29.528184
 20
2.121020999999999
 30
0.0
 11
29.595184
 21
2.121020999999999
 31
0.0
  0
LINE
  5
243
330
212
100
AcDbEntity
  8
0
  6
Continuous
 62
     2
100
AcDbLine
 10
29.778184
 20
2.402270999999999
 30
0.0
 11
29.653184
 21
2.277270999999999
 31
0.0
  0
LINE
  5
244
330
212
100
AcDbEntity
  8
0
  6
Continuous
 62
     2
100
AcDbLine
 10
29.653184
 20
2.277270999999999
 30
0.0
 11
29.778184
 21
2.121020999999999
 31
0.0
  0
CIRCLE
  5
245
330
212
100
AcDbEntity
  8
0
  6
Continuous
 62
     2
100
AcDbCircle
 10
29.887559
 20
2.261645999999999
 30
0.0
 40
0.073625
  0
LINE
  5
246
330
212
100
AcDbEntity
  8
0
  6
Continuous
 62
     2
100
AcDbLine
 10
29.6923821352
 20
2.121020999999999
 30
0.0
 11
29.778184
 21
2.121020999999999
 31
0.0
  0
CIRCLE
  5
247
330
212
100
AcDbEntity
  8
0
  6
Continuous
 62
     2
100
AcDbCircle
 10
29.887559
 20
2.261645999999999
 30
0.0
 40
0.140625
  0
LINE
  5
248
330
212
100
AcDbEntity
  8
0
  6
Continuous
 62
     2
100
AcDbLine
 10
29.595184
 20
2.121020999999999
 30
0.0
 11
29.595184
 21
2.242518668999999
 31
0.0
  0
LINE
  5
249
330
212
100
AcDbEntity
  8
0
  6
Continuous
 62
     2
100
AcDbLine
 10
29.6834316913
 20
2.402270999999999
 30
0.0
 11
29.595184
 21
2.314023308699999
 31
0.0
  0
LINE
  5
24A
330
212
100
AcDbEntity
  8
0
  6
Continuous
 62
     2
100
AcDbLine
 10
29.595184
 20
2.242518668999999
 30
0.0
 11
29.6923821352
 21
2.121020999999999
 31
0.0
  0
LINE
  5
24B
330
212
100
AcDbEntity
  8
0
  6
Continuous
 62
     2
100
AcDbLine
 10
29.6834316913
 20
2.402270999999999
 30
0.0
 11
29.778184
 21
2.402270999999999
 31
0.0
  0
LINE
  5
24C
330
212
100
AcDbEntity
  8
0
  6
Continuous
 62
     2
100
AcDbLine
 10
29.595184
 20
2.402270999999999
 30
0.0
 11
29.595184
 21
2.314023308699999
 31
0.0
  0
LINE
  5
24D
330
212
100
AcDbEntity
  8
0
  6
Continuous
 62
     2
100
AcDbLine
 10
30.059434
 20
2.402270999999999
 30
0.0
 11
30.059434
 21
2.121020999999999
 31
0.0
  0
LINE
  5
24E
330
212
100
AcDbEntity
  8
0
  6
Continuous
 62
     2
100
AcDbLine
 10
30.126434
 20
2.121020999999999
 30
0.0
 11
30.126434
 21
2.243771
 31
0.0
  0
LINE
  5
24F
330
212
100
AcDbEntity
  8
0
  6
Continuous
 62
     2
100
AcDbLine
 10
30.126434
 20
2.310770999999999
 30
0.0
 11
30.126434
 21
2.402270999999999
 31
0.0
  0
LINE
  5
250
330
212
100
AcDbEntity
  8
0
  6
Continuous
 62
     2
100
AcDbLine
 10
30.204559
 20
2.121020999999999
 30
0.0
 11
30.204559
 21
2.243771
 31
0.0
  0
LINE
  5
251
330
212
100
AcDbEntity
  8
0
  6
Continuous
 62
     2
100
AcDbLine
 10
30.204559
 20
2.310770999999999
 30
0.0
 11
30.204559
 21
2.402270999999999
 31
0.0
  0
LINE
  5
252
330
212
100
AcDbEntity
  8
0
  6
Continuous
 62
     2
100
AcDbLine
 10
30.271559
 20
2.402270999999999
 30
0.0
 11
30.271559
 21
2.121020999999999
 31
0.0
  0
LINE
  5
253
330
212
100
AcDbEntity
  8
0
  6
Continuous
 62
     2
100
AcDbLine
 10
30.126434
 20
2.310770999999999
 30
0.0
 11
30.204559
 21
2.310770999999999
 31
0.0
  0
LINE
  5
254
330
212
100
AcDbEntity
  8
0
  6
Continuous
 62
     2
100
AcDbLine
 10
30.126434
 20
2.243771
 30
0.0
 11
30.204559
 21
2.243771
 31
0.0
  0
LINE
  5
255
330
212
100
AcDbEntity
  8
0
  6
Continuous
 62
     2
100
AcDbLine
 10
30.204559
 20
2.121020999999999
 30
0.0
 11
30.271559
 21
2.121020999999999
 31
0.0
  0
LINE
  5
256
330
212
100
AcDbEntity
  8
0
  6
Continuous
 62
     2
100
AcDbLine
 10
30.059434
 20
2.121020999999999
 30
0.0
 11
30.126434
 21
2.121020999999999
 31
0.0
  0
LINE
  5
257
330
212
100
AcDbEntity
  8
0
  6
Continuous
 62
     2
100
AcDbLine
 10
30.204559
 20
2.402270999999999
 30
0.0
 11
30.271559
 21
2.402270999999999
 31
0.0
  0
LINE
  5
258
330
212
100
AcDbEntity
  8
0
  6
Continuous
 62
     2
100
AcDbLine
 10
30.059434
 20
2.402270999999999
 30
0.0
 11
30.126434
 21
2.402270999999999
 31
0.0
  0
LINE
  5
259
330
212
100
AcDbEntity
  8
0
  6
Continuous
 62
     2
100
AcDbLine
 10
30.302809
 20
2.402270999999999
 30
0.0
 11
30.302809
 21
2.121020999999999
 31
0.0
  0
LINE
  5
25A
330
212
100
AcDbEntity
  8
0
  6
Continuous
 62
     2
100
AcDbLine
 10
30.459059
 20
2.188020999999999
 30
0.0
 11
30.459059
 21
2.121020999999999
 31
0.0
  0
LINE
  5
25B
330
212
100
AcDbEntity
  8
0
  6
Continuous
 62
     2
100
AcDbLine
 10
30.302809
 20
2.121020999999999
 30
0.0
 11
30.459059
 21
2.121020999999999
 31
0.0
  0
LINE
  5
25C
330
212
100
AcDbEntity
  8
0
  6
Continuous
 62
     2
100
AcDbLine
 10
30.369809
 20
2.188020999999999
 30
0.0
 11
30.369809
 21
2.402270999999999
 31
0.0
  0
LINE
  5
25D
330
212
100
AcDbEntity
  8
0
  6
Continuous
 62
     2
100
AcDbLine
 10
30.369809
 20
2.188020999999999
 30
0.0
 11
30.459059
 21
2.188020999999999
 31
0.0
  0
LINE
  5
25E
330
212
100
AcDbEntity
  8
0
  6
Continuous
 62
     2
100
AcDbLine
 10
30.302809
 20
2.402270999999999
 30
0.0
 11
30.369809
 21
2.402270999999999
 31
0.0
  0
LINE
  5
25F
330
212
100
AcDbEntity
  8
0
  6
Continuous
 62
     2
100
AcDbLine
 10
30.490309
 20
2.121020999999999
 30
0.0
 11
30.646559
 21
2.121020999999999
 31
0.0
  0
LINE
  5
260
330
212
100
AcDbEntity
  8
0
  6
Continuous
 62
     2
100
AcDbLine
 10
30.646559
 20
2.188020999999999
 30
0.0
 11
30.646559
 21
2.121020999999999
 31
0.0
  0
LINE
  5
261
330
212
100
AcDbEntity
  8
0
  6
Continuous
 62
     2
100
AcDbLine
 10
30.557309
 20
2.188020999999999
 30
0.0
 11
30.646559
 21
2.188020999999999
 31
0.0
  0
LINE
  5
262
330
212
100
AcDbEntity
  8
0
  6
Continuous
 62
     2
100
AcDbLine
 10
30.557309
 20
2.2359585
 30
0.0
 11
30.557309
 21
2.188020999999999
 31
0.0
  0
LINE
  5
263
330
212
100
AcDbEntity
  8
0
  6
Continuous
 62
     2
100
AcDbLine
 10
30.557309
 20
2.335271
 30
0.0
 11
30.646559
 21
2.335271
 31
0.0
  0
LINE
  5
264
330
212
100
AcDbEntity
  8
0
  6
Continuous
 62
     2
100
AcDbLine
 10
30.490309
 20
2.402270999999999
 30
0.0
 11
30.490309
 21
2.121020999999999
 31
0.0
  0
LINE
  5
265
330
212
100
AcDbEntity
  8
0
  6
Continuous
 62
     2
100
AcDbLine
 10
30.646559
 20
2.335271
 30
0.0
 11
30.646559
 21
2.402270999999999
 31
0.0
  0
LINE
  5
266
330
212
100
AcDbEntity
  8
0
  6
Continuous
 62
     2
100
AcDbLine
 10
30.490309
 20
2.402270999999999
 30
0.0
 11
30.646559
 21
2.402270999999999
 31
0.0
  0
LINE
  5
267
330
212
100
AcDbEntity
  8
0
  6
Continuous
 62
     2
100
AcDbLine
 10
30.557309
 20
2.287333499999999
 30
0.0
 11
30.646559
 21
2.287333499999999
 31
0.0
  0
LINE
  5
268
330
212
100
AcDbEntity
  8
0
  6
Continuous
 62
     2
100
AcDbLine
 10
30.646559
 20
2.287333499999999
 30
0.0
 11
30.646559
 21
2.2359585
 31
0.0
  0
LINE
  5
269
330
212
100
AcDbEntity
  8
0
  6
Continuous
 62
     2
100
AcDbLine
 10
30.557309
 20
2.2359585
 30
0.0
 11
30.646559
 21
2.2359585
 31
0.0
  0
LINE
  5
26A
330
212
100
AcDbEntity
  8
0
  6
Continuous
 62
     2
100
AcDbLine
 10
30.557309
 20
2.287333499999999
 30
0.0
 11
30.557309
 21
2.335271
 31
0.0
  0
LINE
  5
26B
330
212
100
AcDbEntity
  8
0
  6
Continuous
 62
     2
100
AcDbLine
 10
30.677809
 20
2.121020999999999
 30
0.0
 11
30.677809
 21
2.402270999999999
 31
0.0
  0
LINE
  5
26C
330
212
100
AcDbEntity
  8
0
  6
Continuous
 62
     2
100
AcDbLine
 10
30.744809
 20
2.230395999999999
 30
0.0
 11
30.744809
 21
2.121020999999999
 31
0.0
  0
ARC
  5
26D
330
212
100
AcDbEntity
  8
0
  6
Continuous
 62
     2
100
AcDbCircle
 10
30.7793715
 20
2.316333499999999
 30
0.0
 40
0.0859375
100
AcDbArc
 50
304.1679402531
 51
90.0
  0
LINE
  5
26E
330
212
100
AcDbEntity
  8
0
  6
Continuous
 62
     2
100
AcDbLine
 10
30.7793715
 20
2.402270999999999
 30
0.0
 11
30.677809
 21
2.402270999999999
 31
0.0
  0
LINE
  5
26F
330
212
100
AcDbEntity
  8
0
  6
Continuous
 62
     2
100
AcDbLine
 10
30.778184
 20
2.347770999999999
 30
0.0
 11
30.744809
 21
2.347770999999999
 31
0.0
  0
LINE
  5
270
330
212
100
AcDbEntity
  8
0
  6
Continuous
 62
     2
100
AcDbLine
 10
30.8276357616
 20
2.2452292458
 30
0.0
 11
30.896559
 21
2.121020999999999
 31
0.0
  0
LINE
  5
271
330
212
100
AcDbEntity
  8
0
  6
Continuous
 62
     2
100
AcDbLine
 10
30.8199350526
 20
2.121020999999999
 30
0.0
 11
30.7592427922
 21
2.230395999999999
 31
0.0
  0
LINE
  5
272
330
212
100
AcDbEntity
  8
0
  6
Continuous
 62
     2
100
AcDbLine
 10
30.677809
 20
2.121020999999999
 30
0.0
 11
30.744809
 21
2.121020999999999
 31
0.0
  0
LINE
  5
273
330
212
100
AcDbEntity
  8
0
  6
Continuous
 62
     2
100
AcDbLine
 10
30.8199350526
 20
2.121020999999999
 30
0.0
 11
30.896559
 21
2.121020999999999
 31
0.0
  0
LINE
  5
274
330
212
100
AcDbEntity
  8
0
  6
Continuous
 62
     2
100
AcDbLine
 10
30.778184
 20
2.2864585
 30
0.0
 11
30.744809
 21
2.2864585
 31
0.0
  0
LINE
  5
275
330
212
100
AcDbEntity
  8
0
  6
Continuous
 62
     2
100
AcDbLine
 10
30.744809
 20
2.347770999999999
 30
0.0
 11
30.744809
 21
2.2864585
 31
0.0
  0
LINE
  5
276
330
212
100
AcDbEntity
  8
0
  6
Continuous
 62
     2
100
AcDbLine
 10
30.744809
 20
2.230395999999999
 30
0.0
 11
30.7592427922
 21
2.230395999999999
 31
0.0
  0
LWPOLYLINE
  5
277
330
212
100
AcDbEntity
  8
0
  6
Continuous
 62
     2
100
AcDbPolyline
 90
       14
 70
     0
 43
0.0
 10
30.896559
 20
2.121020999999999
 10
30.8199350526
 20
2.121020999999999
 10
30.7592427922
 20
2.230395999999999
 10
30.744809
 20
2.230395999999999
 10
30.744809
 20
2.121020999999999
 10
30.677809
 20
2.121020999999999
 10
30.677809
 20
2.347770999999999
 10
30.744809
 20
2.347770999999999
 10
30.744809
 20
2.2864585
 10
30.778184
 20
2.2864585
 10
30.858650134
 20
2.2864585
 10
30.8497683179
 20
2.267043116199999
 10
30.8276357616
 20
2.2452292458
 10
30.896559
 20
2.121020999999999
  0
HATCH
  5
278
330
212
100
AcDbEntity
  8
0
  6
Continuous
 62
     2
100
AcDbHatch
 10
0.0
 20
0.0
 30
0.0
210
0.0
220
0.0
230
1.0
  2
SOLID
 70
     1
 71
     1
 91
        1
 92
        1
 93
       13
 72
     1
 10
30.896559
 20
2.121020999999999
 11
30.8199350526
 21
2.121020999999999
 72
     1
 10
30.8199350526
 20
2.121020999999999
 11
30.7592427922
 21
2.230395999999999
 72
     1
 10
30.7592427922
 20
2.230395999999999
 11
30.744809
 21
2.230395999999999
 72
     1
 10
30.744809
 20
2.230395999999999
 11
30.744809
 21
2.121020999999999
 72
     1
 10
30.744809
 20
2.121020999999999
 11
30.677809
 21
2.121020999999999
 72
     1
 10
30.677809
 20
2.121020999999999
 11
30.677809
 21
2.347770999999999
 72
     1
 10
30.677809
 20
2.347770999999999
 11
30.744809
 21
2.347770999999999
 72
     1
 10
30.744809
 20
2.347770999999999
 11
30.744809
 21
2.2864585
 72
     1
 10
30.744809
 20
2.2864585
 11
30.778184
 21
2.2864585
 72
     1
 10
30.778184
 20
2.2864585
 11
30.858650134
 21
2.2864585
 72
     1
 10
30.858650134
 20
2.2864585
 11
30.8497683179
 21
2.267043116199999
 72
     1
 10
30.8497683179
 20
2.267043116199999
 11
30.8276357616
 21
2.2452292458
 72
     1
 10
30.8276357616
 20
2.2452292458
 11
30.896559
 21
2.121020999999999
 97
        1
330
277
 75
     0
 76
     1
 98
        1
 10
0.0
 20
0.0
450
        0
451
        0
460
0.0
461
0.0
452
        0
462
0.0
453
        0
470

  0
LWPOLYLINE
  5
279
330
212
100
AcDbEntity
  8
0
  6
Continuous
 62
     2
100
AcDbPolyline
 90
       18
 70
     0
 43
0.0
 10
30.677809
 20
2.347770999999999
 10
30.677809
 20
2.402270999999999
 10
30.7793715
 20
2.402270999999999
 10
30.8099349823
 20
2.396652410999999
 10
30.836501987
 20
2.3805313299
 10
30.8555986155
 20
2.356015747599999
 10
30.8647277946
 20
2.326311319
 10
30.8626957941
 20
2.295302191799999
 10
30.858650134
 20
2.2864585
 10
30.778184
 20
2.2864585
 10
30.793512125
 20
2.290565658699999
 10
30.8047330913
 20
2.301786625
 10
30.80884025
 20
2.31711475
 10
30.8047330913
 20
2.332442874999999
 10
30.793512125
 20
2.3436638413
 10
30.778184
 20
2.347770999999999
 10
30.744809
 20
2.347770999999999
 10
30.677809
 20
2.347770999999999
  0
HATCH
  5
27A
330
212
100
AcDbEntity
  8
0
  6
Continuous
 62
     2
100
AcDbHatch
 10
0.0
 20
0.0
 30
0.0
210
0.0
220
0.0
230
1.0
  2
SOLID
 70
     1
 71
     1
 91
        1
 92
        1
 93
       17
 72
     1
 10
30.677809
 20
2.347770999999999
 11
30.677809
 21
2.402270999999999
 72
     1
 10
30.677809
 20
2.402270999999999
 11
30.7793715
 21
2.402270999999999
 72
     1
 10
30.7793715
 20
2.402270999999999
 11
30.8099349823
 21
2.396652410999999
 72
     1
 10
30.8099349823
 20
2.396652410999999
 11
30.836501987
 21
2.3805313299
 72
     1
 10
30.836501987
 20
2.3805313299
 11
30.8555986155
 21
2.356015747599999
 72
     1
 10
30.8555986155
 20
2.356015747599999
 11
30.8647277946
 21
2.326311319
 72
     1
 10
30.8647277946
 20
2.326311319
 11
30.8626957941
 21
2.295302191799999
 72
     1
 10
30.8626957941
 20
2.295302191799999
 11
30.858650134
 21
2.2864585
 72
     1
 10
30.858650134
 20
2.2864585
 11
30.778184
 21
2.2864585
 72
     1
 10
30.778184
 20
2.2864585
 11
30.793512125
 21
2.290565658699999
 72
     1
 10
30.793512125
 20
2.290565658699999
 11
30.8047330913
 21
2.301786625
 72
     1
 10
30.8047330913
 20
2.301786625
 11
30.80884025
 21
2.31711475
 72
     1
 10
30.80884025
 20
2.31711475
 11
30.8047330913
 21
2.332442874999999
 72
     1
 10
30.8047330913
 20
2.332442874999999
 11
30.793512125
 21
2.3436638413
 72
     1
 10
30.793512125
 20
2.3436638413
 11
30.778184
 21
2.347770999999999
 72
     1
 10
30.778184
 20
2.347770999999999
 11
30.744809
 21
2.347770999999999
 72
     1
 10
30.744809
 20
2.347770999999999
 11
30.677809
 21
2.347770999999999
 97
        1
330
279
 75
     0
 76
     1
 98
        1
 10
0.0
 20
0.0
450
        0
451
        0
460
0.0
461
0.0
452
        0
462
0.0
453
        0
470

  0
LWPOLYLINE
  5
27B
330
212
100
AcDbEntity
  8
0
  6
Continuous
 62
     2
100
AcDbPolyline
 90
       12
 70
     0
 43
0.0
 10
29.595184
 20
2.121020999999999
 10
29.528184
 20
2.121020999999999
 10
29.528184
 20
2.402270999999999
 10
29.595184
 20
2.402270999999999
 10
29.595184
 20
2.314023308699999
 10
29.6834316913
 20
2.402270999999999
 10
29.778184
 20
2.402270999999999
 10
29.653184
 20
2.277270999999999
 10
29.778184
 20
2.121020999999999
 10
29.6923821352
 20
2.121020999999999
 10
29.595184
 20
2.242518668999999
 10
29.595184
 20
2.121020999999999
  0
HATCH
  5
27C
330
212
100
AcDbEntity
  8
0
  6
Continuous
 62
     2
100
AcDbHatch
 10
0.0
 20
0.0
 30
0.0
210
0.0
220
0.0
230
1.0
  2
SOLID
 70
     1
 71
     1
 91
        1
 92
        1
 93
       11
 72
     1
 10
29.595184
 20
2.121020999999999
 11
29.528184
 21
2.121020999999999
 72
     1
 10
29.528184
 20
2.121020999999999
 11
29.528184
 21
2.402270999999999
 72
     1
 10
29.528184
 20
2.402270999999999
 11
29.595184
 21
2.402270999999999
 72
     1
 10
29.595184
 20
2.402270999999999
 11
29.595184
 21
2.314023308699999
 72
     1
 10
29.595184
 20
2.314023308699999
 11
29.6834316913
 21
2.402270999999999
 72
     1
 10
29.6834316913
 20
2.402270999999999
 11
29.778184
 21
2.402270999999999
 72
     1
 10
29.778184
 20
2.402270999999999
 11
29.653184
 21
2.277270999999999
 72
     1
 10
29.653184
 20
2.277270999999999
 11
29.778184
 21
2.121020999999999
 72
     1
 10
29.778184
 20
2.121020999999999
 11
29.6923821352
 21
2.121020999999999
 72
     1
 10
29.6923821352
 20
2.121020999999999
 11
29.595184
 21
2.242518668999999
 72
     1
 10
29.595184
 20
2.242518668999999
 11
29.595184
 21
2.121020999999999
 97
        1
330
27B
 75
     0
 76
     1
 98
        1
 10
0.0
 20
0.0
450
        0
451
        0
460
0.0
461
0.0
452
        0
462
0.0
453
        0
470

  0
LWPOLYLINE
  5
27D
330
212
100
AcDbEntity
  8
0
  6
Continuous
 62
     2
100
AcDbPolyline
 90
       23
 70
     0
 43
0.0
 10
29.887559
 20
2.121020999999999
 10
29.8441034852
 20
2.127903677399999
 10
29.8049016989
 20
2.1478779852
 10
29.7737909852
 20
2.1789886989
 10
29.7538166774
 20
2.2181904852
 10
29.746934
 20
2.261645999999999
 10
29.7538166774
 20
2.3051015148
 10
29.7690287706
 20
2.3349569287
 10
29.894352258
 20
2.3349569287
 10
29.8674105624
 20
2.332460413
 10
29.8431900249
 20
2.320400018399999
 10
29.8249617634
 20
2.300404567999999
 10
29.8151876055
 20
2.275174558199999
 10
29.8151876055
 20
2.248117441799999
 10
29.8249617634
 20
2.222887431999999
 10
29.8431900249
 20
2.2028919816
 10
29.8674105624
 20
2.190831586999999
 10
29.894352258
 20
2.1883350713
 10
30.0060892294
 20
2.1883350713
 10
30.0013270148
 20
2.1789886989
 10
29.9702163011
 20
2.1478779852
 10
29.9310145148
 20
2.127903677399999
 10
29.887559
 20
2.121020999999999
  0
HATCH
  5
27E
330
212
100
AcDbEntity
  8
0
  6
Continuous
 62
     2
100
AcDbHatch
 10
0.0
 20
0.0
 30
0.0
210
0.0
220
0.0
230
1.0
  2
SOLID
 70
     1
 71
     1
 91
        1
 92
        1
 93
       22
 72
     1
 10
29.887559
 20
2.121020999999999
 11
29.8441034852
 21
2.127903677399999
 72
     1
 10
29.8441034852
 20
2.127903677399999
 11
29.8049016989
 21
2.1478779852
 72
     1
 10
29.8049016989
 20
2.1478779852
 11
29.7737909852
 21
2.1789886989
 72
     1
 10
29.7737909852
 20
2.1789886989
 11
29.7538166774
 21
2.2181904852
 72
     1
 10
29.7538166774
 20
2.2181904852
 11
29.746934
 21
2.261645999999999
 72
     1
 10
29.746934
 20
2.261645999999999
 11
29.7538166774
 21
2.3051015148
 72
     1
 10
29.7538166774
 20
2.3051015148
 11
29.7690287706
 21
2.3349569287
 72
     1
 10
29.7690287706
 20
2.3349569287
 11
29.894352258
 21
2.3349569287
 72
     1
 10
29.894352258
 20
2.3349569287
 11
29.8674105624
 21
2.332460413
 72
     1
 10
29.8674105624
 20
2.332460413
 11
29.8431900249
 21
2.320400018399999
 72
     1
 10
29.8431900249
 20
2.320400018399999
 11
29.8249617634
 21
2.300404567999999
 72
     1
 10
29.8249617634
 20
2.300404567999999
 11
29.8151876055
 21
2.275174558199999
 72
     1
 10
29.8151876055
 20
2.275174558199999
 11
29.8151876055
 21
2.248117441799999
 72
     1
 10
29.8151876055
 20
2.248117441799999
 11
29.8249617634
 21
2.222887431999999
 72
     1
 10
29.8249617634
 20
2.222887431999999
 11
29.8431900249
 21
2.2028919816
 72
     1
 10
29.8431900249
 20
2.2028919816
 11
29.8674105624
 21
2.190831586999999
 72
     1
 10
29.8674105624
 20
2.190831586999999
 11
29.894352258
 21
2.1883350713
 72
     1
 10
29.894352258
 20
2.1883350713
 11
30.0060892294
 21
2.1883350713
 72
     1
 10
30.0060892294
 20
2.1883350713
 11
30.0013270148
 21
2.1789886989
 72
     1
 10
30.0013270148
 20
2.1789886989
 11
29.9702163011
 21
2.1478779852
 72
     1
 10
29.9702163011
 20
2.1478779852
 11
29.9310145148
 21
2.127903677399999
 72
     1
 10
29.9310145148
 20
2.127903677399999
 11
29.887559
 21
2.121020999999999
 97
        1
330
27D
 75
     0
 76
     1
 98
        1
 10
0.0
 20
0.0
450
        0
451
        0
460
0.0
461
0.0
452
        0
462
0.0
453
        0
470

  0
LWPOLYLINE
  5
27F
330
212
100
AcDbEntity
  8
0
  6
Continuous
 62
     2
100
AcDbPolyline
 90
       22
 70
     0
 43
0.0
 10
29.7690287706
 20
2.3349569287
 10
29.7737909852
 20
2.3443033011
 10
29.8049016989
 20
2.3754140148
 10
29.8441034852
 20
2.3953883226
 10
29.887559
 20
2.402270999999999
 10
29.9310145148
 20
2.3953883226
 10
29.9702163011
 20
2.3754140148
 10
30.0013270148
 20
2.3443033011
 10
30.0213013226
 20
2.3051015148
 10
30.028184
 20
2.261645999999999
 10
30.0213013226
 20
2.2181904852
 10
30.0060892294
 20
2.1883350713
 10
29.894352258
 20
2.1883350713
 10
29.9203764864
 20
2.195739602699999
 10
29.9419685315
 20
2.2120451582
 10
29.9562122679
 20
2.235049582299999
 10
29.961184
 20
2.261645999999999
 10
29.9562122679
 20
2.288242417699999
 10
29.9419685315
 20
2.3112468418
 10
29.9203764864
 20
2.327552397299999
 10
29.894352258
 20
2.3349569287
 10
29.7690287706
 20
2.3349569287
  0
HATCH
  5
280
330
212
100
AcDbEntity
  8
0
  6
Continuous
 62
     2
100
AcDbHatch
 10
0.0
 20
0.0
 30
0.0
210
0.0
220
0.0
230
1.0
  2
SOLID
 70
     1
 71
     1
 91
        1
 92
        1
 93
       21
 72
     1
 10
29.7690287706
 20
2.3349569287
 11
29.7737909852
 21
2.3443033011
 72
     1
 10
29.7737909852
 20
2.3443033011
 11
29.8049016989
 21
2.3754140148
 72
     1
 10
29.8049016989
 20
2.3754140148
 11
29.8441034852
 21
2.3953883226
 72
     1
 10
29.8441034852
 20
2.3953883226
 11
29.887559
 21
2.402270999999999
 72
     1
 10
29.887559
 20
2.402270999999999
 11
29.9310145148
 21
2.3953883226
 72
     1
 10
29.9310145148
 20
2.3953883226
 11
29.9702163011
 21
2.3754140148
 72
     1
 10
29.9702163011
 20
2.3754140148
 11
30.0013270148
 21
2.3443033011
 72
     1
 10
30.0013270148
 20
2.3443033011
 11
30.0213013226
 21
2.3051015148
 72
     1
 10
30.0213013226
 20
2.3051015148
 11
30.028184
 21
2.261645999999999
 72
     1
 10
30.028184
 20
2.261645999999999
 11
30.0213013226
 21
2.2181904852
 72
     1
 10
30.0213013226
 20
2.2181904852
 11
30.0060892294
 21
2.1883350713
 72
     1
 10
30.0060892294
 20
2.1883350713
 11
29.894352258
 21
2.1883350713
 72
     1
 10
29.894352258
 20
2.1883350713
 11
29.9203764864
 21
2.195739602699999
 72
     1
 10
29.9203764864
 20
2.195739602699999
 11
29.9419685315
 21
2.2120451582
 72
     1
 10
29.9419685315
 20
2.2120451582
 11
29.9562122679
 21
2.235049582299999
 72
     1
 10
29.9562122679
 20
2.235049582299999
 11
29.961184
 21
2.261645999999999
 72
     1
 10
29.961184
 20
2.261645999999999
 11
29.9562122679
 21
2.288242417699999
 72
     1
 10
29.9562122679
 20
2.288242417699999
 11
29.9419685315
 21
2.3112468418
 72
     1
 10
29.9419685315
 20
2.3112468418
 11
29.9203764864
 21
2.327552397299999
 72
     1
 10
29.9203764864
 20
2.327552397299999
 11
29.894352258
 21
2.3349569287
 72
     1
 10
29.894352258
 20
2.3349569287
 11
29.7690287706
 21
2.3349569287
 97
        1
330
27F
 75
     0
 76
     1
 98
        1
 10
0.0
 20
0.0
450
        0
451
        0
460
0.0
461
0.0
452
        0
462
0.0
453
        0
470

  0
LWPOLYLINE
  5
281
330
212
100
AcDbEntity
  8
0
  6
Continuous
 62
     2
100
AcDbPolyline
 90
       13
 70
     0
 43
0.0
 10
30.126434
 20
2.121020999999999
 10
30.059434
 20
2.121020999999999
 10
30.059434
 20
2.402270999999999
 10
30.126434
 20
2.402270999999999
 10
30.126434
 20
2.310770999999999
 10
30.204559
 20
2.310770999999999
 10
30.204559
 20
2.402270999999999
 10
30.271559
 20
2.402270999999999
 10
30.271559
 20
2.121020999999999
 10
30.204559
 20
2.121020999999999
 10
30.204559
 20
2.243771
 10
30.126434
 20
2.243771
 10
30.126434
 20
2.121020999999999
  0
HATCH
  5
282
330
212
100
AcDbEntity
  8
0
  6
Continuous
 62
     2
100
AcDbHatch
 10
0.0
 20
0.0
 30
0.0
210
0.0
220
0.0
230
1.0
  2
SOLID
 70
     1
 71
     1
 91
        1
 92
        1
 93
       12
 72
     1
 10
30.126434
 20
2.121020999999999
 11
30.059434
 21
2.121020999999999
 72
     1
 10
30.059434
 20
2.121020999999999
 11
30.059434
 21
2.402270999999999
 72
     1
 10
30.059434
 20
2.402270999999999
 11
30.126434
 21
2.402270999999999
 72
     1
 10
30.126434
 20
2.402270999999999
 11
30.126434
 21
2.310770999999999
 72
     1
 10
30.126434
 20
2.310770999999999
 11
30.204559
 21
2.310770999999999
 72
     1
 10
30.204559
 20
2.310770999999999
 11
30.204559
 21
2.402270999999999
 72
     1
 10
30.204559
 20
2.402270999999999
 11
30.271559
 21
2.402270999999999
 72
     1
 10
30.271559
 20
2.402270999999999
 11
30.271559
 21
2.121020999999999
 72
     1
 10
30.271559
 20
2.121020999999999
 11
30.204559
 21
2.121020999999999
 72
     1
 10
30.204559
 20
2.121020999999999
 11
30.204559
 21
2.243771
 72
     1
 10
30.204559
 20
2.243771
 11
30.126434
 21
2.243771
 72
     1
 10
30.126434
 20
2.243771
 11
30.126434
 21
2.121020999999999
 97
        1
330
281
 75
     0
 76
     1
 98
        1
 10
0.0
 20
0.0
450
        0
451
        0
460
0.0
461
0.0
452
        0
462
0.0
453
        0
470

  0
LWPOLYLINE
  5
283
330
212
100
AcDbEntity
  8
0
  6
Continuous
 62
     2
100
AcDbPolyline
 90
        7
 70
     0
 43
0.0
 10
30.459059
 20
2.121020999999999
 10
30.302809
 20
2.121020999999999
 10
30.302809
 20
2.402270999999999
 10
30.369809
 20
2.402270999999999
 10
30.369809
 20
2.188020999999999
 10
30.459059
 20
2.188020999999999
 10
30.459059
 20
2.121020999999999
  0
HATCH
  5
284
330
212
100
AcDbEntity
  8
0
  6
Continuous
 62
     2
100
AcDbHatch
 10
0.0
 20
0.0
 30
0.0
210
0.0
220
0.0
230
1.0
  2
SOLID
 70
     1
 71
     1
 91
        1
 92
        1
 93
        6
 72
     1
 10
30.459059
 20
2.121020999999999
 11
30.302809
 21
2.121020999999999
 72
     1
 10
30.302809
 20
2.121020999999999
 11
30.302809
 21
2.402270999999999
 72
     1
 10
30.302809
 20
2.402270999999999
 11
30.369809
 21
2.402270999999999
 72
     1
 10
30.369809
 20
2.402270999999999
 11
30.369809
 21
2.188020999999999
 72
     1
 10
30.369809
 20
2.188020999999999
 11
30.459059
 21
2.188020999999999
 72
     1
 10
30.459059
 20
2.188020999999999
 11
30.459059
 21
2.121020999999999
 97
        1
330
283
 75
     0
 76
     1
 98
        1
 10
0.0
 20
0.0
450
        0
451
        0
460
0.0
461
0.0
452
        0
462
0.0
453
        0
470

  0
LWPOLYLINE
  5
285
330
212
100
AcDbEntity
  8
0
  6
Continuous
 62
     2
100
AcDbPolyline
 90
       13
 70
     0
 43
0.0
 10
30.646559
 20
2.121020999999999
 10
30.490309
 20
2.121020999999999
 10
30.490309
 20
2.402270999999999
 10
30.646559
 20
2.402270999999999
 10
30.646559
 20
2.335271
 10
30.557309
 20
2.335271
 10
30.557309
 20
2.287333499999999
 10
30.646559
 20
2.287333499999999
 10
30.646559
 20
2.2359585
 10
30.557309
 20
2.2359585
 10
30.557309
 20
2.188020999999999
 10
30.646559
 20
2.188020999999999
 10
30.646559
 20
2.121020999999999
  0
HATCH
  5
286
330
212
100
AcDbEntity
  8
0
  6
Continuous
 62
     2
100
AcDbHatch
 10
0.0
 20
0.0
 30
0.0
210
0.0
220
0.0
230
1.0
  2
SOLID
 70
     1
 71
     1
 91
        1
 92
        1
 93
       12
 72
     1
 10
30.646559
 20
2.121020999999999
 11
30.490309
 21
2.121020999999999
 72
     1
 10
30.490309
 20
2.121020999999999
 11
30.490309
 21
2.402270999999999
 72
     1
 10
30.490309
 20
2.402270999999999
 11
30.646559
 21
2.402270999999999
 72
     1
 10
30.646559
 20
2.402270999999999
 11
30.646559
 21
2.335271
 72
     1
 10
30.646559
 20
2.335271
 11
30.557309
 21
2.335271
 72
     1
 10
30.557309
 20
2.335271
 11
30.557309
 21
2.287333499999999
 72
     1
 10
30.557309
 20
2.287333499999999
 11
30.646559
 21
2.287333499999999
 72
     1
 10
30.646559
 20
2.287333499999999
 11
30.646559
 21
2.2359585
 72
     1
 10
30.646559
 20
2.2359585
 11
30.557309
 21
2.2359585
 72
     1
 10
30.557309
 20
2.2359585
 11
30.557309
 21
2.188020999999999
 72
     1
 10
30.557309
 20
2.188020999999999
 11
30.646559
 21
2.188020999999999
 72
     1
 10
30.646559
 20
2.188020999999999
 11
30.646559
 21
2.121020999999999
 97
        1
330
285
 75
     0
 76
     1
 98
        1
 10
0.0
 20
0.0
450
        0
451
        0
460
0.0
461
0.0
452
        0
462
0.0
453
        0
470

  0
ENDBLK
  5
287
330
212
100
AcDbEntity
  8
0
  6
ByBlock
 62
     0
100
AcDbBlockEnd
  0
BLOCK
  5
288
330
213
100
AcDbEntity
  8
DEFAULT_2
  6
HIDDEN
 62
     8
100
AcDbBlockBegin
  2
C_ARROW_BL1
 70
     0
 10
17.0
 20
21.775
 30
0.0
  3
C_ARROW_BL1
  1

  0
LINE
  5
289
330
213
100
AcDbEntity
  8
DEFAULT_2
  6
HIDDEN
 62
     8
100
AcDbLine
 10
17.0
 20
21.5875
 30
0.0
 11
17.09375
 21
21.775
 31
0.0
  0
LINE
  5
28A
330
213
100
AcDbEntity
  8
DEFAULT_2
  6
HIDDEN
 62
     8
100
AcDbLine
 10
17.0
 20
21.5875
 30
0.0
 11
16.90625
 21
21.775
 31
0.0
  0
LINE
  5
28B
330
213
100
AcDbEntity
  8
DEFAULT_2
  6
HIDDEN
 62
     8
100
AcDbLine
 10
16.9765625
 20
21.775
 30
0.0
 11
16.90625
 21
21.775
 31
0.0
  0
LINE
  5
28C
330
213
100
AcDbEntity
  8
DEFAULT_2
  6
HIDDEN
 62
     8
100
AcDbLine
 10
16.9765625
 20
21.9625
 30
0.0
 11
16.9765625
 21
21.775
 31
0.0
  0
LINE
  5
28D
330
213
100
AcDbEntity
  8
DEFAULT_2
  6
HIDDEN
 62
     8
100
AcDbLine
 10
16.9765625
 20
21.9625
 30
0.0
 11
17.0234375
 21
21.9625
 31
0.0
  0
LINE
  5
28E
330
213
100
AcDbEntity
  8
DEFAULT_2
  6
HIDDEN
 62
     8
100
AcDbLine
 10
17.0234375
 20
21.775
 30
0.0
 11
17.0234375
 21
21.9625
 31
0.0
  0
LINE
  5
28F
330
213
100
AcDbEntity
  8
DEFAULT_2
  6
HIDDEN
 62
     8
100
AcDbLine
 10
17.09375
 20
21.775
 30
0.0
 11
17.0234375
 21
21.775
 31
0.0
  0
LWPOLYLINE
  5
290
330
213
100
AcDbEntity
  8
DEFAULT_2
  6
HIDDEN
 62
     8
100
AcDbPolyline
 90
        8
 70
     0
 43
0.0
 10
17.0
 20
21.5875
 10
16.90625
 20
21.775
 10
16.9765625
 20
21.775
 10
16.9765625
 20
21.9625
 10
17.0234375
 20
21.9625
 10
17.0234375
 20
21.775
 10
17.09375
 20
21.775
 10
17.0
 20
21.5875
  0
HATCH
  5
291
330
213
100
AcDbEntity
  8
DEFAULT_2
  6
HIDDEN
 62
     8
100
AcDbHatch
 10
0.0
 20
0.0
 30
0.0
210
0.0
220
0.0
230
1.0
  2
SOLID
 70
     1
 71
     1
 91
        1
 92
        1
 93
        7
 72
     1
 10
17.0
 20
21.5875
 11
16.90625
 21
21.775
 72
     1
 10
16.90625
 20
21.775
 11
16.9765625
 21
21.775
 72
     1
 10
16.9765625
 20
21.775
 11
16.9765625
 21
21.9625
 72
     1
 10
16.9765625
 20
21.9625
 11
17.0234375
 21
21.9625
 72
     1
 10
17.0234375
 20
21.9625
 11
17.0234375
 21
21.775
 72
     1
 10
17.0234375
 20
21.775
 11
17.09375
 21
21.775
 72
     1
 10
17.09375
 20
21.775
 11
17.0
 21
21.5875
 97
        1
330
290
 75
     0
 76
     1
 98
        1
 10
0.0
 20
0.0
450
        0
451
        0
460
0.0
461
0.0
452
        0
462
0.0
453
        0
470

  0
ENDBLK
  5
292
330
213
100
AcDbEntity
  8
0
  6
ByBlock
 62
     0
100
AcDbBlockEnd
  0
BLOCK
  5
293
330
214
100
AcDbEntity
  8
DEFAULT_2
  6
HIDDEN
 62
     8
100
AcDbBlockBegin
  2
C_ARROW_BL2
 70
     0
 10
0.3375
 20
11.0
 30
0.0
  3
C_ARROW_BL2
  1

  0
LINE
  5
294
330
214
100
AcDbEntity
  8
DEFAULT_2
  6
HIDDEN
 62
     8
100
AcDbLine
 10
0.525
 20
11.0
 30
0.0
 11
0.3375
 21
11.09375
 31
0.0
  0
LINE
  5
295
330
214
100
AcDbEntity
  8
DEFAULT_2
  6
HIDDEN
 62
     8
100
AcDbLine
 10
0.525
 20
11.0
 30
0.0
 11
0.3375
 21
10.90625
 31
0.0
  0
LINE
  5
296
330
214
100
AcDbEntity
  8
DEFAULT_2
  6
HIDDEN
 62
     8
100
AcDbLine
 10
0.3375
 20
10.9765625
 30
0.0
 11
0.3375
 21
10.90625
 31
0.0
  0
LINE
  5
297
330
214
100
AcDbEntity
  8
DEFAULT_2
  6
HIDDEN
 62
     8
100
AcDbLine
 10
0.15
 20
10.9765625
 30
0.0
 11
0.3375
 21
10.9765625
 31
0.0
  0
LINE
  5
298
330
214
100
AcDbEntity
  8
DEFAULT_2
  6
HIDDEN
 62
     8
100
AcDbLine
 10
0.15
 20
10.9765625
 30
0.0
 11
0.15
 21
11.0234375
 31
0.0
  0
LINE
  5
299
330
214
100
AcDbEntity
  8
DEFAULT_2
  6
HIDDEN
 62
     8
100
AcDbLine
 10
0.3375
 20
11.0234375
 30
0.0
 11
0.15
 21
11.0234375
 31
0.0
  0
LINE
  5
29A
330
214
100
AcDbEntity
  8
DEFAULT_2
  6
HIDDEN
 62
     8
100
AcDbLine
 10
0.3375
 20
11.09375
 30
0.0
 11
0.3375
 21
11.0234375
 31
0.0
  0
LWPOLYLINE
  5
29B
330
214
100
AcDbEntity
  8
DEFAULT_2
  6
HIDDEN
 62
     8
100
AcDbPolyline
 90
        8
 70
     0
 43
0.0
 10
0.525
 20
11.0
 10
0.3375
 20
10.90625
 10
0.3375
 20
10.9765625
 10
0.15
 20
10.9765625
 10
0.15
 20
11.0234375
 10
0.3375
 20
11.0234375
 10
0.3375
 20
11.09375
 10
0.525
 20
11.0
  0
HATCH
  5
29C
330
214
100
AcDbEntity
  8
DEFAULT_2
  6
HIDDEN
 62
     8
100
AcDbHatch
 10
0.0
 20
0.0
 30
0.0
210
0.0
220
0.0
230
1.0
  2
SOLID
 70
     1
 71
     1
 91
        1
 92
        1
 93
        7
 72
     1
 10
0.525
 20
11.0
 11
0.3375
 21
10.90625
 72
     1
 10
0.3375
 20
10.90625
 11
0.3375
 21
10.9765625
 72
     1
 10
0.3375
 20
10.9765625
 11
0.15
 21
10.9765625
 72
     1
 10
0.15
 20
10.9765625
 11
0.15
 21
11.0234375
 72
     1
 10
0.15
 20
11.0234375
 11
0.3375
 21
11.0234375
 72
     1
 10
0.3375
 20
11.0234375
 11
0.3375
 21
11.09375
 72
     1
 10
0.3375
 20
11.09375
 11
0.525
 21
11.0
 97
        1
330
29B
 75
     0
 76
     1
 98
        1
 10
0.0
 20
0.0
450
        0
451
        0
460
0.0
461
0.0
452
        0
462
0.0
453
        0
470

  0
ENDBLK
  5
29D
330
214
100
AcDbEntity
  8
0
  6
ByBlock
 62
     0
100
AcDbBlockEnd
  0
BLOCK
  5
29E
330
215
100
AcDbEntity
  8
DEFAULT_2
  6
HIDDEN
 62
     8
100
AcDbBlockBegin
  2
C_ARROW_BL3
 70
     0
 10
17.0
 20
0.4
 30
0.0
  3
C_ARROW_BL3
  1

  0
LINE
  5
29F
330
215
100
AcDbEntity
  8
DEFAULT_2
  6
HIDDEN
 62
     8
100
AcDbLine
 10
17.0
 20
0.5875
 30
0.0
 11
16.90625
 21
0.4
 31
0.0
  0
LINE
  5
2A0
330
215
100
AcDbEntity
  8
DEFAULT_2
  6
HIDDEN
 62
     8
100
AcDbLine
 10
17.0
 20
0.5875
 30
0.0
 11
17.09375
 21
0.4
 31
0.0
  0
LINE
  5
2A1
330
215
100
AcDbEntity
  8
DEFAULT_2
  6
HIDDEN
 62
     8
100
AcDbLine
 10
17.0234375
 20
0.4
 30
0.0
 11
17.09375
 21
0.4
 31
0.0
  0
LINE
  5
2A2
330
215
100
AcDbEntity
  8
DEFAULT_2
  6
HIDDEN
 62
     8
100
AcDbLine
 10
17.0234375
 20
0.2125
 30
0.0
 11
17.0234375
 21
0.4
 31
0.0
  0
LINE
  5
2A3
330
215
100
AcDbEntity
  8
DEFAULT_2
  6
HIDDEN
 62
     8
100
AcDbLine
 10
17.0234375
 20
0.2125
 30
0.0
 11
16.9765625
 21
0.2125
 31
0.0
  0
LINE
  5
2A4
330
215
100
AcDbEntity
  8
DEFAULT_2
  6
HIDDEN
 62
     8
100
AcDbLine
 10
16.9765625
 20
0.4
 30
0.0
 11
16.9765625
 21
0.2125
 31
0.0
  0
LINE
  5
2A5
330
215
100
AcDbEntity
  8
DEFAULT_2
  6
HIDDEN
 62
     8
100
AcDbLine
 10
16.90625
 20
0.4
 30
0.0
 11
16.9765625
 21
0.4
 31
0.0
  0
LWPOLYLINE
  5
2A6
330
215
100
AcDbEntity
  8
DEFAULT_2
  6
HIDDEN
 62
     8
100
AcDbPolyline
 90
        8
 70
     0
 43
0.0
 10
17.0
 20
0.5875
 10
17.09375
 20
0.4
 10
17.0234375
 20
0.4
 10
17.0234375
 20
0.2125
 10
16.9765625
 20
0.2125
 10
16.9765625
 20
0.4
 10
16.90625
 20
0.4
 10
17.0
 20
0.5875
  0
HATCH
  5
2A7
330
215
100
AcDbEntity
  8
DEFAULT_2
  6
HIDDEN
 62
     8
100
AcDbHatch
 10
0.0
 20
0.0
 30
0.0
210
0.0
220
0.0
230
1.0
  2
SOLID
 70
     1
 71
     1
 91
        1
 92
        1
 93
        7
 72
     1
 10
17.0
 20
0.5875
 11
17.09375
 21
0.4
 72
     1
 10
17.09375
 20
0.4
 11
17.0234375
 21
0.4
 72
     1
 10
17.0234375
 20
0.4
 11
17.0234375
 21
0.2125
 72
     1
 10
17.0234375
 20
0.2125
 11
16.9765625
 21
0.2125
 72
     1
 10
16.9765625
 20
0.2125
 11
16.9765625
 21
0.4
 72
     1
 10
16.9765625
 20
0.4
 11
16.90625
 21
0.4
 72
     1
 10
16.90625
 20
0.4
 11
17.0
 21
0.5875
 97
        1
330
2A6
 75
     0
 76
     1
 98
        1
 10
0.0
 20
0.0
450
        0
451
        0
460
0.0
461
0.0
452
        0
462
0.0
453
        0
470

  0
ENDBLK
  5
2A8
330
215
100
AcDbEntity
  8
0
  6
ByBlock
 62
     0
100
AcDbBlockEnd
  0
BLOCK
  5
2A9
330
216
100
AcDbEntity
  8
DEFAULT_2
  6
HIDDEN
 62
     8
100
AcDbBlockBegin
  2
C_ARROW_BL4
 70
     0
 10
33.7125
 20
11.0
 30
0.0
  3
C_ARROW_BL4
  1

  0
LINE
  5
2AA
330
216
100
AcDbEntity
  8
DEFAULT_2
  6
HIDDEN
 62
     8
100
AcDbLine
 10
33.525
 20
11.0
 30
0.0
 11
33.7125
 21
10.90625
 31
0.0
  0
LINE
  5
2AB
330
216
100
AcDbEntity
  8
DEFAULT_2
  6
HIDDEN
 62
     8
100
AcDbLine
 10
33.525
 20
11.0
 30
0.0
 11
33.7125
 21
11.09375
 31
0.0
  0
LINE
  5
2AC
330
216
100
AcDbEntity
  8
DEFAULT_2
  6
HIDDEN
 62
     8
100
AcDbLine
 10
33.7125
 20
11.0234375
 30
0.0
 11
33.7125
 21
11.09375
 31
0.0
  0
LINE
  5
2AD
330
216
100
AcDbEntity
  8
DEFAULT_2
  6
HIDDEN
 62
     8
100
AcDbLine
 10
33.9
 20
11.0234375
 30
0.0
 11
33.7125
 21
11.0234375
 31
0.0
  0
LINE
  5
2AE
330
216
100
AcDbEntity
  8
DEFAULT_2
  6
HIDDEN
 62
     8
100
AcDbLine
 10
33.9
 20
11.0234375
 30
0.0
 11
33.9
 21
10.9765625
 31
0.0
  0
LINE
  5
2AF
330
216
100
AcDbEntity
  8
DEFAULT_2
  6
HIDDEN
 62
     8
100
AcDbLine
 10
33.7125
 20
10.9765625
 30
0.0
 11
33.9
 21
10.9765625
 31
0.0
  0
LINE
  5
2B0
330
216
100
AcDbEntity
  8
DEFAULT_2
  6
HIDDEN
 62
     8
100
AcDbLine
 10
33.7125
 20
10.90625
 30
0.0
 11
33.7125
 21
10.9765625
 31
0.0
  0
LWPOLYLINE
  5
2B1
330
216
100
AcDbEntity
  8
DEFAULT_2
  6
HIDDEN
 62
     8
100
AcDbPolyline
 90
        8
 70
     0
 43
0.0
 10
33.525
 20
11.0
 10
33.7125
 20
11.09375
 10
33.7125
 20
11.0234375
 10
33.9
 20
11.0234375
 10
33.9
 20
10.9765625
 10
33.7125
 20
10.9765625
 10
33.7125
 20
10.90625
 10
33.525
 20
11.0
  0
HATCH
  5
2B2
330
216
100
AcDbEntity
  8
DEFAULT_2
  6
HIDDEN
 62
     8
100
AcDbHatch
 10
0.0
 20
0.0
 30
0.0
210
0.0
220
0.0
230
1.0
  2
SOLID
 70
     1
 71
     1
 91
        1
 92
        1
 93
        7
 72
     1
 10
33.525
 20
11.0
 11
33.7125
 21
11.09375
 72
     1
 10
33.7125
 20
11.09375
 11
33.7125
 21
11.0234375
 72
     1
 10
33.7125
 20
11.0234375
 11
33.9
 21
11.0234375
 72
     1
 10
33.9
 20
11.0234375
 11
33.9
 21
10.9765625
 72
     1
 10
33.9
 20
10.9765625
 11
33.7125
 21
10.9765625
 72
     1
 10
33.7125
 20
10.9765625
 11
33.7125
 21
10.90625
 72
     1
 10
33.7125
 20
10.90625
 11
33.525
 21
11.0
 97
        1
330
2B1
 75
     0
 76
     1
 98
        1
 10
0.0
 20
0.0
450
        0
451
        0
460
0.0
461
0.0
452
        0
462
0.0
453
        0
470

  0
ENDBLK
  5
2B3
330
216
100
AcDbEntity
  8
0
  6
ByBlock
 62
     0
100
AcDbBlockEnd
  0
BLOCK
  5
372
330
22C
100
AcDbEntity
  8
___SYMBOL
  6
Continuous
 62
     2
100
AcDbBlockBegin
  2
DELTA_BL5
 70
     0
 10
28.6134686528
 20
2.342089393999999
 30
0.0
  3
DELTA_BL5
  1

  0
TEXT
  5
373
330
22C
100
AcDbEntity
  8
___SYMBOL
  6
Continuous
 62
     2
100
AcDbText
 10
28.5450204776
 20
2.208960983799999
 30
0.0
 40
0.15625
  1
C
 41
0.8
100
AcDbText
  0
LINE
  5
374
330
22C
100
AcDbEntity
  8
___SYMBOL
  6
Continuous
 62
     7
100
AcDbLine
 10
28.8382401644
 20
2.166347362299999
 30
0.0
 11
28.3886971413
 21
2.166347362299999
 31
0.0
  0
LINE
  5
375
330
22C
100
AcDbEntity
  8
___SYMBOL
  6
Continuous
 62
     7
100
AcDbLine
 10
28.3886971413
 20
2.166347362299999
 30
0.0
 11
28.6039174554
 21
2.517831425699999
 31
0.0
  0
LINE
  5
376
330
22C
100
AcDbEntity
  8
___SYMBOL
  6
Continuous
 62
     7
100
AcDbLine
 10
28.6039174554
 20
2.517831425699999
 30
0.0
 11
28.8382401644
 21
2.166347362299999
 31
0.0
  0
ENDBLK
  5
377
330
22C
100
AcDbEntity
  8
0
  6
ByBlock
 62
     0
100
AcDbBlockEnd
  0
BLOCK
  5
378
330
22D
100
AcDbEntity
  8
___SYMBOL
  6
Continuous
 62
     2
100
AcDbBlockBegin
  2
DELTA_BL6
 70
     0
 10
26.9768091881
 20
7.729961434499999
 30
0.0
  3
DELTA_BL6
  1

  0
TEXT
  5
379
330
22D
100
AcDbEntity
  8
___SYMBOL
  6
Continuous
 62
     2
100
AcDbText
 10
26.9083610128
 20
7.5968330242
 30
0.0
 40
0.15625
  1
 
 41
0.8
100
AcDbText
  0
LINE
  5
37A
330
22D
100
AcDbEntity
  8
___SYMBOL
  6
Continuous
 62
     7
100
AcDbLine
 10
27.2015806996
 20
7.5542194028
 30
0.0
 11
26.7520376765
 21
7.5542194028
 31
0.0
  0
LINE
  5
37B
330
22D
100
AcDbEntity
  8
___SYMBOL
  6
Continuous
 62
     7
100
AcDbLine
 10
26.7520376765
 20
7.5542194028
 30
0.0
 11
26.9672579907
 21
7.9057034662
 31
0.0
  0
LINE
  5
37C
330
22D
100
AcDbEntity
  8
___SYMBOL
  6
Continuous
 62
     7
100
AcDbLine
 10
26.9672579907
 20
7.9057034662
 30
0.0
 11
27.2015806996
 21
7.5542194028
 31
0.0
  0
ENDBLK
  5
37D
330
22D
100
AcDbEntity
  8
0
  6
ByBlock
 62
     0
100
AcDbBlockEnd
  0
BLOCK
  5
37E
330
22E
100
AcDbEntity
  8
___SYMBOL
  6
Continuous
 62
     2
100
AcDbBlockBegin
  2
DELTA_BL7
 70
     0
 10
26.976563972
 20
7.2333619115
 30
0.0
  3
DELTA_BL7
  1

  0
TEXT
  5
37F
330
22E
100
AcDbEntity
  8
___SYMBOL
  6
Continuous
 62
     2
100
AcDbText
 10
26.9081157968
 20
7.100233501299999
 30
0.0
 40
0.15625
  1
 
 41
0.8
100
AcDbText
  0
LINE
  5
380
330
22E
100
AcDbEntity
  8
___SYMBOL
  6
Continuous
 62
     7
100
AcDbLine
 10
27.2013354836
 20
7.057619879799999
 30
0.0
 11
26.7517924605
 21
7.057619879799999
 31
0.0
  0
LINE
  5
381
330
22E
100
AcDbEntity
  8
___SYMBOL
  6
Continuous
 62
     7
100
AcDbLine
 10
26.7517924605
 20
7.057619879799999
 30
0.0
 11
26.9670127746
 21
7.409103943199999
 31
0.0
  0
LINE
  5
382
330
22E
100
AcDbEntity
  8
___SYMBOL
  6
Continuous
 62
     7
100
AcDbLine
 10
26.9670127746
 20
7.409103943199999
 30
0.0
 11
27.2013354836
 21
7.057619879799999
 31
0.0
  0
ENDBLK
  5
383
330
22E
100
AcDbEntity
  8
0
  6
ByBlock
 62
     0
100
AcDbBlockEnd
  0
BLOCK
  5
384
330
22F
100
AcDbEntity
  8
___SYMBOL
  6
Continuous
 62
     2
100
AcDbBlockBegin
  2
DELTA_BL8
 70
     0
 10
26.9873865811
 20
5.365184702199999
 30
0.0
  3
DELTA_BL8
  1

  0
TEXT
  5
385
330
22F
100
AcDbEntity
  8
___SYMBOL
  6
Continuous
 62
     2
100
AcDbText
 10
26.9189384059
 20
5.232056292
 30
0.0
 40
0.15625
  1
 
 41
0.8
100
AcDbText
  0
LINE
  5
386
330
22F
100
AcDbEntity
  8
___SYMBOL
  6
Continuous
 62
     7
100
AcDbLine
 10
27.2121580927
 20
5.1894426705
 30
0.0
 11
26.7626150696
 21
5.1894426705
 31
0.0
  0
LINE
  5
387
330
22F
100
AcDbEntity
  8
___SYMBOL
  6
Continuous
 62
     7
100
AcDbLine
 10
26.7626150696
 20
5.1894426705
 30
0.0
 11
26.9778353838
 21
5.5409267339
 31
0.0
  0
LINE
  5
388
330
22F
100
AcDbEntity
  8
___SYMBOL
  6
Continuous
 62
     7
100
AcDbLine
 10
26.9778353838
 20
5.5409267339
 30
0.0
 11
27.2121580927
 21
5.1894426705
 31
0.0
  0
ENDBLK
  5
389
330
22F
100
AcDbEntity
  8
0
  6
ByBlock
 62
     0
100
AcDbBlockEnd
  0
BLOCK
  5
38A
330
230
100
AcDbEntity
  8
0
  6
Continuous
 62
     2
100
AcDbBlockBegin
  2
DELTA_BL9
 70
     0
 10
26.9873865811
 20
4.9205958009
 30
0.0
  3
DELTA_BL9
  1

  0
TEXT
  5
38B
330
230
100
AcDbEntity
  8
0
  6
Continuous
 62
     2
100
AcDbText
 10
26.9189384059
 20
4.787467390599999
 30
0.0
 40
0.15625
  1
 
 41
0.8
100
AcDbText
  0
LINE
  5
38C
330
230
100
AcDbEntity
  8
0
  6
Continuous
 62
     7
100
AcDbLine
 10
27.2121580927
 20
4.744853769199999
 30
0.0
 11
26.7626150696
 21
4.744853769199999
 31
0.0
  0
LINE
  5
38D
330
230
100
AcDbEntity
  8
0
  6
Continuous
 62
     7
100
AcDbLine
 10
26.7626150696
 20
4.744853769199999
 30
0.0
 11
26.9778353838
 21
5.096337832599999
 31
0.0
  0
LINE
  5
38E
330
230
100
AcDbEntity
  8
0
  6
Continuous
 62
     7
100
AcDbLine
 10
26.9778353838
 20
5.096337832599999
 30
0.0
 11
27.2121580927
 21
4.744853769199999
 31
0.0
  0
ENDBLK
  5
38F
330
230
100
AcDbEntity
  8
0
  6
ByBlock
 62
     0
100
AcDbBlockEnd
  0
BLOCK
  5
390
330
231
100
AcDbEntity
  8
0
  6
Continuous
 62
     2
100
AcDbBlockBegin
  2
DELTA_BL10
 70
     0
 10
26.9873865811
 20
4.476006899499999
 30
0.0
  3
DELTA_BL10
  1

  0
TEXT
  5
391
330
231
100
AcDbEntity
  8
0
  6
Continuous
 62
     2
100
AcDbText
 10
26.9189384059
 20
4.3428784893
 30
0.0
 40
0.15625
  1
 
 41
0.8
100
AcDbText
  0
LINE
  5
392
330
231
100
AcDbEntity
  8
0
  6
Continuous
 62
     7
100
AcDbLine
 10
27.2121580927
 20
4.3002648678
 30
0.0
 11
26.7626150696
 21
4.3002648678
 31
0.0
  0
LINE
  5
393
330
231
100
AcDbEntity
  8
0
  6
Continuous
 62
     7
100
AcDbLine
 10
26.7626150696
 20
4.3002648678
 30
0.0
 11
26.9778353838
 21
4.6517489312
 31
0.0
  0
LINE
  5
394
330
231
100
AcDbEntity
  8
0
  6
Continuous
 62
     7
100
AcDbLine
 10
26.9778353838
 20
4.6517489312
 30
0.0
 11
27.2121580927
 21
4.3002648678
 31
0.0
  0
ENDBLK
  5
395
330
231
100
AcDbEntity
  8
0
  6
ByBlock
 62
     0
100
AcDbBlockEnd
  0
BLOCK
  5
396
330
232
100
AcDbEntity
  8
___SYMBOL
  6
Continuous
 62
     2
100
AcDbBlockBegin
  2
REVISION_BL11
 70
     0
 10
14.3097100182
 20
10.6051462536
 30
0.0
  3
REVISION_BL11
  1

  0
TEXT
  5
397
330
232
100
AcDbEntity
  8
___SYMBOL
  6
Continuous
 62
     2
100
AcDbText
 10
14.1910637189
 20
10.5260720464
 30
0.0
 40
0.15625
  1
B1
 41
0.8
100
AcDbText
  0
LINE
  5
398
330
232
100
AcDbEntity
  8
___SYMBOL
  6
Continuous
 62
     7
100
AcDbLine
 10
14.1707637346
 20
10.4901462536
 30
0.0
 11
14.1122100182
 21
10.54869997
 31
0.0
  0
LINE
  5
399
330
232
100
AcDbEntity
  8
___SYMBOL
  6
Continuous
 62
     7
100
AcDbLine
 10
14.1122100182
 20
10.6615925373
 30
0.0
 11
14.1122100182
 21
10.54869997
 31
0.0
  0
LINE
  5
39A
330
232
100
AcDbEntity
  8
___SYMBOL
  6
Continuous
 62
     7
100
AcDbLine
 10
14.1707637346
 20
10.7201462536
 30
0.0
 11
14.1122100182
 21
10.6615925373
 31
0.0
  0
LINE
  5
39B
330
232
100
AcDbEntity
  8
___SYMBOL
  6
Continuous
 62
     7
100
AcDbLine
 10
14.4486563019
 20
10.4901462536
 30
0.0
 11
14.5072100182
 21
10.54869997
 31
0.0
  0
LINE
  5
39C
330
232
100
AcDbEntity
  8
___SYMBOL
  6
Continuous
 62
     7
100
AcDbLine
 10
14.5072100182
 20
10.6615925373
 30
0.0
 11
14.5072100182
 21
10.54869997
 31
0.0
  0
LINE
  5
39D
330
232
100
AcDbEntity
  8
___SYMBOL
  6
Continuous
 62
     7
100
AcDbLine
 10
14.4486563019
 20
10.7201462536
 30
0.0
 11
14.5072100182
 21
10.6615925373
 31
0.0
  0
LINE
  5
39E
330
232
100
AcDbEntity
  8
___SYMBOL
  6
Continuous
 62
     7
100
AcDbLine
 10
14.1707637346
 20
10.7201462536
 30
0.0
 11
14.4486563019
 21
10.7201462536
 31
0.0
  0
LINE
  5
39F
330
232
100
AcDbEntity
  8
___SYMBOL
  6
Continuous
 62
     7
100
AcDbLine
 10
14.4486563019
 20
10.4901462536
 30
0.0
 11
14.1707637346
 21
10.4901462536
 31
0.0
  0
ENDBLK
  5
3A0
330
232
100
AcDbEntity
  8
0
  6
ByBlock
 62
     0
100
AcDbBlockEnd
  0
BLOCK
  5
3A1
330
233
100
AcDbEntity
  8
___SYMBOL
  6
Continuous
 62
     2
100
AcDbBlockBegin
  2
REVISION_BL12
 70
     0
 10
15.1492378779
 20
7.928961081799999
 30
0.0
  3
REVISION_BL12
  1

  0
TEXT
  5
3A2
330
233
100
AcDbEntity
  8
___SYMBOL
  6
Continuous
 62
     2
100
AcDbText
 10
15.0305915786
 20
7.8498868746
 30
0.0
 40
0.15625
  1
B2
 41
0.8
100
AcDbText
  0
LINE
  5
3A3
330
233
100
AcDbEntity
  8
___SYMBOL
  6
Continuous
 62
     7
100
AcDbLine
 10
15.0102915943
 20
7.813961081799999
 30
0.0
 11
14.9517378779
 21
7.8725147982
 31
0.0
  0
LINE
  5
3A4
330
233
100
AcDbEntity
  8
___SYMBOL
  6
Continuous
 62
     7
100
AcDbLine
 10
14.9517378779
 20
7.9854073655
 30
0.0
 11
14.9517378779
 21
7.8725147982
 31
0.0
  0
LINE
  5
3A5
330
233
100
AcDbEntity
  8
___SYMBOL
  6
Continuous
 62
     7
100
AcDbLine
 10
15.0102915943
 20
8.043961081799999
 30
0.0
 11
14.9517378779
 21
7.9854073655
 31
0.0
  0
LINE
  5
3A6
330
233
100
AcDbEntity
  8
___SYMBOL
  6
Continuous
 62
     7
100
AcDbLine
 10
15.2881841616
 20
7.813961081799999
 30
0.0
 11
15.3467378779
 21
7.8725147982
 31
0.0
  0
LINE
  5
3A7
330
233
100
AcDbEntity
  8
___SYMBOL
  6
Continuous
 62
     7
100
AcDbLine
 10
15.3467378779
 20
7.9854073655
 30
0.0
 11
15.3467378779
 21
7.8725147982
 31
0.0
  0
LINE
  5
3A8
330
233
100
AcDbEntity
  8
___SYMBOL
  6
Continuous
 62
     7
100
AcDbLine
 10
15.2881841616
 20
8.043961081799999
 30
0.0
 11
15.3467378779
 21
7.9854073655
 31
0.0
  0
LINE
  5
3A9
330
233
100
AcDbEntity
  8
___SYMBOL
  6
Continuous
 62
     7
100
AcDbLine
 10
15.0102915943
 20
8.043961081799999
 30
0.0
 11
15.2881841616
 21
8.043961081799999
 31
0.0
  0
LINE
  5
3AA
330
233
100
AcDbEntity
  8
___SYMBOL
  6
Continuous
 62
     7
100
AcDbLine
 10
15.2881841616
 20
7.813961081799999
 30
0.0
 11
15.0102915943
 21
7.813961081799999
 31
0.0
  0
ENDBLK
  5
3AB
330
233
100
AcDbEntity
  8
0
  6
ByBlock
 62
     0
100
AcDbBlockEnd
  0
BLOCK
  5
3AC
330
234
100
AcDbEntity
  8
___SYMBOL
  6
Continuous
 62
     2
100
AcDbBlockBegin
  2
REVISION_BL13
 70
     0
 10
10.4257512715
 20
2.024366513099999
 30
0.0
  3
REVISION_BL13
  1

  0
TEXT
  5
3AD
330
234
100
AcDbEntity
  8
___SYMBOL
  6
Continuous
 62
     2
100
AcDbText
 10
10.3071049721
 20
1.945292305799999
 30
0.0
 40
0.15625
  1
B3
 41
0.8
100
AcDbText
  0
LINE
  5
3AE
330
234
100
AcDbEntity
  8
___SYMBOL
  6
Continuous
 62
     7
100
AcDbLine
 10
10.2868049878
 20
1.909366513099999
 30
0.0
 11
10.2282512715
 21
1.967920229499999
 31
0.0
  0
LINE
  5
3AF
330
234
100
AcDbEntity
  8
___SYMBOL
  6
Continuous
 62
     7
100
AcDbLine
 10
10.2282512715
 20
2.0808127968
 30
0.0
 11
10.2282512715
 21
1.967920229499999
 31
0.0
  0
LINE
  5
3B0
330
234
100
AcDbEntity
  8
___SYMBOL
  6
Continuous
 62
     7
100
AcDbLine
 10
10.2868049878
 20
2.1393665131
 30
0.0
 11
10.2282512715
 21
2.0808127968
 31
0.0
  0
LINE
  5
3B1
330
234
100
AcDbEntity
  8
___SYMBOL
  6
Continuous
 62
     7
100
AcDbLine
 10
10.5646975551
 20
1.909366513099999
 30
0.0
 11
10.6232512715
 21
1.967920229499999
 31
0.0
  0
LINE
  5
3B2
330
234
100
AcDbEntity
  8
___SYMBOL
  6
Continuous
 62
     7
100
AcDbLine
 10
10.6232512715
 20
2.0808127968
 30
0.0
 11
10.6232512715
 21
1.967920229499999
 31
0.0
  0
LINE
  5
3B3
330
234
100
AcDbEntity
  8
___SYMBOL
  6
Continuous
 62
     7
100
AcDbLine
 10
10.5646975551
 20
2.1393665131
 30
0.0
 11
10.6232512715
 21
2.0808127968
 31
0.0
  0
LINE
  5
3B4
330
234
100
AcDbEntity
  8
___SYMBOL
  6
Continuous
 62
     7
100
AcDbLine
 10
10.2868049878
 20
2.1393665131
 30
0.0
 11
10.5646975551
 21
2.1393665131
 31
0.0
  0
LINE
  5
3B5
330
234
100
AcDbEntity
  8
___SYMBOL
  6
Continuous
 62
     7
100
AcDbLine
 10
10.5646975551
 20
1.909366513099999
 30
0.0
 11
10.2868049878
 21
1.909366513099999
 31
0.0
  0
ENDBLK
  5
3B6
330
234
100
AcDbEntity
  8
0
  6
ByBlock
 62
     0
100
AcDbBlockEnd
  0
BLOCK
  5
3B7
330
235
100
AcDbEntity
  8
___SYMBOL
  6
Continuous
 62
     2
100
AcDbBlockBegin
  2
REVISION_BL14
 70
     0
 10
8.323645351199999
 20
1.4869172921
 30
0.0
  3
REVISION_BL14
  1

  0
TEXT
  5
3B8
330
235
100
AcDbEntity
  8
___SYMBOL
  6
Continuous
 62
     2
100
AcDbText
 10
8.204999051799999
 20
1.4078430848
 30
0.0
 40
0.15625
  1
B4
 41
0.8
100
AcDbText
  0
LINE
  5
3B9
330
235
100
AcDbEntity
  8
___SYMBOL
  6
Continuous
 62
     7
100
AcDbLine
 10
8.1846990675
 20
1.3719172921
 30
0.0
 11
8.126145351199999
 21
1.4304710084
 31
0.0
  0
LINE
  5
3BA
330
235
100
AcDbEntity
  8
___SYMBOL
  6
Continuous
 62
     7
100
AcDbLine
 10
8.126145351199999
 20
1.543363575699999
 30
0.0
 11
8.126145351199999
 21
1.4304710084
 31
0.0
  0
LINE
  5
3BB
330
235
100
AcDbEntity
  8
___SYMBOL
  6
Continuous
 62
     7
100
AcDbLine
 10
8.1846990675
 20
1.6019172921
 30
0.0
 11
8.126145351199999
 21
1.543363575699999
 31
0.0
  0
LINE
  5
3BC
330
235
100
AcDbEntity
  8
___SYMBOL
  6
Continuous
 62
     7
100
AcDbLine
 10
8.4625916348
 20
1.3719172921
 30
0.0
 11
8.521145351199999
 21
1.4304710084
 31
0.0
  0
LINE
  5
3BD
330
235
100
AcDbEntity
  8
___SYMBOL
  6
Continuous
 62
     7
100
AcDbLine
 10
8.521145351199999
 20
1.543363575699999
 30
0.0
 11
8.521145351199999
 21
1.4304710084
 31
0.0
  0
LINE
  5
3BE
330
235
100
AcDbEntity
  8
___SYMBOL
  6
Continuous
 62
     7
100
AcDbLine
 10
8.4625916348
 20
1.6019172921
 30
0.0
 11
8.521145351199999
 21
1.543363575699999
 31
0.0
  0
LINE
  5
3BF
330
235
100
AcDbEntity
  8
___SYMBOL
  6
Continuous
 62
     7
100
AcDbLine
 10
8.1846990675
 20
1.6019172921
 30
0.0
 11
8.4625916348
 21
1.6019172921
 31
0.0
  0
LINE
  5
3C0
330
235
100
AcDbEntity
  8
___SYMBOL
  6
Continuous
 62
     7
100
AcDbLine
 10
8.4625916348
 20
1.3719172921
 30
0.0
 11
8.1846990675
 21
1.3719172921
 31
0.0
  0
ENDBLK
  5
3C1
330
235
100
AcDbEntity
  8
0
  6
ByBlock
 62
     0
100
AcDbBlockEnd
  0
BLOCK
  5
3C2
330
236
100
AcDbEntity
  8
___SYMBOL
  6
Continuous
 62
     2
100
AcDbBlockBegin
  2
CHARACTERISTIC_BL15
 70
     0
 10
9.0432789211
 20
14.7628078572
 30
0.0
  3
CHARACTERISTIC_BL15
  1

  0
TEXT
  5
3C3
330
236
100
AcDbEntity
  8
___SYMBOL
  6
Continuous
 62
     2
100
AcDbText
 10
8.977973585999999
 20
14.8239614701
 30
0.0
 40
0.15625
  1
1
 41
0.8
100
AcDbText
  0
LINE
  5
3C4
330
236
100
AcDbEntity
  8
___SYMBOL
  6
Continuous
 62
     7
100
AcDbLine
 10
8.9082788354
 20
15.0328080284
 30
0.0
 11
8.9082788354
 21
14.4928076859
 31
0.0
  0
LINE
  5
3C5
330
236
100
AcDbEntity
  8
___SYMBOL
  6
Continuous
 62
     7
100
AcDbLine
 10
8.9082788354
 20
14.4928076859
 30
0.0
 11
9.1782790067
 21
14.4928076859
 31
0.0
  0
LINE
  5
3C6
330
236
100
AcDbEntity
  8
___SYMBOL
  6
Continuous
 62
     7
100
AcDbLine
 10
8.9082788354
 20
14.7628078572
 30
0.0
 11
9.1782790067
 21
14.7628078572
 31
0.0
  0
LINE
  5
3C7
330
236
100
AcDbEntity
  8
___SYMBOL
  6
Continuous
 62
     7
100
AcDbLine
 10
8.9082788354
 20
15.0328080284
 30
0.0
 11
9.1782790067
 21
15.0328080284
 31
0.0
  0
LINE
  5
3C8
330
236
100
AcDbEntity
  8
___SYMBOL
  6
Continuous
 62
     7
100
AcDbLine
 10
9.1782790067
 20
14.4928076859
 30
0.0
 11
9.1782790067
 21
15.0328080284
 31
0.0
  0
ENDBLK
  5
3C9
330
236
100
AcDbEntity
  8
0
  6
ByBlock
 62
     0
100
AcDbBlockEnd
  0
BLOCK
  5
3CA
330
237
100
AcDbEntity
  8
___SYMBOL
  6
Continuous
 62
     2
100
AcDbBlockBegin
  2
CHARACTERISTIC_BL16
 70
     0
 10
17.1791408301
 20
8.263909764499999
 30
0.0
  3
CHARACTERISTIC_BL16
  1

  0
TEXT
  5
3CB
330
237
100
AcDbEntity
  8
___SYMBOL
  6
Continuous
 62
     2
100
AcDbText
 10
17.1138354951
 20
8.325063377299999
 30
0.0
 40
0.15625
  1
2
 41
0.8
100
AcDbText
  0
LINE
  5
3CC
330
237
100
AcDbEntity
  8
___SYMBOL
  6
Continuous
 62
     7
100
AcDbLine
 10
17.0441407445
 20
8.5339099357
 30
0.0
 11
17.0441407445
 21
7.993909593199999
 31
0.0
  0
LINE
  5
3CD
330
237
100
AcDbEntity
  8
___SYMBOL
  6
Continuous
 62
     7
100
AcDbLine
 10
17.0441407445
 20
7.993909593199999
 30
0.0
 11
17.3141409157
 21
7.993909593199999
 31
0.0
  0
LINE
  5
3CE
330
237
100
AcDbEntity
  8
___SYMBOL
  6
Continuous
 62
     7
100
AcDbLine
 10
17.0441407445
 20
8.263909764499999
 30
0.0
 11
17.3141409157
 21
8.263909764499999
 31
0.0
  0
LINE
  5
3CF
330
237
100
AcDbEntity
  8
___SYMBOL
  6
Continuous
 62
     7
100
AcDbLine
 10
17.0441407445
 20
8.5339099357
 30
0.0
 11
17.3141409157
 21
8.5339099357
 31
0.0
  0
LINE
  5
3D0
330
237
100
AcDbEntity
  8
___SYMBOL
  6
Continuous
 62
     7
100
AcDbLine
 10
17.3141409157
 20
7.993909593199999
 30
0.0
 11
17.3141409157
 21
8.5339099357
 31
0.0
  0
ENDBLK
  5
3D1
330
237
100
AcDbEntity
  8
0
  6
ByBlock
 62
     0
100
AcDbBlockEnd
  0
BLOCK
  5
3D2
330
211
100
AcDbEntity
  8
0
100
AcDbBlockBegin
  2
_FILLED
 70
     0
 10
0.0
 20
0.0
 30
0.0
  3
_FILLED
  1

  0
SOLID
  5
3D3
330
211
100
AcDbEntity
  8
0
  6
ByBlock
 62
     0
100
AcDbTrace
 10
0.0
 20
0.0
 30
0.0
 11
-1.0
 21
0.1666666667
 31
0.0
 12
-1.0
 22
-0.1666666667
 32
0.0
 13
-1.0
 23
-0.1666666667
 33
0.0
  0
ENDBLK
  5
3D4
330
211
100
AcDbEntity
  8
0
  6
ByBlock
 62
     0
100
AcDbBlockEnd
  0
BLOCK
  5
709
330
707
100
AcDbEntity
  8
0
370
     0
100
AcDbBlockBegin
  2
GENAXEH
 70
     0
 10
0.0
 20
0.0
 30
0.0
  3
GENAXEH
  1

  0
LINE
  5
708
330
707
100
AcDbEntity
  8
0
100
AcDbLine
 10
-1.0
 20
0.0
 30
0.0
 11
1.0
 21
0.0
 31
0.0
  0
ENDBLK
  5
70A
330
707
100
AcDbEntity
  8
0
370
     0
100
AcDbBlockEnd
  0
ENDSEC
  0
SECTION
  2
ENTITIES
  0
TEXT
  5
448
330
1F
100
AcDbEntity
  8
0
  6
Continuous
 62
     2
100
AcDbText
 10
28.3216668959
 20
2.1375000314
 30
0.0
 40
0.1
  1
 
 41
0.8
100
AcDbText
  0
LINE
  5
566
330
1F
100
AcDbEntity
  8
0
  6
Continuous
 62
     7
100
AcDbLine
 10
20.34614130560133
 20
11.34413869635206
 30
0.0
 11
20.33950635940133
 21
11.53413869635206
 31
0.0
  0
LINE
  5
575
330
1F
100
AcDbEntity
  8
0
  6
Continuous
 62
     7
100
AcDbLine
 10
20.36948808420133
 20
11.56518568125206
 30
0.0
 11
20.81456112940133
 21
11.56518568125206
 31
0.0
  0
LINE
  5
576
330
1F
100
AcDbEntity
  8
0
  6
Continuous
 62
     7
100
AcDbLine
 10
20.82221704810133
 20
11.56518568125206
 30
0.0
 11
28.33630524790133
 21
11.56518568125205
 31
0.0
  0
LINE
  5
577
330
1F
100
AcDbEntity
  8
0
  6
Continuous
 62
     7
100
AcDbLine
 10
20.81456116510133
 20
11.56518574555206
 30
0.0
 11
20.81571169670134
 21
11.56518011875206
 31
0.0
  0
LINE
  5
57A
330
1F
100
AcDbEntity
  8
0
  6
Continuous
 62
     7
100
AcDbLine
 10
20.37612303040133
 20
11.31518568125206
 30
0.0
 11
20.58771320580133
 21
11.31518568125206
 31
0.0
  0
LINE
  5
57B
330
1F
100
AcDbEntity
  8
0
  6
Continuous
 62
     7
100
AcDbLine
 10
28.08295413570134
 20
11.31518568125206
 30
0.0
 11
28.32967029860134
 21
11.31518568125206
 31
0.0
  0
LINE
  5
590
330
1F
100
AcDbEntity
  8
0
  6
Continuous
 62
     7
100
AcDbLine
 10
24.37234045720134
 20
7.309520557952062
 30
0.0
 11
24.36990638890133
 21
7.337342086752062
 31
0.0
  0
LINE
  5
595
330
1F
100
AcDbEntity
  8
0
  6
Continuous
 62
     7
100
AcDbLine
 10
27.90632472220134
 20
11.15485154845206
 30
0.0
 11
27.85403158630133
 21
11.12466009235206
 31
0.0
  0
LINE
  5
5AD
330
1F
100
AcDbEntity
  8
0
  6
Continuous
 62
     2
100
AcDbLine
 10
24.37358647730134
 20
7.301617658052062
 30
0.0
 11
24.42353175010133
 21
7.25167238525206
 31
0.0
  0
LINE
  5
5AE
330
1F
100
AcDbEntity
  8
0
  6
Continuous
 62
     7
100
AcDbLine
 10
25.72772271540133
 20
7.309520557952062
 30
0.0
 11
25.77877588140133
 21
7.893060916252061
 31
0.0
  0
LINE
  5
5B3
330
1F
100
AcDbEntity
  8
0
  6
Continuous
 62
     7
100
AcDbLine
 10
24.43709311260133
 20
7.250185681252062
 30
0.0
 11
25.66297006000134
 21
7.250185681252062
 31
0.0
  0
LINE
  5
5BA
330
1F
100
AcDbEntity
  8
0
  6
Continuous
 62
     7
100
AcDbLine
 10
28.36628700560133
 20
11.53413869685206
 30
0.0
 11
28.35965205930133
 21
11.34413869685206
 31
0.0
  0
ARC
  5
5C8
330
1F
100
AcDbEntity
  8
0
  6
Continuous
 62
     7
100
AcDbCircle
 10
20.58771320580133
 20
11.19018568125206
 30
0.0
 40
0.125
100
AcDbArc
 50
5.818470602299905
 51
90.0
  0
ARC
  5
5C9
330
1F
100
AcDbEntity
  8
0
  6
Continuous
 62
     7
100
AcDbCircle
 10
25.90330013730133
 20
7.882165987452058
 30
0.0
 40
0.124999994
100
AcDbArc
 50
105.1937436376
 51
174.9999993679999
  0
ARC
  5
5CA
330
1F
100
AcDbEntity
  8
0
  6
Continuous
 62
     7
100
AcDbCircle
 10
24.24538230640133
 20
7.326447122852062
 30
0.0
 40
0.124999968
100
AcDbArc
 50
5.000000570499911
 51
83.23662940199996
  0
ARC
  5
5CB
330
1F
100
AcDbEntity
  8
0
  6
Continuous
 62
     7
100
AcDbCircle
 10
24.43709311260133
 20
7.31518568125206
 30
0.0
 40
0.065
100
AcDbArc
 50
185.0
 51
270.0
  0
ARC
  5
5CC
330
1F
100
AcDbEntity
  8
0
  6
Continuous
 62
     7
100
AcDbCircle
 10
25.66297006000134
 20
7.31518568125206
 30
0.0
 40
0.065
100
AcDbArc
 50
270.0
 51
355.0
  0
ARC
  5
5CD
330
1F
100
AcDbEntity
  8
0
  6
Continuous
 62
     7
100
AcDbCircle
 10
20.36948808420133
 20
11.53518568125206
 30
0.0
 40
0.03
100
AcDbArc
 50
90.0
 51
182.0
  0
ARC
  5
5CE
330
1F
100
AcDbEntity
  8
0
  6
Continuous
 62
     7
100
AcDbCircle
 10
20.37612303040133
 20
11.34518568125206
 30
0.0
 40
0.03
100
AcDbArc
 50
182.0
 51
270.0
  0
SPLINE
  5
62F
330
1F
100
AcDbEntity
  8
0
  6
Continuous
 62
     7
100
AcDbSpline
210
0.0
220
0.0
230
1.0
 70
     8
 71
     3
 72
    33
 73
    29
 74
    27
 42
0.0000000001
 43
0.0000000001
 44
0.0000000001
 12
-0.1348776566939363
 22
-0.9908622597136055
 32
0.0
 13
-0.9650453359135362
 23
-0.2620830014165933
 33
0.0
 40
0.0
 40
0.0
 40
0.0
 40
0.0
 40
0.1393420183369498
 40
0.2787083728844866
 40
0.4179248647461467
 40
0.5571597870546248
 40
0.6972978517229063
 40
0.8393164583932682
 40
0.9838161928954093
 40
1.130830286601745
 40
1.279115606363441
 40
1.427593966069544
 40
1.575372196288062
 40
1.722115028798679
 40
1.867541528932479
 40
2.009074023187018
 40
2.142156899088969
 40
2.2657856473404
 40
2.381786936313379
 40
2.49001229951664
 40
2.58756494467112
 40
2.672666370712949
 40
2.747753336911834
 40
2.817049202663528
 40
2.885086572543914
 40
2.953971204501112
 40
3.023321779879058
 40
3.092221479968574
 40
3.092221479968574
 40
3.092221479968574
 40
3.092221479968574
 10
27.46893690950134
 20
10.43263185275206
 30
0.0
 10
27.46267220119724
 20
10.38660893703126
 30
0.0
 10
27.44945107617618
 20
10.29464755675699
 30
0.0
 10
27.42755212358714
 20
10.15706610061459
 30
0.0
 10
27.4035125958234
 20
10.01987760213329
 30
0.0
 10
27.37692622133677
 20
9.882893778770775
 30
0.0
 10
27.34681040457394
 20
9.745678578650856
 30
0.0
 10
27.31209154662017
 20
9.607734730107077
 30
0.0
 10
27.2715665837503
 20
9.468980225704274
 30
0.0
 10
27.22419089748612
 20
9.330185714971205
 30
0.0
 10
27.16894523388941
 20
9.192870067793077
 30
0.0
 10
27.10495877370672
 20
9.059097091585757
 30
0.0
 10
27.03240373793172
 20
8.930351896566158
 30
0.0
 10
26.95168643166076
 20
8.807778183692871
 30
0.0
 10
26.86419540876416
 20
8.692557203945883
 30
0.0
 10
26.77230594992655
 20
8.586784062707447
 30
0.0
 10
26.67906097817103
 20
8.492184117538435
 30
0.0
 10
26.58678751408862
 20
8.408897790830685
 30
0.0
 10
26.49662428743664
 20
8.335908775583808
 30
0.0
 10
26.40998373579343
 20
8.272610642689118
 30
0.0
 10
26.32923673289172
 20
8.218887365701698
 30
0.0
 10
26.25598543511547
 20
8.173961064062131
 30
0.0
 10
26.1894354065948
 20
8.136215060428668
 30
0.0
 10
26.12669768270237
 20
8.103361933297541
 30
0.0
 10
26.06474459035448
 20
8.073544954570472
 30
0.0
 10
26.00155953522262
 20
8.046365465473229
 30
0.0
 10
25.93680583410821
 20
8.022309905234681
 30
0.0
 10
25.89270593927374
 20
8.008816436584112
 30
0.0
 10
25.87054216120133
 20
8.002797289852058
 30
0.0
 11
27.46893690950134
 21
10.43263185275206
 31
0.0
 11
27.44910654430134
 21
10.29470812495205
 31
0.0
 11
27.42718613970133
 21
10.15707645475205
 31
0.0
 11
27.40309754610134
 21
10.01995982095206
 31
0.0
 11
27.37643168270134
 21
9.883302236752058
 31
0.0
 11
27.34625527240134
 21
9.74645172915206
 31
0.0
 11
27.31144153960133
 21
9.608766259152059
 31
0.0
 11
27.27078129480134
 21
9.470105097452059
 31
0.0
 11
27.22310055400134
 21
9.331037880952056
 31
0.0
 11
27.16752824040133
 21
9.193559686252054
 31
0.0
 11
27.10338136210133
 21
9.059652997452054
 31
0.0
 11
27.03077424520134
 21
8.930941646352057
 31
0.0
 11
26.95009908680134
 21
8.808365230552059
 31
0.0
 11
26.86215462460133
 21
8.692543650052055
 31
0.0
 11
26.76933578970134
 21
8.585697448352053
 31
0.0
 11
26.67592066820134
 21
8.490909965352056
 31
0.0
 11
26.58415770370134
 21
8.408062963352058
 31
0.0
 11
26.49400523710133
 21
8.335064115352054
 31
0.0
 11
26.40663526360134
 21
8.271195367352056
 31
0.0
 11
26.32543599020133
 21
8.217128773452056
 31
0.0
 11
26.25287735960134
 21
8.172659707352057
 31
0.0
 11
26.18754712180134
 21
8.135646027152059
 31
0.0
 11
26.12614842870133
 21
8.103519441652057
 31
0.0
 11
26.06479990400134
 21
8.074101042352058
 31
0.0
 11
26.00148608180133
 21
8.046963385152057
 31
0.0
 11
25.93644328570134
 21
8.022902275852054
 31
0.0
 11
25.87054216120133
 21
8.002797289852058
 31
0.0
  0
SPLINE
  5
63A
330
1F
100
AcDbEntity
  8
0
  6
Continuous
 62
     7
100
AcDbSpline
210
0.0
220
0.0
230
1.0
 70
     8
 71
     3
 72
    18
 73
    14
 74
    12
 42
0.0000000001
 43
0.0000000001
 44
0.0000000001
 12
-0.8660254280108357
 22
-0.4999999580386472
 32
0.0
 13
-0.0871321905963317
 23
-0.9961967583574464
 33
0.0
 40
0.0
 40
0.0
 40
0.0
 40
0.0
 40
0.0639645985184553
 40
0.1285747682238008
 40
0.1610918827212056
 40
0.1936515197102317
 40
0.226247177946734
 40
0.2588649772874041
 40
0.2915078197681924
 40
0.3241423742685352
 40
0.3893526212604346
 40
0.4544123930112948
 40
0.519055412539499
 40
0.519055412539499
 40
0.519055412539499
 40
0.519055412539499
 10
27.85403162970134
 20
11.12466011745205
 30
0.0
 10
27.83556664009817
 20
11.11399935192699
 30
0.0
 10
27.79909787772614
 20
11.09141028152003
 30
0.0
 10
27.75600780044529
 20
11.05919496060498
 30
0.0
 10
27.72377771784781
 20
11.03034135010843
 30
0.0
 10
27.70125497653741
 20
11.00677065792751
 30
0.0
 10
27.68111306735723
 20
10.98107804752127
 30
0.0
 10
27.66370493024437
 20
10.95341863963421
 30
0.0
 10
27.64942379233047
 20
10.92400784927089
 30
0.0
 10
27.63473053705885
 20
10.88296518005612
 30
0.0
 10
27.62491434189767
 20
10.82930356470125
 30
0.0
 10
27.61849298437875
 20
10.76467589939037
 30
0.0
 10
27.61507992806742
 20
10.7215687324202
 30
0.0
 10
27.61320243210133
 20
10.70010301025205
 30
0.0
 11
27.85403162970134
 21
11.12466011745205
 31
0.0
 11
27.79979493870134
 21
11.09075066135206
 31
0.0
 11
27.74823842650133
 21
11.05180967935206
 31
0.0
 11
27.72407957070133
 21
11.03004474375206
 31
0.0
 11
27.70166335050133
 21
11.00643027715206
 31
0.0
 11
27.68157563370134
 21
10.98076004985205
 31
0.0
 11
27.66423128170134
 21
10.95313588855206
 31
0.0
 11
27.64996581690134
 21
10.92377517195205
 31
0.0
 11
27.63896841120134
 21
10.89304943005205
 31
0.0
 11
27.62579683410134
 21
10.82918327415205
 31
0.0
 11
27.61869563020134
 21
10.76451220795205
 31
0.0
 11
27.61320243210133
 21
10.70010301025205
 31
0.0
  0
SPLINE
  5
645
330
1F
100
AcDbEntity
  8
0
  6
Continuous
 62
     7
100
AcDbSpline
210
0.0
220
0.0
230
1.0
 70
     8
 71
     3
 72
    15
 73
    11
 74
     9
 42
0.0000000001
 43
0.0000000001
 44
0.0000000001
 12
-1.0
 22
-0.0000000100512809
 32
0.0
 13
-0.2916764688264451
 23
-0.9565170346276829
 33
0.0
 40
0.0
 40
0.0
 40
0.0
 40
0.0
 40
0.019852554591678
 40
0.0397614106384278
 40
0.0596764418131211
 40
0.0795971440034203
 40
0.0995117834890809
 40
0.1194203577487502
 40
0.139324946835859
 40
0.1591836882275257
 40
0.1591836882275257
 40
0.1591836882275257
 40
0.1591836882275257
 10
28.08295413440134
 20
11.31518568215206
 30
0.0
 10
28.07633661620411
 20
11.31518568208554
 30
0.0
 10
28.06305873853982
 20
11.31412876594956
 30
0.0
 10
28.04365263949288
 20
11.30940535578375
 30
0.0
 10
28.02521661609381
 20
11.30165090967464
 30
0.0
 10
28.00824597877091
 20
11.2910656179066
 30
0.0
 10
27.99317349845753
 20
11.27792094670561
 30
0.0
 10
27.98038266617208
 20
11.26255259730224
 30
0.0
 10
27.97020457115945
 20
11.24536972172687
 30
0.0
 10
27.96532020455616
 20
11.23297696152786
 30
0.0
 10
27.96338942870134
 20
11.22664522005206
 30
0.0
 11
28.08295413440134
 21
11.31518568215206
 31
0.0
 11
28.06316427360134
 21
11.31360918815205
 31
0.0
 11
28.04381994480134
 21
11.30890180115206
 31
0.0
 11
28.02546283810134
 21
11.30118007205206
 31
0.0
 11
28.00856045500134
 21
11.29063759505205
 31
0.0
 11
27.99355172570133
 21
11.27754825165206
 31
0.0
 11
27.98081570820134
 21
11.26224644825205
 31
0.0
 11
27.97067233840134
 21
11.24512030695206
 31
0.0
 11
27.96338942870134
 21
11.22664522005206
 31
0.0
  0
SPLINE
  5
646
330
1F
100
AcDbEntity
  8
0
  6
Continuous
 62
     7
100
AcDbSpline
210
0.0
220
0.0
230
1.0
 70
     8
 71
     3
 72
    14
 73
    10
 74
     8
 42
0.0000000001
 43
0.0000000001
 44
0.0000000001
 12
-0.2916764061170159
 22
-0.9565170537500426
 32
0.0
 13
-0.8660253432838873
 23
-0.5000001047900144
 33
0.0
 40
0.0
 40
0.0
 40
0.0
 40
0.0
 40
0.0134115198471008
 40
0.0268240815570443
 40
0.0402348793980769
 40
0.0536441783849221
 40
0.0670524584220787
 40
0.0804602016498161
 40
0.0938573379086238
 40
0.0938573379086238
 40
0.0938573379086238
 40
0.0938573379086238
 10
27.96338954310134
 20
11.22664525785206
 30
0.0
 10
27.96208560179815
 20
11.22236914203524
 30
0.0
 10
27.95901575727493
 20
11.21394965136776
 30
0.0
 10
27.9530867819212
 20
11.20189238423996
 30
0.0
 10
27.94589991159429
 20
11.19053887672369
 30
0.0
 10
27.93753929673837
 20
11.18002217894209
 30
0.0
 10
27.92810058313575
 20
11.17046195996049
 30
0.0
 10
27.91769673157683
 20
11.16197107697227
 30
0.0
 10
27.91019228364385
 20
11.15708443686316
 30
0.0
 10
27.90632486380133
 20
11.15485158035206
 30
0.0
 11
27.96338954310134
 21
11.22664525785206
 31
0.0
 11
27.95879516170134
 21
11.21404523705205
 31
0.0
 11
27.95287677830133
 21
11.20200906035206
 31
0.0
 11
27.94570386180133
 21
11.19067774235205
 31
0.0
 11
27.93735927770133
 21
11.18018120885206
 31
0.0
 11
27.92793907510133
 21
11.17063962845205
 31
0.0
 11
27.91755148610133
 21
11.16216227195206
 31
0.0
 11
27.90632486380133
 21
11.15485158035206
 31
0.0
  0
SPLINE
  5
647
330
1F
100
AcDbEntity
  8
0
  6
Continuous
 62
     7
100
AcDbSpline
210
0.0
220
0.0
230
1.0
 70
     8
 71
     3
 72
    14
 73
    10
 74
     8
 42
0.0000000001
 43
0.0000000001
 44
0.0000000001
 12
-0.0871452878169113
 22
-0.9961956127243825
 32
0.0
 13
-0.7737156377012927
 23
-0.6335330393724404
 33
0.0
 40
0.0
 40
0.0
 40
0.0
 40
0.0
 40
0.0284653043677737
 40
0.056934630715547
 40
0.08540990878591
 40
0.1138859189679221
 40
0.142355791272516
 40
0.1708214311042447
 40
0.1992494584427664
 40
0.1992494584427664
 40
0.1992494584427664
 40
0.1992494584427664
 10
27.61320210180134
 20
10.70010106755206
 30
0.0
 10
27.6123752294207
 20
10.69064873044338
 30
0.0
 10
27.60964115551995
 20
10.67181939476897
 30
0.0
 10
27.60235756694717
 20
10.64423618845174
 30
0.0
 10
27.59198283917458
 20
10.61765288427134
 30
0.0
 10
27.57865272484534
 20
10.59242282540064
 30
0.0
 10
27.56254121575731
 20
10.56887391421535
 30
0.0
 10
27.54387048497488
 20
10.5473238666056
 30
0.0
 10
27.52986821313494
 20
10.53446193260644
 30
0.0
 10
27.52253647670134
 20
10.52845856775205
 30
0.0
 11
27.61320210180134
 21
10.70010106755206
 31
0.0
 11
27.60911112380134
 21
10.67193127075205
 31
0.0
 11
27.60184316680133
 21
10.64440529495205
 31
0.0
 11
27.59149035410134
 21
10.61787869075206
 31
0.0
 11
27.57818781090134
 21
10.59270081355206
 31
0.0
 11
27.56211210900133
 21
10.56920388955205
 31
0.0
 11
27.54347212370133
 21
10.54769008935205
 31
0.0
 11
27.52253647670134
 21
10.52845856775205
 31
0.0
  0
SPLINE
  5
648
330
1F
100
AcDbEntity
  8
0
  6
Continuous
 62
     7
100
AcDbSpline
210
0.0
220
0.0
230
1.0
 70
     8
 71
     3
 72
    14
 73
    10
 74
     8
 42
0.0000000001
 43
0.0000000001
 44
0.0000000001
 12
-0.7737149849780415
 22
-0.6335338365236928
 32
0.0
 13
-0.1348776589597769
 23
-0.990862259405176
 33
0.0
 40
0.0
 40
0.0
 40
0.0
 40
0.0
 40
0.0160441252031576
 40
0.0320978746565195
 40
0.0481516168859502
 40
0.0642053543500197
 40
0.080259089870041
 40
0.0963128260498521
 40
0.1123554976584957
 40
0.1123554976584957
 40
0.1123554976584957
 40
0.1123554976584957
 10
27.52253655750133
 20
10.52845845265205
 30
0.0
 10
27.51839869747115
 20
10.52507028725418
 30
0.0
 10
27.5104768659377
 20
10.51784276217087
 30
0.0
 10
27.49982441002678
 20
10.50579769319791
 30
0.0
 10
27.49051701561616
 20
10.49267918776492
 30
0.0
 10
27.48266530377199
 20
10.47864161179353
 30
0.0
 10
27.4763586229947
 20
10.46384470903323
 30
0.0
 10
27.47167074582645
 20
10.44846399031918
 30
0.0
 10
27.46965854619801
 20
10.4379315180644
 30
0.0
 10
27.46893728020133
 20
10.43263282545205
 30
0.0
 11
27.52253655750133
 21
10.52845845265205
 31
0.0
 11
27.51068434390133
 21
10.51764461955206
 31
0.0
 11
27.50004893990134
 21
10.50561918595205
 31
0.0
 11
27.49075962810134
 21
10.49252600735206
 31
0.0
 11
27.48292280850133
 21
10.47851505645206
 31
0.0
 11
27.47662824410133
 21
10.46374681745206
 31
0.0
 11
27.47194803360134
 21
10.44839044825206
 31
0.0
 11
27.46893728020133
 21
10.43263282545205
 31
0.0
  0
SPLINE
  5
64A
330
1F
100
AcDbEntity
  8
0
  6
Continuous
 62
     7
100
AcDbSpline
210
0.0
220
0.0
230
1.0
 70
     8
 71
     3
 72
    12
 73
     8
 74
     6
 42
0.0000000001
 43
0.0000000001
 44
0.0000000001
 12
-0.0348995026002413
 22
-0.999390826813142
 32
0.0
 13
-1.0
 23
0.0000000000000002
 33
0.0
 40
0.0
 40
0.0
 40
0.0
 40
0.0
 40
0.0091569657436869
 40
0.0183732001747384
 40
0.0275211004395373
 40
0.03673681562889
 40
0.0458957572589379
 40
0.0458957572589379
 40
0.0458957572589379
 40
0.0458957572589379
 10
28.35965203880133
 20
11.34413869665205
 30
0.0
 10
28.35954551428473
 20
11.34108823413016
 30
0.0
 10
28.35838153361462
 20
11.3349597978706
 30
0.0
 10
28.35395008084064
 20
11.32676733769512
 30
0.0
 10
28.34723142010169
 20
11.3202788923726
 30
0.0
 10
28.3388891168118
 20
11.31613536247578
 30
0.0
 10
28.33272327914468
 20
11.31518568125205
 30
0.0
 10
28.32967029860134
 20
11.31518568125205
 30
0.0
 11
28.35965203880133
 21
11.34413869665205
 31
0.0
 11
28.35793955920133
 21
11.33514328475206
 31
0.0
 11
28.35355708910134
 21
11.32703569985205
 31
0.0
 11
28.34697679410134
 21
11.32068087515206
 31
0.0
 11
28.33872190190134
 21
11.31658378335205
 31
0.0
 11
28.32967029860134
 21
11.31518568125205
 31
0.0
  0
LINE
  5
64C
330
1F
100
AcDbEntity
  8
0
  6
Continuous
 62
     7
100
AcDbLine
 10
20.81571169960133
 20
11.56518043655206
 30
0.0
 11
20.82011137240133
 21
11.56506229255206
 31
0.0
  0
LINE
  5
64D
330
1F
100
AcDbEntity
  8
0
  6
Continuous
 62
     7
100
AcDbLine
 10
20.82011137240133
 20
11.56506229255206
 30
0.0
 11
20.82563209150134
 21
11.56469431305206
 31
0.0
  0
SPLINE
  5
64F
330
1F
100
AcDbEntity
  8
0
  6
Continuous
 62
     7
100
AcDbSpline
210
0.0
220
0.0
230
1.0
 70
     8
 71
     3
 72
    23
 73
    19
 74
    17
 42
0.0000000001
 43
0.0000000001
 44
0.0000000001
 12
0.1013770144210788
 22
-0.9948480793302405
 32
0.0
 13
0.9930415672444693
 23
-0.1177643652581218
 33
0.0
 40
0.0
 40
0.0
 40
0.0
 40
0.0
 40
0.2187191136518863
 40
0.5748991910955978
 40
0.9517349422222743
 40
1.342677026632588
 40
1.73969706441128
 40
2.1346271819515
 40
2.520475894745416
 40
2.892339091964203
 40
3.248725865215103
 40
3.600112047060049
 40
3.95658718606057
 40
4.314994514084194
 40
4.669717558218483
 40
5.015160677107971
 40
5.346291534962242
 40
5.558160310779022
 40
5.558160310779022
 40
5.558160310779022
 40
5.558160310779022
 10
20.71206921570134
 20
11.20285780805206
 30
0.0
 10
20.71946024594762
 20
11.1303270446756
 30
0.0
 10
20.74469037113972
 20
10.94024252339835
 30
0.0
 10
20.80985473880417
 20
10.62931906939696
 30
0.0
 10
20.91848943429543
 20
10.27027959423409
 30
0.0
 10
21.06254490902855
 20
9.909214183266879
 30
0.0
 10
21.23945989671778
 20
9.556301627913788
 30
0.0
 10
21.44480422441752
 20
9.22112591471501
 30
0.0
 10
21.67304358926593
 20
8.911460435218184
 30
0.0
 10
21.91868919376192
 20
8.63232013807943
 30
0.0
 10
22.17961414517406
 20
8.383765557381394
 30
0.0
 10
22.45809405899501
 20
8.163229231260416
 30
0.0
 10
22.75554560858355
 20
7.967844121401431
 30
0.0
 10
23.07001466649114
 20
7.798856359362366
 30
0.0
 10
23.39475450417895
 20
7.659648283268809
 30
0.0
 10
23.72188995192111
 20
7.552562024331448
 30
0.0
 10
24.01087442817169
 20
7.485913601754298
 30
0.0
 10
24.18997136410558
 20
7.45889422911942
 30
0.0
 10
24.26010286450134
 20
7.45057736515206
 30
0.0
 11
20.71206921570134
 21
11.20285780805206
 31
0.0
 11
20.74070330450133
 21
10.98602114225206
 31
0.0
 11
20.81331843260134
 21
10.63732171475206
 31
0.0
 11
20.92212361480134
 21
10.27653560685206
 31
0.0
 11
21.06681437880133
 21
9.91335480315206
 31
0.0
 11
21.24470541570133
 21
9.558418626652063
 31
0.0
 11
21.45111554350134
 21
9.221721942852063
 31
0.0
 11
21.68022874800133
 21
8.911260401452061
 31
0.0
 11
21.92612525880134
 21
8.632303158452057
 31
0.0
 11
22.18440986770133
 21
8.386741367952062
 31
0.0
 11
22.45977950260134
 21
8.168466740552062
 31
0.0
 11
22.75768000570133
 21
7.972686723752062
 31
0.0
 11
23.07339748090134
 21
7.803045076052061
 31
0.0
 11
23.39947690450133
 21
7.663400357052061
 31
0.0
 11
23.72785202700134
 21
7.556158913052062
 31
0.0
 11
24.05058730330134
 21
7.482067169552063
 31
0.0
 11
24.26010286450134
 21
7.45057736515206
 31
0.0
  0
SPLINE
  5
650
330
1F
100
AcDbEntity
  8
0
  6
Continuous
 62
     7
100
AcDbSpline
210
0.0
220
0.0
230
1.0
 70
     8
 71
     3
 72
    13
 73
     9
 74
     7
 42
0.0000000001
 43
0.0000000001
 44
0.0000000001
 12
1.0
 22
-0.0000000000000002
 32
0.0
 13
-0.0348994751842144
 23
-0.9993908277705305
 33
0.0
 40
0.0
 40
0.0
 40
0.0
 40
0.0
 40
0.0079991800366627
 40
0.0160367168013539
 40
0.0240217219530542
 40
0.0320137876338868
 40
0.0400392833422364
 40
0.048027475904946
 40
0.048027475904946
 40
0.048027475904946
 40
0.048027475904946
 10
28.33630524780133
 20
11.56518568125205
 30
0.0
 10
28.33897164114689
 20
11.56518568125205
 30
0.0
 10
28.34434450890744
 20
11.56446454580995
 30
0.0
 10
28.35179879102592
 20
11.56129502877636
 30
0.0
 10
28.35815107040144
 20
11.55626735463004
 30
0.0
 10
28.36294745965686
 20
11.54974341215368
 30
0.0
 10
28.36584849383111
 20
11.54218672098618
 30
0.0
 10
28.36637991611071
 20
11.5367998062446
 30
0.0
 10
28.36628698820133
 20
11.53413869745206
 30
0.0
 11
28.33630524780133
 21
11.56518568125205
 31
0.0
 11
28.34423302000134
 21
11.56411923425205
 31
0.0
 11
28.35163044170134
 21
11.56097596375206
 31
0.0
 11
28.35789104540133
 21
11.55601963965205
 31
0.0
 11
28.36262582850134
 21
11.54958108835206
 31
0.0
 11
28.36550041710133
 21
11.54208807015206
 31
0.0
 11
28.36628698820133
 21
11.53413869745206
 31
0.0
  0
ENDSEC
  0
SECTION
  2
OBJECTS
  0
DICTIONARY
  5
C
330
0
100
AcDbDictionary
281
     1
  3
ACAD_COLOR
350
65F
  3
ACAD_GROUP
350
D
  3
ACAD_LAYOUT
350
1A
  3
ACAD_MATERIAL
350
65E
  3
ACAD_MLINESTYLE
350
17
  3
ACAD_PLOTSETTINGS
350
19
  3
ACAD_PLOTSTYLENAME
350
E
  3
ACAD_TABLESTYLE
350
660
  3
AcDbVariableDictionary
350
717
  3
AcmDictionary
350
6BE
  3
AMG
350
69E
  3
AMGSNAPSETTINGS
350
735
  3
ASE_INDEX_DICTIONARY
350
713
  0
DICTIONARY
  5
65F
102
{ACAD_REACTORS
330
C
102
}
330
C
100
AcDbDictionary
281
     1
  0
DICTIONARY
  5
D
102
{ACAD_REACTORS
330
C
102
}
330
C
100
AcDbDictionary
281
     1
  0
DICTIONARY
  5
1A
102
{ACAD_REACTORS
330
C
102
}
330
C
100
AcDbDictionary
281
     1
  3
Layout1
350
1E
  3
Model
350
22
  0
DICTIONARY
  5
65E
102
{ACAD_REACTORS
330
C
102
}
330
C
100
AcDbDictionary
281
     1
  0
DICTIONARY
  5
17
102
{ACAD_REACTORS
330
C
102
}
330
C
100
AcDbDictionary
281
     1
  3
Standard
350
18
  0
DICTIONARY
  5
19
102
{ACAD_REACTORS
330
C
102
}
330
C
100
AcDbDictionary
281
     1
  0
ACDBDICTIONARYWDFLT
  5
E
102
{ACAD_REACTORS
330
C
102
}
330
C
100
AcDbDictionary
281
     1
  3
Normal
350
F
100
AcDbDictionaryWithDefault
340
F
  0
DICTIONARY
  5
660
102
{ACAD_REACTORS
330
C
102
}
330
C
100
AcDbDictionary
281
     1
  3
Standard
350
661
  0
DICTIONARY
  5
717
102
{ACAD_REACTORS
330
C
102
}
330
C
100
AcDbDictionary
281
     1
  3
CTABLESTYLE
350
718
  0
DICTIONARY
  5
6BE
102
{ACAD_REACTORS
330
C
102
}
330
C
100
AcDbDictionary
281
     1
  3
AcmStdDictionary
350
6C9
  3
AMDTSECTSYM_ARROWCOLOR
350
6E9
  0
DICTIONARY
  5
69E
102
{ACAD_REACTORS
330
C
102
}
330
C
100
AcDbDictionary
281
     1
  0
DICTIONARY
  5
735
102
{ACAD_REACTORS
330
C
102
}
330
C
100
AcDbDictionary
281
     1
  0
DICTIONARY
  5
713
102
{ACAD_REACTORS
330
C
102
}
330
C
100
AcDbDictionary
281
     1
  3
ASEBlockHierarchyIndexRecord
350
715
1001
DCO15
1040
1629192124.769
  0
LAYOUT
  5
1E
102
{ACAD_REACTORS
330
1A
102
}
330
1A
100
AcDbPlotSettings
  1

  2

  4

  6

 40
0.0
 41
0.0
 42
0.0
 43
0.0
 44
0.0
 45
0.0
 46
0.0
 47
0.0
 48
0.0
 49
0.0
140
0.0
141
0.0
142
1.0
143
1.0
 70
     0
 72
     0
 73
     0
 74
     0
  7

 75
     0
147
1.0
 76
     0
 77
     2
 78
   300
148
0.0
149
0.0
100
AcDbLayout
  1
Layout1
 70
     0
 71
     1
 10
0.0
 20
0.0
 11
12.0
 21
9.0
 12
0.0
 22
0.0
 32
0.0
 14
1.000000000000000E+20
 24
1.000000000000000E+20
 34
1.000000000000000E+20
 15
-1.000000000000000E+20
 25
-1.000000000000000E+20
 35
-1.000000000000000E+20
146
0.0
 13
0.0
 23
0.0
 33
0.0
 16
1.0
 26
0.0
 36
0.0
 17
0.0
 27
1.0
 37
0.0
 76
     0
330
1B
  0
LAYOUT
  5
22
102
{ACAD_REACTORS
330
1A
102
}
330
1A
100
AcDbPlotSettings
  1

  2

  4

  6

 40
0.0
 41
0.0
 42
0.0
 43
0.0
 44
0.0
 45
0.0
 46
0.0
 47
0.0
 48
0.0
 49
0.0
140
0.0
141
0.0
142
1.0
143
1.0
 70
     0
 72
     0
 73
     0
 74
     0
  7

 75
     0
147
1.0
 76
     0
 77
     2
 78
   300
148
0.0
149
0.0
100
AcDbLayout
  1
Model
 70
     0
 71
     0
 10
0.0
 20
0.0
 11
0.0
 21
0.0
 12
0.0
 22
0.0
 32
0.0
 14
0.0
 24
0.0
 34
0.0
 15
0.0
 25
0.0
 35
0.0
146
0.0
 13
0.0
 23
0.0
 33
0.0
 16
0.0
 26
0.0
 36
0.0
 17
0.0
 27
0.0
 37
0.0
 76
     0
330
1F
  0
MLINESTYLE
  5
18
102
{ACAD_REACTORS
330
17
102
}
330
17
100
AcDbMlineStyle
  2
STANDARD
 70
     0
  3

 62
   256
 51
90.0
 52
90.0
 71
     2
 49
0.5
 62
   256
  6
BYLAYER
 49
-0.5
 62
   256
  6
BYLAYER
  0
ACDBPLACEHOLDER
  5
F
102
{ACAD_REACTORS
330
E
102
}
330
0
  0
TABLESTYLE
  5
661
102
{ACAD_REACTORS
330
660
102
}
330
660
100
AcDbTableStyle
  3
Standard
 70
     0
 71
     0
 40
0.06
 41
0.06
280
     0
281
     0
  7
STANDARD
140
0.18
170
     2
 62
     0
 63
     7
283
     0
274
    -2
284
     1
 64
     0
275
    -2
285
     1
 65
     0
276
    -2
286
     1
 66
     0
277
    -2
287
     1
 67
     0
278
    -2
288
     1
 68
     0
279
    -2
289
     1
 69
     0
  7
STANDARD
140
0.25
170
     5
 62
     0
 63
     7
283
     0
274
    -2
284
     1
 64
     0
275
    -2
285
     1
 65
     0
276
    -2
286
     1
 66
     0
277
    -2
287
     1
 67
     0
278
    -2
288
     1
 68
     0
279
    -2
289
     1
 69
     0
  7
STANDARD
140
0.18
170
     5
 62
     0
 63
     7
283
     0
274
    -2
284
     1
 64
     0
275
    -2
285
     1
 65
     0
276
    -2
286
     1
 66
     0
277
    -2
287
     1
 67
     0
278
    -2
288
     1
 68
     0
279
    -2
289
     1
 69
     0
  0
DICTIONARYVAR
  5
718
102
{ACAD_REACTORS
330
717
102
}
330
717
100
DictionaryVariables
280
     0
  1
STANDARD
  0
DICTIONARY
  5
6C9
102
{ACAD_REACTORS
330
6BE
102
}
330
6BE
100
AcDbDictionary
281
     1
  0
XRECORD
  5
6E9
102
{ACAD_REACTORS
330
6BE
102
}
330
6BE
100
AcDbXrecord
280
     1
 90
-1023410169
  0
XRECORD
  5
715
102
{ACAD_REACTORS
330
713
102
}
330
713
100
AcDbXrecord
280
     1
330
2BC
330
2BD
330
2C5
330
2C6
330
2CF
330
2D0
330
2D9
330
2DA
330
2E1
330
2E8
330
2F0
330
2F1
330
2F9
330
2FA
330
302
330
303
330
30B
330
30C
330
314
330
315
330
31D
330
31E
330
326
330
327
330
32F
330
330
330
338
330
339
330
341
330
342
330
34A
330
34B
330
353
330
354
330
365
330
366
330
36F
330
370
  0
ENDSEC
  0
EOF
