  0
SECTION
  2
HEADER
  9
$ACADVER
  1
AC1018
  9
$ACADMAINTVER
 70
    76
  9
$DWGCODEPAGE
  3
ANSI_936
  9
$INSBASE
 10
0.0
 20
0.0
 30
0.0
  9
$EXTMIN
 10
3.280101206999999
 20
4.1622576409
 30
0.0
  9
$EXTMAX
 10
28.36628700560133
 20
21.22908412432871
 30
0.0
  9
$LIMMIN
 10
0.0
 20
0.0
  9
$LIMMAX
 10
34.0
 20
22.0
  9
$ORTHOMODE
 70
     1
  9
$REGENMODE
 70
     1
  9
$FILLMODE
 70
     1
  9
$QTEXTMODE
 70
     0
  9
$MIRRTEXT
 70
     1
  9
$LTSCALE
 40
1.87
  9
$ATTMODE
 70
     1
  9
$TEXTSIZE
 40
0.2
  9
$TRACEWID
 40
0.05
  9
$TEXTSTYLE
  7
STANDARD
  9
$CLAYER
  8
0
  9
$CELTYPE
  6
ByLayer
  9
$CECOLOR
 62
   256
  9
$CELTSCALE
 40
1.0
  9
$DISPSILH
 70
     0
  9
$DIMSCALE
 40
1.0
  9
$DIMASZ
 40
0.1875
  9
$DIMEXO
 40
0.2125
  9
$DIMDLI
 40
1.292
  9
$DIMRND
 40
0.0
  9
$DIMDLE
 40
0.0
  9
$DIMEXE
 40
0.612
  9
$DIMTP
 40
0.01
  9
$DIMTM
 40
0.01
  9
$DIMTXT
 40
0.15625
  9
$DIMCEN
 40
0.306
  9
$DIMTSZ
 40
0.0
  9
$DIMTOL
 70
     1
  9
$DIMLIM
 70
     0
  9
$DIMTIH
 70
     1
  9
$DIMTOH
 70
     1
  9
$DIMSE1
 70
     0
  9
$DIMSE2
 70
     0
  9
$DIMTAD
 70
     0
  9
$DIMZIN
 70
     0
  9
$DIMBLK
  1
_FILLED
  9
$DIMASO
 70
     1
  9
$DIMSHO
 70
     1
  9
$DIMPOST
  1

  9
$DIMAPOST
  1

  9
$DIMALT
 70
     0
  9
$DIMALTD
 70
     2
  9
$DIMALTF
 40
25.4
  9
$DIMLFAC
 40
1.0
  9
$DIMTOFL
 70
     0
  9
$DIMTVP
 40
0.0
  9
$DIMTIX
 70
     0
  9
$DIMSOXD
 70
     0
  9
$DIMSAH
 70
     0
  9
$DIMBLK1
  1

  9
$DIMBLK2
  1

  9
$DIMSTYLE
  2
STANDARD
  9
$DIMCLRD
 70
     0
  9
$DIMCLRE
 70
     0
  9
$DIMCLRT
 70
     0
  9
$DIMTFAC
 40
1.0
  9
$DIMGAP
 40
0.09
  9
$DIMJUST
 70
     0
  9
$DIMSD1
 70
     0
  9
$DIMSD2
 70
     0
  9
$DIMTOLJ
 70
     1
  9
$DIMTZIN
 70
     0
  9
$DIMALTZ
 70
     0
  9
$DIMALTTZ
 70
     0
  9
$DIMUPT
 70
     0
  9
$DIMDEC
 70
     4
  9
$DIMTDEC
 70
     4
  9
$DIMALTU
 70
     2
  9
$DIMALTTD
 70
     2
  9
$DIMTXSTY
  7
STANDARD
  9
$DIMAUNIT
 70
     0
  9
$DIMADEC
 70
     0
  9
$DIMALTRND
 40
0.0
  9
$DIMAZIN
 70
     0
  9
$DIMDSEP
 70
     0
  9
$DIMATFIT
 70
     3
  9
$DIMFRAC
 70
     0
  9
$DIMLDRBLK
  1

  9
$DIMLUNIT
 70
     2
  9
$DIMLWD
 70
     0
  9
$DIMLWE
 70
     0
  9
$DIMTMOVE
 70
     0
  9
$LUNITS
 70
     2
  9
$LUPREC
 70
     4
  9
$SKETCHINC
 40
0.1
  9
$FILLETRAD
 40
0.0
  9
$AUNITS
 70
     0
  9
$AUPREC
 70
     0
  9
$MENU
  1
acad
  9
$ELEVATION
 40
0.0
  9
$PELEVATION
 40
0.0
  9
$THICKNESS
 40
0.0
  9
$LIMCHECK
 70
     0
  9
$CHAMFERA
 40
0.0
  9
$CHAMFERB
 40
0.0
  9
$CHAMFERC
 40
0.0
  9
$CHAMFERD
 40
0.0
  9
$SKPOLY
 70
     0
  9
$TDCREATE
 40
2454540.471788715
  9
$TDUCREATE
 40
2454540.138455382
  9
$TDUPDATE
 40
2454659.602541470
  9
$TDUUPDATE
 40
2454659.269208137
  9
$TDINDWG
 40
0.1291250810
  9
$TDUSRTIMER
 40
0.1291250810
  9
$USRTIMER
 70
     1
  9
$ANGBASE
 50
0.0
  9
$ANGDIR
 70
     0
  9
$PDMODE
 70
     3
  9
$PDSIZE
 40
0.3125
  9
$PLINEWID
 40
0.0
  9
$SPLFRAME
 70
     0
  9
$SPLINETYPE
 70
     6
  9
$SPLINESEGS
 70
     8
  9
$HANDSEED
  5
75E
  9
$SURFTAB1
 70
     6
  9
$SURFTAB2
 70
     6
  9
$SURFTYPE
 70
     6
  9
$SURFU
 70
     6
  9
$SURFV
 70
     6
  9
$UCSBASE
  2

  9
$UCSNAME
  2

  9
$UCSORG
 10
0.0
 20
0.0
 30
0.0
  9
$UCSXDIR
 10
1.0
 20
0.0
 30
0.0
  9
$UCSYDIR
 10
0.0
 20
1.0
 30
0.0
  9
$UCSORTHOREF
  2

  9
$UCSORTHOVIEW
 70
     0
  9
$UCSORGTOP
 10
0.0
 20
0.0
 30
0.0
  9
$UCSORGBOTTOM
 10
0.0
 20
0.0
 30
0.0
  9
$UCSORGLEFT
 10
0.0
 20
0.0
 30
0.0
  9
$UCSORGRIGHT
 10
0.0
 20
0.0
 30
0.0
  9
$UCSORGFRONT
 10
0.0
 20
0.0
 30
0.0
  9
$UCSORGBACK
 10
0.0
 20
0.0
 30
0.0
  9
$PUCSBASE
  2

  9
$PUCSNAME
  2

  9
$PUCSORG
 10
0.0
 20
0.0
 30
0.0
  9
$PUCSXDIR
 10
1.0
 20
0.0
 30
0.0
  9
$PUCSYDIR
 10
0.0
 20
1.0
 30
0.0
  9
$PUCSORTHOREF
  2

  9
$PUCSORTHOVIEW
 70
     0
  9
$PUCSORGTOP
 10
0.0
 20
0.0
 30
0.0
  9
$PUCSORGBOTTOM
 10
0.0
 20
0.0
 30
0.0
  9
$PUCSORGLEFT
 10
0.0
 20
0.0
 30
0.0
  9
$PUCSORGRIGHT
 10
0.0
 20
0.0
 30
0.0
  9
$PUCSORGFRONT
 10
0.0
 20
0.0
 30
0.0
  9
$PUCSORGBACK
 10
0.0
 20
0.0
 30
0.0
  9
$USERI1
 70
     0
  9
$USERI2
 70
     0
  9
$USERI3
 70
     0
  9
$USERI4
 70
     0
  9
$USERI5
 70
     0
  9
$USERR1
 40
0.0
  9
$USERR2
 40
0.0
  9
$USERR3
 40
0.0
  9
$USERR4
 40
0.0
  9
$USERR5
 40
0.0
  9
$WORLDVIEW
 70
     1
  9
$SHADEDGE
 70
     3
  9
$SHADEDIF
 70
    70
  9
$TILEMODE
 70
     1
  9
$MAXACTVP
 70
    16
  9
$PINSBASE
 10
0.0
 20
0.0
 30
0.0
  9
$PLIMCHECK
 70
     0
  9
$PEXTMIN
 10
1.000000000000000E+20
 20
1.000000000000000E+20
 30
1.000000000000000E+20
  9
$PEXTMAX
 10
-1.000000000000000E+20
 20
-1.000000000000000E+20
 30
-1.000000000000000E+20
  9
$PLIMMIN
 10
0.0
 20
0.0
  9
$PLIMMAX
 10
12.0
 20
9.0
  9
$UNITMODE
 70
     0
  9
$VISRETAIN
 70
     0
  9
$PLINEGEN
 70
     1
  9
$PSLTSCALE
 70
     0
  9
$TREEDEPTH
 70
  3020
  9
$CMLSTYLE
  2
Standard
  9
$CMLJUST
 70
     0
  9
$CMLSCALE
 40
1.0
  9
$PROXYGRAPHICS
 70
     0
  9
$MEASUREMENT
 70
     0
  9
$CELWEIGHT
370
     0
  9
$ENDCAPS
280
     0
  9
$JOINSTYLE
280
     0
  9
$LWDISPLAY
290
     0
  9
$INSUNITS
 70
     1
  9
$HYPERLINKBASE
  1

  9
$STYLESHEET
  1

  9
$XEDIT
290
     1
  9
$CEPSNTYPE
380
     0
  9
$PSTYLEMODE
290
     1
  9
$FINGERPRINTGUID
  2

  9
$VERSIONGUID
  2
{FDDC31BE-802C-403E-AA96-C210BB8C4339}
  9
$EXTNAMES
290
     1
  9
$PSVPSCALE
 40
0.0
  9
$OLESTARTUP
290
     0
  9
$SORTENTS
280
   127
  9
$INDEXCTL
280
     0
  9
$HIDETEXT
280
     0
  9
$XCLIPFRAME
290
     0
  9
$HALOGAP
280
     0
  9
$OBSCOLOR
 70
   257
  9
$OBSLTYPE
280
     0
  9
$INTERSECTIONDISPLAY
280
     0
  9
$INTERSECTIONCOLOR
 70
   257
  9
$DIMASSOC
280
     1
  9
$PROJECTNAME
  1

  0
ENDSEC
  0
SECTION
  2
CLASSES
  0
CLASS
  1
ACDBDICTIONARYWDFLT
  2
AcDbDictionaryWithDefault
  3
ObjectDBX Classes
 90
        0
 91
        1
280
     0
281
     0
  0
CLASS
  1
IMAGE
  2
AcDbRasterImage
  3
ISM
 90
      127
 91
        0
280
     0
281
     1
  0
CLASS
  1
DICTIONARYVAR
  2
AcDbDictionaryVar
  3
ObjectDBX Classes
 90
        0
 91
        1
280
     0
281
     0
  0
CLASS
  1
RASTERVARIABLES
  2
AcDbRasterVariables
  3
ISM
 90
        0
 91
        0
280
     0
281
     0
  0
CLASS
  1
IMAGEDEF
  2
AcDbRasterImageDef
  3
ISM
 90
        0
 91
        0
280
     0
281
     0
  0
CLASS
  1
IMAGEDEF_REACTOR
  2
AcDbRasterImageDefReactor
  3
ISM
 90
        1
 91
        0
280
     0
281
     0
  0
CLASS
  1
IDBUFFER
  2
AcDbIdBuffer
  3
ObjectDBX Classes
 90
        0
 91
        0
280
     0
281
     0
  0
CLASS
  1
SPATIAL_FILTER
  2
AcDbSpatialFilter
  3
ObjectDBX Classes
 90
        0
 91
        0
280
     0
281
     0
  0
CLASS
  1
SORTENTSTABLE
  2
AcDbSortentsTable
  3
ObjectDBX Classes
 90
        0
 91
        0
280
     0
281
     0
  0
CLASS
  1
LAYER_INDEX
  2
AcDbLayerIndex
  3
ObjectDBX Classes
 90
        0
 91
        0
280
     0
281
     0
  0
CLASS
  1
SPATIAL_INDEX
  2
AcDbSpatialIndex
  3
ObjectDBX Classes
 90
        0
 91
        0
280
     0
281
     0
  0
CLASS
  1
OBJECT_PTR
  2
CAseDLPNTableRecord
  3
ASE-LPNTableRecord
 90
        1
 91
        0
280
     0
281
     0
  0
CLASS
  1
PLOTSETTINGS
  2
AcDbPlotSettings
  3
ObjectDBX Classes
 90
        0
 91
        0
280
     0
281
     0
  0
CLASS
  1
WIPEOUT
  2
AcDbWipeout
  3
"WipeOut|Product Desc: Object Enabler for WipeOut entity^I^I^I^I^I^I|Company: Autodesk, Inc.^I^I^I^I^I^I|WEB Address: www.autodesk.com"
 90
      127
 91
        0
280
     0
281
     1
  0
CLASS
  1
WIPEOUTVARIABLES
  2
AcDbWipeoutVariables
  3
"WipeOut|Product Desc:     WipeOut Dbx Application|Company:          Autodesk, Inc.|WEB Address:      www.autodesk.com"
 90
        0
 91
        0
280
     0
281
     0
  0
CLASS
  1
RTEXT
  2
RText
  3
RText|AutoCAD Express Tool|expresstools@autodesk.com
 90
     1023
 91
        0
280
     0
281
     1
  0
CLASS
  1
ARCALIGNEDTEXT
  2
AcDbArcAlignedText
  3
ATEXT|AutoCAD Express Tool|expresstools@autodesk.com
 90
        0
 91
        0
280
     0
281
     1
  0
CLASS
  1
TABLESTYLE
  2
AcDbTableStyle
  3
ObjectDBX Classes
 90
     2047
 91
        1
280
     0
281
     0
  0
CLASS
  1
ACME_DOCUMENT
  2
AcMeDbDoc
  3
AcMeServices
 90
        0
 91
        2
280
     0
281
     0
  0
CLASS
  1
ACMESCOPE
  2
AcMeScope
  3
AcMeServices
 90
        0
 91
        1
280
     0
281
     0
  0
CLASS
  1
ACMECOMMANDHISTORY
  2
AcMeCommandHistory
  3
AcMeServices
 90
        0
 91
        1
280
     0
281
     0
  0
CLASS
  1
ACIMSYSVARMAN
  2
AcImSysVarManager
  3
AcMeServices
 90
        0
 91
        5
280
     0
281
     0
  0
CLASS
  1
ACIMINTSYSVAR
  2
AcImIntSysVar
  3
AcMeServices
 90
        0
 91
       26
280
     0
281
     0
  0
CLASS
  1
ACMEDRAWINGMAN
  2
AcMeDrawingMan
  3
AcMeServices
 90
        0
 91
        1
280
     0
281
     0
  0
CLASS
  1
ACMEVIEW
  2
AcMeView
  3
AcMeServices
 90
        0
 91
        1
280
     0
281
     0
  0
CLASS
  1
ACDBENTITYCACHE
  2
AcMeEntityCache
  3
AcMeServices
 90
        0
 91
        1
280
     0
281
     0
  0
CLASS
  1
GSMANAGER
  2
AcMeGSManager
  3
AcMeServices
 90
        0
 91
        1
280
     0
281
     0
  0
CLASS
  1
AMDTINTERNALREACTOR
  2
AmdtInternalReactor
  3
AcMeServices
 90
        0
 91
        2
280
     0
281
     0
  0
CLASS
  1
ACMESTATEMGR
  2
AcMeStateMgr
  3
AcMeServices
 90
        0
 91
        1
280
     0
281
     0
  0
CLASS
  1
ACGREFMASTER
  2
AcGrefMaster
  3
AcAttribServices
 90
        0
 91
        1
280
     0
281
     0
  0
CLASS
  1
AM_DRAWING_MGR
  2
AcDmDwgMgr
  3
AcMechDwgViewMgmt
 90
        0
 91
        1
280
     0
281
     0
  0
CLASS
  1
AM_DWG_DOCUMENT
  2
AcDmDwgDocument
  3
AcMechDwgViewMgmt
 90
        0
 91
        1
280
     0
281
     0
  0
CLASS
  1
AM_DWG_SHEET
  2
AcDmSheet
  3
AcMechDwgViewMgmt
 90
        0
 91
        2
280
     0
281
     0
  0
CLASS
  1
AM_VIEWDIMPARMAP
  2
AcDmViewDimParMap
  3
AcMechDwgViewMgmt
 90
        0
 91
        2
280
     0
281
     0
  0
CLASS
  1
ACIMREALSYSVAR
  2
AcImRealSysVar
  3
AcMeServices
 90
        0
 91
        1
280
     0
281
     0
  0
CLASS
  1
AM_DWGMGR_NAME
  2
AcDmDwgMgrName
  3
AcMechDwgViewMgmt
 90
        0
 91
        1
280
     0
281
     0
  0
CLASS
  1
ACME_DATABASE
  2
AcMeDbDatabase
  3
AcMeServices
 90
        0
 91
        1
280
     0
281
     0
  0
CLASS
  1
ACRFINSADJUSTERMGR
  2
AcRfInsAdjusterMgr
  3
AcMeServices
 90
        0
 91
        1
280
     0
281
     0
  0
CLASS
  1
ACGREFACADMASTER
  2
AcGrefacadMaster
  3
AcGrefServices
 90
        0
 91
        1
280
     0
281
     0
  0
CLASS
  1
AMDTMENUSTATEMGR
  2
AmdtMenuStateMgr
  3
McadcomServices
 90
        0
 91
        1
280
     0
281
     0
  0
CLASS
  1
AMDTMCOMMENUSTATE
  2
AmdtMcomMenuState
  3
McadcomServices
 90
        0
 91
        1
280
     0
281
     0
  0
CLASS
  1
AMIMASTER
  2
AmiMaster
  3
AmiServices
 90
        0
 91
        1
280
     0
281
     0
  0
CLASS
  1
AMGSETTINGSOBJ
  2
AmgSettingsObj
  3
"AcadM|Product Description: AutoCAD Mechanical 2000|Company: Autodesk"
 90
        0
 91
        2
280
     0
281
     0
  0
CLASS
  1
MAPIAMMOUDLE
  2
MApiAmModule
  3
MApiAmServices
 90
        0
 91
        1
280
     0
281
     0
  0
CLASS
  1
ACIMSTRSYSVAR
  2
AcImStrSysVar
  3
AcMeServices
 90
        0
 91
        5
280
     0
281
     0
  0
CLASS
  1
AMDTADMENUSTATE
  2
AmdtAdMenuState
  3
DesignerServices
 90
        0
 91
        1
280
     0
281
     0
  0
CLASS
  1
ADAPPL
  2
AcAdAppl
  3
DesignerServices
 90
        0
 91
        1
280
     0
281
     0
  0
CLASS
  1
DEPMGR
  2
AcAdDepMgr
  3
DesignerServices
 90
        0
 91
        1
280
     0
281
     0
  0
CLASS
  1
PARAMMGR
  2
AcAdParamMgr
  3
DesignerServices
 90
        0
 91
        1
280
     0
281
     0
  0
CLASS
  1
PARAMSCOPE
  2
AcAdParamScope
  3
DesignerServices
 90
        0
 91
        1
280
     0
281
     0
  0
CLASS
  1
NAMEDAPPL
  2
AcAdNamedAppl
  3
DesignerServices
 90
        0
 91
        1
280
     0
281
     0
  0
CLASS
  1
AMDTDMMENUSTATE
  2
AmdtDmMenuState
  3
AcMechDwgViewMgmt
 90
        0
 91
        1
280
     0
281
     0
  0
CLASS
  1
AMDTAMMENUSTATE
  2
AmdtAmMenuState
  3
DesignerAssemblies
 90
        0
 91
        1
280
     0
281
     0
  0
CLASS
  1
ACAMPROJECT
  2
AcAmProject
  3
DesignerAssemblies
 90
        0
 91
        1
280
     0
281
     0
  0
CLASS
  1
ACAMGRCOMPDEF
  2
AcAmGrCompDef
  3
DesignerAssemblies
 90
        0
 91
        1
280
     0
281
     0
  0
CLASS
  1
ACCMCONTEXT
  2
AcCmContext
  3
DesignerAssemblies
 90
        0
 91
        1
280
     0
281
     0
  0
CLASS
  1
ACAMCOMPDEF
  2
AcAmCompDef
  3
DesignerAssemblies
 90
        0
 91
        1
280
     0
281
     0
  0
CLASS
  1
ACAMCOMPDEFMGR
  2
AcAmCompDefMgr
  3
DesignerAssemblies
 90
        0
 91
        1
280
     0
281
     0
  0
CLASS
  1
AMCONTEXTMGR
  2
AcAmContextMgr
  3
DesignerAssemblies
 90
        0
 91
        1
280
     0
281
     0
  0
CLASS
  1
ACAMCONTEXTMODELER
  2
AcAmContextModeler
  3
DesignerAssemblies
 90
        0
 91
        1
280
     0
281
     0
  0
CLASS
  1
ACMDATADICTIONARY
  2
AcmDataDictionary
  3
"AcmSymBB|Product Description: AutoCAD Mechanical 2004 DX|Company: Autodesk"
 90
        0
 91
        1
280
     0
281
     0
  0
CLASS
  1
CATALOGSTATE
  2
AcAmCatalogState
  3
DesignerAssemblies
 90
        0
 91
        1
280
     0
281
     0
  0
CLASS
  1
ACAMGRCOMPDEFSET
  2
AcAmGrCompDefSet
  3
DesignerAssemblies
 90
        0
 91
        1
280
     0
281
     0
  0
CLASS
  1
AMDTBROWSERDBTAB
  2
AmdtBrowserDbTab
  3
McadcomServices
 90
        0
 91
        1
280
     0
281
     0
  0
CLASS
  1
CBROWSERAPPOBJECT
  2
CBrowserAppObject
  3
McadcomServices
 90
        0
 91
        3
280
     0
281
     0
  0
CLASS
  1
DM_PLACEHOLDER
  2
AcDmSelsetPlaceholder
  3
AcMechDwgViewMgmt
 90
        0
 91
        1
280
     0
281
     0
  0
CLASS
  1
ACMSTANDARDANSI
  2
AcmStandardANSI
  3
"Amdt_StdImp|Product Description: AutoCAD Mechanical 2004 DX|Company: Autodesk"
 90
        0
 91
        1
280
     0
281
     0
  0
CLASS
  1
AMGOBJPROPCFG
  2
AmgObjPropCfg
  3
"AmgLay|Product Description: AutoCAD Mechanical 2000|Company: Autodesk"
 90
        1
 91
        1
280
     0
281
     0
  0
CLASS
  1
ACMSURFSTANDARDANSI
  2
AcmSurfTextStdANSI
  3
"Amdt_StdImp|Product Description: AutoCAD Mechanical 2004 DX|Company: Autodesk"
 90
        0
 91
        1
280
     0
281
     0
  0
CLASS
  1
ACMFCFSTANDARDANSI
  2
AcmFCFStdANSI
  3
"Amdt_StdImp|Product Description: AutoCAD Mechanical 2004 DX|Company: Autodesk"
 90
        0
 91
        1
280
     0
281
     0
  0
CLASS
  1
ACMWELDSTANDARDANSI
  2
AcmWeldingStdANSI
  3
"Amdt_StdImp|Product Description: AutoCAD Mechanical 2004 DX|Company: Autodesk"
 90
        0
 91
        1
280
     0
281
     0
  0
CLASS
  1
ACMIDSTANDARDANSI
  2
AcmIdStdANSI
  3
"Amdt_StdImp|Product Description: AutoCAD Mechanical 2004 DX|Company: Autodesk"
 90
        0
 91
        1
280
     0
281
     0
  0
CLASS
  1
ACMDATUMSTANDARDANSI
  2
AcmDatumStdANSI
  3
"Amdt_StdImp|Product Description: AutoCAD Mechanical 2004 DX|Company: Autodesk"
 90
        0
 91
        1
280
     0
281
     0
  0
CLASS
  1
ACMBOMSTANDARDANSI
  2
AcmBOMStdANSI
  3
"Amdt_StdImp|Product Description: AutoCAD Mechanical 2004 DX|Company: Autodesk"
 90
        0
 91
        1
280
     0
281
     0
  0
CLASS
  1
ACMDETAILSTANDARDANSI
  2
AmdtDetailSymStdANSI
  3
"Amdt_StdImp|Product Description: AutoCAD Mechanical 2004 DX|Company: Autodesk"
 90
        0
 91
        1
280
     0
281
     0
  0
CLASS
  1
ACMSECTIONSTANDARDANSI
  2
AmdtSectionSymStdANSI
  3
"Amdt_StdImp|Product Description: AutoCAD Mechanical 2004 DX|Company: Autodesk"
 90
        0
 91
        1
280
     0
281
     0
  0
CLASS
  1
ACMCENTERLINESTANDARDANSI
  2
AmdtCenterLineStdANSI
  3
"Amdt_StdImp|Product Description: AutoCAD Mechanical 2004 DX|Company: Autodesk"
 90
        0
 91
        1
280
     0
281
     0
  0
CLASS
  1
ACMTHREADLINESTANDARDANSI
  2
AmdtThreadLineStdANSI
  3
"Amdt_StdImp|Product Description: AutoCAD Mechanical 2004 DX|Company: Autodesk"
 90
        0
 91
        1
280
     0
281
     0
  0
CLASS
  1
ACMNOTESTANDARDANSI
  2
AmdtNoteStdANSI
  3
"Amdt_StdImp|Product Description: AutoCAD Mechanical 2004 DX|Company: Autodesk"
 90
        0
 91
        1
280
     0
281
     0
  0
CLASS
  1
AMDTNOTETEMPLATEDB
  2
AmdtNoteTemplateDB
  3
AMDT_STDIMP_MODULE_NAME
 90
        0
 91
        6
280
     0
281
     0
  0
CLASS
  1
ACAMGLAYSTD
  2
AcAmgLayStd
  3
"AcAmgLayStd|Product Description: AutoCAD Mechanical 2000|Company: Autodesk"
 90
        0
 91
        1
280
     0
281
     0
  0
CLASS
  1
ACAMGDIMSTD
  2
AcAmgDimStd
  3
"AcAmgDimStd|Product Description: AutoCAD Mechanical 2000|Company: Autodesk"
 90
        0
 91
        1
280
     0
281
     0
  0
CLASS
  1
ACAMGHOLECHARTSTDANSI
  2
AcAmgHoleChartStdANSI
  3
ACMSYMBB_MODULE_NAME
 90
        0
 91
        1
280
     0
281
     0
  0
CLASS
  1
ACAMGTITLESTD
  2
AcAmgTitleStd
  3
"TITLEAPP"
 90
        0
 91
        1
280
     0
281
     0
  0
CLASS
  1
ACAMGFILTERDAT
  2
AcAmgFilterDat
  3
"AcadM|Product Description: AutoCAD Mechanical 2000|Company: Autodesk"
 90
        0
 91
        6
280
     0
281
     0
  0
ENDSEC
  0
SECTION
  2
TABLES
  0
TABLE
  2
VPORT
  5
8
330
0
100
AcDbSymbolTable
 70
     4
  0
VPORT
  5
75D
330
8
100
AcDbSymbolTableRecord
100
AcDbViewportTableRecord
  2
*Active
 70
     0
 10
0.0
 20
0.0
 11
1.0
 21
1.0
 12
8.861499829006177
 22
8.198430099436061
 13
0.0
 23
0.0
 14
1.0
 24
1.0
 15
0.0
 25
0.0
 16
0.0
 26
0.0
 36
1.0
 17
0.0
 27
0.0
 37
0.0
 40
11.07177779624198
 41
1.504492939666238
 42
50.0
 43
0.0
 44
0.0
 50
0.0
 51
0.0
 71
     0
 72
   100
 73
     1
 74
     1
 75
     0
 76
     0
 77
     0
 78
     0
281
     0
 65
     0
110
0.0
120
0.0
130
0.0
111
1.0
121
0.0
131
0.0
112
0.0
122
1.0
132
0.0
 79
     0
146
0.0
  0
ENDTAB
  0
TABLE
  2
LTYPE
  5
5
330
0
100
AcDbSymbolTable
 70
    19
  0
LTYPE
  5
14
330
5
100
AcDbSymbolTableRecord
100
AcDbLinetypeTableRecord
  2
ByBlock
 70
     0
  3

 72
    65
 73
     0
 40
0.0
  0
LTYPE
  5
15
330
5
100
AcDbSymbolTableRecord
100
AcDbLinetypeTableRecord
  2
ByLayer
 70
     0
  3

 72
    65
 73
     0
 40
0.0
  0
LTYPE
  5
16
330
5
100
AcDbSymbolTableRecord
100
AcDbLinetypeTableRecord
  2
CONTINUOUS
 70
     0
  3
Solid line
 72
    65
 73
     0
 40
0.0
  0
LTYPE
  5
1F5
330
5
100
AcDbSymbolTableRecord
100
AcDbLinetypeTableRecord
  2
CENTER
 70
     0
  3
____ _ ____ _ ____ _ ____ _ ____ _ ____ _ ____
 72
    65
 73
     4
 40
0.6
 49
0.375
 74
     0
 49
-0.075
 74
     0
 49
0.075
 74
     0
 49
-0.075
 74
     0
  0
LTYPE
  5
1F6
330
5
100
AcDbSymbolTableRecord
100
AcDbLinetypeTableRecord
  2
HIDDEN
 70
     0
  3
- - - - - - - - - - - - - - - - - - - -
 72
    65
 73
     2
 40
0.2
 49
0.1
 74
     0
 49
-0.1
 74
     0
  0
LTYPE
  5
1F7
330
5
100
AcDbSymbolTableRecord
100
AcDbLinetypeTableRecord
  2
PHANTOM
 70
     0
  3
_____ _ _ _____ _ _ _____ _ _ _____
 72
    65
 73
     6
 40
0.8
 49
0.45
 74
     0
 49
-0.05
 74
     0
 49
0.1
 74
     0
 49
-0.05
 74
     0
 49
0.1
 74
     0
 49
-0.05
 74
     0
  0
LTYPE
  5
1F8
330
5
100
AcDbSymbolTableRecord
100
AcDbLinetypeTableRecord
  2
DOT
 70
     0
  3
. . . . . . . . . . . . . . . . . . . .
 72
    65
 73
     2
 40
0.2
 49
0.1
 74
     0
 49
-0.1
 74
     0
  0
LTYPE
  5
1F9
330
5
100
AcDbSymbolTableRecord
100
AcDbLinetypeTableRecord
  2
DASHED
 70
     0
  3
- - - - - - - - - - - - - - - - - - - -
 72
    65
 73
     2
 40
0.2
 49
0.1
 74
     0
 49
-0.1
 74
     0
  0
LTYPE
  5
694
330
5
100
AcDbSymbolTableRecord
100
AcDbLinetypeTableRecord
  2
PHANTOM2
 70
     0
  3
Phantom (.5x) ___ _ _ ___ _ _ ___ _ _ ___ _ _
 72
    65
 73
     6
 40
1.25
 49
0.625
 74
     0
 49
-0.125
 74
     0
 49
0.125
 74
     0
 49
-0.125
 74
     0
 49
0.125
 74
     0
 49
-0.125
 74
     0
  0
LTYPE
  5
6CC
330
5
100
AcDbSymbolTableRecord
100
AcDbLinetypeTableRecord
  2
AM_ISO02W050
 70
     0
  3
__ __ __ __ __ __ __ __ __ __ __ __ __ __ __
 72
    65
 73
     2
 40
7.5
 49
6.0
 74
     0
 49
-1.5
 74
     0
  0
LTYPE
  5
6CD
330
5
100
AcDbSymbolTableRecord
100
AcDbLinetypeTableRecord
  2
AM_ISO08W050
 70
     0
  3
____ . ____ . ____ . ____ . ____ . ____ . ____
 72
    65
 73
     4
 40
18.0
 49
12.0
 74
     0
 49
-1.5
 74
     0
 49
3.0
 74
     0
 49
-1.5
 74
     0
  0
LTYPE
  5
6CE
330
5
100
AcDbSymbolTableRecord
100
AcDbLinetypeTableRecord
  2
AM_ISO09W050
 70
     0
  3
_____ . . _____ . . _____ . . ____ .. ____
 72
    65
 73
     6
 40
22.5
 49
12.0
 74
     0
 49
-1.5
 74
     0
 49
3.0
 74
     0
 49
-1.5
 74
     0
 49
3.0
 74
     0
 49
-1.5
 74
     0
  0
LTYPE
  5
6CF
330
5
100
AcDbSymbolTableRecord
100
AcDbLinetypeTableRecord
  2
Amconstr
 70
     0
  3
_______________________
 72
    65
 73
     2
 40
9999.0
 49
9999.0
 74
     0
 49
0.0
 74
     0
  0
LTYPE
  5
6D0
330
5
100
AcDbSymbolTableRecord
100
AcDbLinetypeTableRecord
  2
AM_ISO08W050x2
 70
     0
  3
__ . __ . __ . __ . __ . __
 72
    65
 73
     4
 40
9.0
 49
6.0
 74
     0
 49
-0.75
 74
     0
 49
1.5
 74
     0
 49
-0.75
 74
     0
  0
LTYPE
  5
6D1
330
5
100
AcDbSymbolTableRecord
100
AcDbLinetypeTableRecord
  2
AM_ISO02W050x2
 70
     0
  3
 _ _ _ _ _ _ _ _ _ _ _ _
 72
    65
 73
     2
 40
3.75
 49
3.0
 74
     0
 49
-0.75
 74
     0
  0
LTYPE
  5
6D4
330
5
100
AcDbSymbolTableRecord
100
AcDbLinetypeTableRecord
  2
Amzigzag
 70
     0
  3
/\/-/\/-/\/-/\/-/\/-/\/
 72
    65
 73
     2
 40
11.0001
 49
0.0001
 74
     4
 75
   136
340
6D3
 46
0.04
 50
0.0
 44
0.0
 45
0.0
 49
-11.0
 74
     0
  0
LTYPE
  5
6D5
330
5
100
AcDbSymbolTableRecord
100
AcDbLinetypeTableRecord
  2
CENTER2
 70
     0
  3
Center (.5x) ___ _ ___ _ ___ _ ___ _ ___ _ ___
 72
    65
 73
     4
 40
1.125
 49
0.75
 74
     0
 49
-0.125
 74
     0
 49
0.125
 74
     0
 49
-0.125
 74
     0
  0
LTYPE
  5
6D6
330
5
100
AcDbSymbolTableRecord
100
AcDbLinetypeTableRecord
  2
HIDDEN2
 70
     0
  3
Hidden (.5x) _ _ _ _ _ _ _ _ _ _ _ _ _ _ _ _ _
 72
    65
 73
     2
 40
0.1875
 49
0.125
 74
     0
 49
-0.0625
 74
     0
  0
LTYPE
  5
6D7
330
5
100
AcDbSymbolTableRecord
100
AcDbLinetypeTableRecord
  2
Amzigzag2
 70
     0
  3
/\/-/\/-/\/-/\/-/\/-/\/
 72
    65
 73
     2
 40
0.4401
 49
0.0001
 74
     4
 75
   136
340
6D3
 46
0.0016
 50
0.0
 44
0.0
 45
0.0
 49
-0.4400000000000001
 74
     0
  0
LTYPE
  5
6E5
330
5
100
AcDbSymbolTableRecord
100
AcDbLinetypeTableRecord
  2
ACANSTGB
 70
     0
  3
__ . . __ . .
 72
    65
 73
     6
 40
0.35433070866
 49
0.15748031496
 74
     0
 49
-0.03937007874
 74
     0
 49
0.03937007874
 74
     0
 49
-0.03937007874
 74
     0
 49
0.03937007874
 74
     0
 49
-0.03937007874
 74
     0
  0
LTYPE
  5
6E6
330
5
100
AcDbSymbolTableRecord
100
AcDbLinetypeTableRecord
  2
ACANSTGL
 70
     0
  3
_ _ _ _ _
 72
    65
 73
     2
 40
0.11811023622
 49
0.07874015748
 74
     0
 49
-0.03937007874
 74
     0
  0
ENDTAB
  0
TABLE
  2
LAYER
  5
2
330
0
100
AcDbSymbolTable
 70
    22
  0
LAYER
  5
10
330
2
100
AcDbSymbolTableRecord
100
AcDbLayerTableRecord
  2
0
 70
     0
 62
     7
  6
CONTINUOUS
370
    -3
390
F
  0
LAYER
  5
1FA
330
2
100
AcDbSymbolTableRecord
100
AcDbLayerTableRecord
  2
DEFAULT_1
 70
     0
 62
     7
  6
CENTER
370
    -3
390
F
  0
LAYER
  5
1FB
330
2
100
AcDbSymbolTableRecord
100
AcDbLayerTableRecord
  2
DEFAULT_2
 70
     0
 62
     8
  6
HIDDEN
370
    -3
390
F
  0
LAYER
  5
1FC
330
2
100
AcDbSymbolTableRecord
100
AcDbLayerTableRecord
  2
DEFAULT_3
 70
     0
 62
     7
  6
PHANTOM
370
    -3
390
F
  0
LAYER
  5
1FD
330
2
100
AcDbSymbolTableRecord
100
AcDbLayerTableRecord
  2
_2D_DELETED_OBJS
 70
     0
 62
     7
  6
CONTINUOUS
370
    -3
390
F
  0
LAYER
  5
1FE
330
2
100
AcDbSymbolTableRecord
100
AcDbLayerTableRecord
  2
DATUMS
 70
     0
 62
     7
  6
CONTINUOUS
370
    -3
390
F
  0
LAYER
  5
1FF
330
2
100
AcDbSymbolTableRecord
100
AcDbLayerTableRecord
  2
DATUM_AXIS
 70
     0
 62
     7
  6
CONTINUOUS
370
    -3
390
F
  0
LAYER
  5
200
330
2
100
AcDbSymbolTableRecord
100
AcDbLayerTableRecord
  2
DATUM_CSYS
 70
     0
 62
     7
  6
CONTINUOUS
370
    -3
390
F
  0
LAYER
  5
201
330
2
100
AcDbSymbolTableRecord
100
AcDbLayerTableRecord
  2
DATUM_PLANE
 70
     0
 62
     7
  6
CONTINUOUS
370
    -3
390
F
  0
LAYER
  5
202
330
2
100
AcDbSymbolTableRecord
100
AcDbLayerTableRecord
  2
DATUM_POINT
 70
     0
 62
     7
  6
CONTINUOUS
370
    -3
390
F
  0
LAYER
  5
203
330
2
100
AcDbSymbolTableRecord
100
AcDbLayerTableRecord
  2
IMPORT
 70
     0
 62
     7
  6
CONTINUOUS
370
    -3
390
F
  0
LAYER
  5
204
330
2
100
AcDbSymbolTableRecord
100
AcDbLayerTableRecord
  2
INTF_14
 70
     0
 62
     7
  6
CONTINUOUS
370
    -3
390
F
  0
LAYER
  5
205
330
2
100
AcDbSymbolTableRecord
100
AcDbLayerTableRecord
  2
LAY0001
 70
     0
 62
     7
  6
CONTINUOUS
370
    -3
390
F
  0
LAYER
  5
206
330
2
100
AcDbSymbolTableRecord
100
AcDbLayerTableRecord
  2
NODE_401
 70
     0
 62
     7
  6
CONTINUOUS
370
    -3
390
F
  0
LAYER
  5
207
330
2
100
AcDbSymbolTableRecord
100
AcDbLayerTableRecord
  2
TEMPLATE
 70
     0
 62
     7
  6
CONTINUOUS
370
    -3
390
F
  0
LAYER
  5
208
330
2
100
AcDbSymbolTableRecord
100
AcDbLayerTableRecord
  2
_CURVE
 70
     0
 62
     7
  6
CONTINUOUS
370
    -3
390
F
  0
LAYER
  5
209
330
2
100
AcDbSymbolTableRecord
100
AcDbLayerTableRecord
  2
_SURFACE
 70
     0
 62
     7
  6
CONTINUOUS
370
    -3
390
F
  0
LAYER
  5
20A
330
2
100
AcDbSymbolTableRecord
100
AcDbLayerTableRecord
  2
__REF_CURVE
 70
     0
 62
     7
  6
CONTINUOUS
370
    -3
390
F
  0
LAYER
  5
20B
330
2
100
AcDbSymbolTableRecord
100
AcDbLayerTableRecord
  2
__REF_SURFACE
 70
     0
 62
     7
  6
CONTINUOUS
370
    -3
390
F
  0
LAYER
  5
20C
330
2
100
AcDbSymbolTableRecord
100
AcDbLayerTableRecord
  2
___COSMETIC_SKETCH
 70
     0
 62
     7
  6
CONTINUOUS
370
    -3
390
F
  0
LAYER
  5
20D
330
2
100
AcDbSymbolTableRecord
100
AcDbLayerTableRecord
  2
___NOTE
 70
     0
 62
     7
  6
CONTINUOUS
370
    -3
390
F
  0
LAYER
  5
20E
330
2
100
AcDbSymbolTableRecord
100
AcDbLayerTableRecord
  2
___SYMBOL
 70
     0
 62
     7
  6
CONTINUOUS
370
    -3
390
F
  0
ENDTAB
  0
TABLE
  2
STYLE
  5
3
330
0
100
AcDbSymbolTable
 70
     5
  0
STYLE
  5
11
330
3
100
AcDbSymbolTableRecord
100
AcDbTextStyleTableRecord
  2
STANDARD
 70
     0
 40
0.0
 41
0.8
 50
0.0
 71
     0
 42
0.2
  3
txt
  4

  0
STYLE
  5
20F
330
3
100
AcDbSymbolTableRecord
100
AcDbTextStyleTableRecord
  2
TEXTSTYLE_1
 70
     0
 40
0.0
 41
1.0299999783
 50
0.0
 71
     0
 42
0.2
  3
txt
  4

  0
STYLE
  5
6D3
330
3
100
AcDbSymbolTableRecord
100
AcDbTextStyleTableRecord
  2

 70
     1
 40
0.0
 41
1.0
 50
0.0
 71
     0
 42
0.2
  3
genltshp.shx
  4

  0
STYLE
  5
6D8
330
3
100
AcDbSymbolTableRecord
100
AcDbTextStyleTableRecord
  2
ACANSTS
 70
     0
 40
1.0
 41
1.0
 50
0.0
 71
     0
 42
0.2
  3
romans.shx
  4
gbcbig.shx
  0
STYLE
  5
6E4
330
3
100
AcDbSymbolTableRecord
100
AcDbTextStyleTableRecord
  2
ACANSGDT
 70
     0
 40
0.0
 41
1.0
 50
0.0
 71
     0
 42
0.2
  3
AMGDT
  4

  0
ENDTAB
  0
TABLE
  2
VIEW
  5
6
330
0
100
AcDbSymbolTable
 70
     0
  0
ENDTAB
  0
TABLE
  2
UCS
  5
7
330
0
100
AcDbSymbolTable
 70
     0
  0
ENDTAB
  0
TABLE
  2
APPID
  5
9
330
0
100
AcDbSymbolTable
 70
    11
  0
APPID
  5
210
330
9
100
AcDbSymbolTableRecord
100
AcDbRegAppTableRecord
  2
ACAD
 70
     0
  0
APPID
  5
665
330
9
100
AcDbSymbolTableRecord
100
AcDbRegAppTableRecord
  2
MCAD_NO_VIS
 70
     0
  0
APPID
  5
666
330
9
100
AcDbSymbolTableRecord
100
AcDbRegAppTableRecord
  2
ACAD_TEMP_GRAPHIC
 70
     0
  0
APPID
  5
696
330
9
100
AcDbSymbolTableRecord
100
AcDbRegAppTableRecord
  2
AD_DRAW
 70
     0
  0
APPID
  5
699
330
9
100
AcDbSymbolTableRecord
100
AcDbRegAppTableRecord
  2
ACATTRIBSERVICES
 70
     0
  0
APPID
  5
6BD
330
9
100
AcDbSymbolTableRecord
100
AcDbRegAppTableRecord
  2
DESIGNERASSEMBLIES
 70
     0
  0
APPID
  5
6C3
330
9
100
AcDbSymbolTableRecord
100
AcDbRegAppTableRecord
  2
ACADM_DIM_EDIT
 70
     0
  0
APPID
  5
6C4
330
9
100
AcDbSymbolTableRecord
100
AcDbRegAppTableRecord
  2
AMDT_DM_ADJ
 70
     0
  0
APPID
  5
6F3
330
9
100
AcDbSymbolTableRecord
100
AcDbRegAppTableRecord
  2
ACAD_DSTYLE_DIMARC_LENGTH_SYMBOL
 70
     0
  0
APPID
  5
6F4
330
9
100
AcDbSymbolTableRecord
100
AcDbRegAppTableRecord
  2
ACAD_DSTYLE_DIMJOGGED_JOGANGLE_SYMBOL
 70
     0
  0
APPID
  5
714
330
9
100
AcDbSymbolTableRecord
100
AcDbRegAppTableRecord
  2
DCO15
 70
     0
  0
ENDTAB
  0
TABLE
  2
DIMSTYLE
  5
A
330
0
100
AcDbSymbolTable
 70
    12
100
AcDbDimStyleTable
 71
     0
  0
DIMSTYLE
105
238
330
A
100
AcDbSymbolTableRecord
100
AcDbDimStyleTableRecord
  2
STANDARD
 70
     0
 41
0.1875
 47
0.01
 48
0.01
 71
     1
 78
     4
140
0.15625
271
     3
272
     3
284
     4
340
11
341
211
342
211
343
211
344
211
  0
DIMSTYLE
105
239
330
A
100
AcDbSymbolTableRecord
100
AcDbDimStyleTableRecord
  2
DIMSTYLE_1
 70
     0
 41
0.1875
 47
0.08
 48
0.11
 72
     1
 78
     4
140
0.15625
144
2.0
271
     2
272
     2
284
     4
340
11
341
211
342
211
343
211
344
211
  0
DIMSTYLE
105
23A
330
A
100
AcDbSymbolTableRecord
100
AcDbDimStyleTableRecord
  2
DIMSTYLE_2
 70
     0
 41
0.1875
 47
0.02
 48
0.02
 78
     4
140
0.15625
144
2.0
271
     2
272
     2
284
     4
340
11
341
211
342
211
343
211
344
211
  0
DIMSTYLE
105
23B
330
A
100
AcDbSymbolTableRecord
100
AcDbDimStyleTableRecord
  2
DIMSTYLE_3
 70
     0
 41
0.1875
 47
0.01
 48
0.01
 78
     4
140
0.15625
144
2.0
271
     3
272
     3
284
     4
340
11
341
211
342
211
343
211
344
211
  0
DIMSTYLE
105
23C
330
A
100
AcDbSymbolTableRecord
100
AcDbDimStyleTableRecord
  2
DIMSTYLE_4
 70
     0
 41
0.1875
 47
0.01
 48
0.01
 78
     4
140
0.15625
144
2.0
271
     3
272
     3
284
     4
340
11
341
211
342
211
343
211
344
211
  0
DIMSTYLE
105
23D
330
A
100
AcDbSymbolTableRecord
100
AcDbDimStyleTableRecord
  2
DIMSTYLE_5
 70
     0
 41
0.1875
 47
3.0
 48
3.0
 78
     4
140
0.15625
144
2.0
271
     1
272
     1
284
     4
340
11
341
211
342
211
343
211
344
211
  0
DIMSTYLE
105
6F2
330
A
100
AcDbSymbolTableRecord
100
AcDbDimStyleTableRecord
  2
AM_ANSI
 70
     0
  4
mm
 41
0.1
 42
0.05
 43
0.5
 44
0.1
 47
0.1
 48
0.1
 78
     7
 79
     2
140
0.12
141
0.0
146
0.71
147
0.06
176
   256
177
   256
178
     2
274
     4
284
     7
340
11
371
    -1
372
    -1
1001
ACAD_DSTYLE_DIMARC_LENGTH_SYMBOL
1070
   379
1070
     1
1001
ACAD_DSTYLE_DIMJOGGED_JOGANGLE_SYMBOL
1070
   384
1040
0.7853981633974483
  0
DIMSTYLE
105
6FB
330
A
100
AcDbSymbolTableRecord
100
AcDbDimStyleTableRecord
  2
AM_ANSI$3
 70
     0
  4
mm
 41
0.1
 42
0.05
 43
0.5
 44
0.1
 47
0.1
 48
0.1
 78
     7
 79
     2
140
0.12
141
0.0
146
0.71
147
0.06
176
   256
177
   256
178
     2
274
     4
284
     7
288
     1
289
     0
340
11
371
    -1
372
    -1
1001
ACAD_DSTYLE_DIMARC_LENGTH_SYMBOL
1070
   379
1070
     1
1001
ACAD_DSTYLE_DIMJOGGED_JOGANGLE_SYMBOL
1070
   384
1040
0.7853981633974483
  0
DIMSTYLE
105
6FE
330
A
100
AcDbSymbolTableRecord
100
AcDbDimStyleTableRecord
  2
AM_ANSI$4
 70
     0
  4
mm
 41
0.1
 42
0.05
 43
0.5
 44
0.1
 47
0.1
 48
0.1
 78
     7
 79
     2
140
0.12
141
0.0
146
0.71
147
0.06
176
   256
177
   256
178
     2
274
     4
284
     7
288
     1
289
     0
340
11
371
    -1
372
    -1
1001
ACAD_DSTYLE_DIMARC_LENGTH_SYMBOL
1070
   379
1070
     1
1001
ACAD_DSTYLE_DIMJOGGED_JOGANGLE_SYMBOL
1070
   384
1040
0.7853981633974483
  0
DIMSTYLE
105
703
330
A
100
AcDbSymbolTableRecord
100
AcDbDimStyleTableRecord
  2
AM_ANSI$7
 70
     0
  4
mm
 41
0.1
 42
0.05
 43
0.5
 44
0.1
 47
0.1
 48
0.1
 78
     7
 79
     2
140
0.24
141
0.0
146
0.71
147
0.06
176
   256
177
   256
178
     2
274
     4
284
     7
340
11
371
    -1
372
    -1
1001
ACAD_DSTYLE_DIMARC_LENGTH_SYMBOL
1070
   379
1070
     1
1001
ACAD_DSTYLE_DIMJOGGED_JOGANGLE_SYMBOL
1070
   384
1040
0.7853981633974483
  0
DIMSTYLE
105
706
330
A
100
AcDbSymbolTableRecord
100
AcDbDimStyleTableRecord
  2
AM_ANSI$SF
 70
     0
  4
mm
 41
0.1
 42
0.05
 43
0.5
 44
0.1
 47
0.1
 48
0.1
 75
     1
 76
     1
 78
     7
 79
     2
140
0.12
141
0.0
146
0.71
147
0.06
176
   256
177
   256
178
     2
274
     4
284
     7
340
11
371
    -1
372
    -1
1001
ACAD_DSTYLE_DIMARC_LENGTH_SYMBOL
1070
   379
1070
     1
1001
ACAD_DSTYLE_DIMJOGGED_JOGANGLE_SYMBOL
1070
   384
1040
0.7853981633974483
  0
DIMSTYLE
105
70D
330
A
100
AcDbSymbolTableRecord
100
AcDbDimStyleTableRecord
  2
AM_ANSI$SH
 70
     0
  4
mm
 41
0.1
 42
0.05
 43
0.5
 44
0.1
 47
0.1
 48
0.1
 75
     1
 76
     1
 78
     7
 79
     2
140
0.12
141
0.0
146
0.71
147
0.06
173
     1
176
   256
177
   256
178
     2
274
     4
284
     7
340
11
343
707
371
    -1
372
    -1
1001
ACAD_DSTYLE_DIMARC_LENGTH_SYMBOL
1070
   379
1070
     1
1001
ACAD_DSTYLE_DIMJOGGED_JOGANGLE_SYMBOL
1070
   384
1040
0.7853981633974483
  0
ENDTAB
  0
TABLE
  2
BLOCK_RECORD
  5
1
330
0
100
AcDbSymbolTable
 70
    41
  0
BLOCK_RECORD
  5
1F
330
1
100
AcDbSymbolTableRecord
100
AcDbBlockTableRecord
  2
*MODEL_SPACE
340
22
  0
BLOCK_RECORD
  5
1B
330
1
100
AcDbSymbolTableRecord
100
AcDbBlockTableRecord
  2
*PAPER_SPACE
340
1E
  0
BLOCK_RECORD
  5
212
330
1
100
AcDbSymbolTableRecord
100
AcDbBlockTableRecord
  2
KOHLER_BL0
340
0
  0
BLOCK_RECORD
  5
213
330
1
100
AcDbSymbolTableRecord
100
AcDbBlockTableRecord
  2
C_ARROW_BL1
340
0
  0
BLOCK_RECORD
  5
214
330
1
100
AcDbSymbolTableRecord
100
AcDbBlockTableRecord
  2
C_ARROW_BL2
340
0
  0
BLOCK_RECORD
  5
215
330
1
100
AcDbSymbolTableRecord
100
AcDbBlockTableRecord
  2
C_ARROW_BL3
340
0
  0
BLOCK_RECORD
  5
216
330
1
100
AcDbSymbolTableRecord
100
AcDbBlockTableRecord
  2
C_ARROW_BL4
340
0
  0
BLOCK_RECORD
  5
22C
330
1
100
AcDbSymbolTableRecord
100
AcDbBlockTableRecord
  2
DELTA_BL5
340
0
  0
BLOCK_RECORD
  5
22D
330
1
100
AcDbSymbolTableRecord
100
AcDbBlockTableRecord
  2
DELTA_BL6
340
0
  0
BLOCK_RECORD
  5
22E
330
1
100
AcDbSymbolTableRecord
100
AcDbBlockTableRecord
  2
DELTA_BL7
340
0
  0
BLOCK_RECORD
  5
22F
330
1
100
AcDbSymbolTableRecord
100
AcDbBlockTableRecord
  2
DELTA_BL8
340
0
  0
BLOCK_RECORD
  5
230
330
1
100
AcDbSymbolTableRecord
100
AcDbBlockTableRecord
  2
DELTA_BL9
340
0
  0
BLOCK_RECORD
  5
231
330
1
100
AcDbSymbolTableRecord
100
AcDbBlockTableRecord
  2
DELTA_BL10
340
0
  0
BLOCK_RECORD
  5
232
330
1
100
AcDbSymbolTableRecord
100
AcDbBlockTableRecord
  2
REVISION_BL11
340
0
  0
BLOCK_RECORD
  5
233
330
1
100
AcDbSymbolTableRecord
100
AcDbBlockTableRecord
  2
REVISION_BL12
340
0
  0
BLOCK_RECORD
  5
234
330
1
100
AcDbSymbolTableRecord
100
AcDbBlockTableRecord
  2
REVISION_BL13
340
0
  0
BLOCK_RECORD
  5
235
330
1
100
AcDbSymbolTableRecord
100
AcDbBlockTableRecord
  2
REVISION_BL14
340
0
  0
BLOCK_RECORD
  5
236
330
1
100
AcDbSymbolTableRecord
100
AcDbBlockTableRecord
  2
CHARACTERISTIC_BL15
340
0
  0
BLOCK_RECORD
  5
237
330
1
100
AcDbSymbolTableRecord
100
AcDbBlockTableRecord
  2
CHARACTERISTIC_BL16
340
0
  0
BLOCK_RECORD
  5
211
330
1
100
AcDbSymbolTableRecord
100
AcDbBlockTableRecord
  2
_FILLED
340
0
102
{BLKREFS
331
2BC
331
2BD
331
2C5
331
2C6
331
2CF
331
2D0
331
2D9
331
2DA
331
2E1
331
2E8
331
2F0
331
2F1
331
2F9
331
2FA
331
302
331
303
331
30B
331
30C
331
314
331
315
331
31D
331
31E
331
326
331
327
331
32F
331
330
331
338
331
339
331
341
331
342
331
34A
331
34B
331
353
331
354
331
365
331
366
331
36F
331
370
102
}
  0
BLOCK_RECORD
  5
707
330
1
100
AcDbSymbolTableRecord
100
AcDbBlockTableRecord
  2
GENAXEH
340
0
  0
ENDTAB
  0
ENDSEC
  0
SECTION
  2
BLOCKS
  0
BLOCK
  5
20
330
1F
100
AcDbEntity
  8
0
100
AcDbBlockBegin
  2
*MODEL_SPACE
 70
     0
 10
0.0
 20
0.0
 30
0.0
  3
*MODEL_SPACE
  1

  0
ENDBLK
  5
21
330
1F
100
AcDbEntity
  8
0
100
AcDbBlockEnd
  0
BLOCK
  5
1C
330
1B
100
AcDbEntity
 67
     1
  8
0
100
AcDbBlockBegin
  2
*PAPER_SPACE
 70
     0
 10
0.0
 20
0.0
 30
0.0
  3
*PAPER_SPACE
  1

  0
ENDBLK
  5
1D
330
1B
100
AcDbEntity
 67
     1
  8
0
100
AcDbBlockEnd
  0
BLOCK
  5
23E
330
212
100
AcDbEntity
  8
0
  6
Continuous
 62
     2
100
AcDbBlockBegin
  2
KOHLER_BL0
 70
     0
 10
30.2123715
 20
2.261645999999999
 30
0.0
  3
KOHLER_BL0
  1

  0
ARC
  5
23F
330
212
100
AcDbEntity
  8
0
  6
Continuous
 62
     2
100
AcDbCircle
 10
30.778184
 20
2.31711475
 30
0.0
 40
0.03065625
100
AcDbArc
 50
270.0
 51
90.0
  0
LINE
  5
240
330
212
100
AcDbEntity
  8
0
  6
Continuous
 62
     2
100
AcDbLine
 10
29.528184
 20
2.121020999999999
 30
0.0
 11
29.528184
 21
2.402270999999999
 31
0.0
  0
LINE
  5
241
330
212
100
AcDbEntity
  8
0
  6
Continuous
 62
     2
100
AcDbLine
 10
29.528184
 20
2.402270999999999
 30
0.0
 11
29.595184
 21
2.402270999999999
 31
0.0
  0
LINE
  5
242
330
212
100
AcDbEntity
  8
0
  6
Continuous
 62
     2
100
AcDbLine
 10
29.528184
 20
2.121020999999999
 30
0.0
 11
29.595184
 21
2.121020999999999
 31
0.0
  0
LINE
  5
243
330
212
100
AcDbEntity
  8
0
  6
Continuous
 62
     2
100
AcDbLine
 10
29.778184
 20
2.402270999999999
 30
0.0
 11
29.653184
 21
2.277270999999999
 31
0.0
  0
LINE
  5
244
330
212
100
AcDbEntity
  8
0
  6
Continuous
 62
     2
100
AcDbLine
 10
29.653184
 20
2.277270999999999
 30
0.0
 11
29.778184
 21
2.121020999999999
 31
0.0
  0
CIRCLE
  5
245
330
212
100
AcDbEntity
  8
0
  6
Continuous
 62
     2
100
AcDbCircle
 10
29.887559
 20
2.261645999999999
 30
0.0
 40
0.073625
  0
LINE
  5
246
330
212
100
AcDbEntity
  8
0
  6
Continuous
 62
     2
100
AcDbLine
 10
29.6923821352
 20
2.121020999999999
 30
0.0
 11
29.778184
 21
2.121020999999999
 31
0.0
  0
CIRCLE
  5
247
330
212
100
AcDbEntity
  8
0
  6
Continuous
 62
     2
100
AcDbCircle
 10
29.887559
 20
2.261645999999999
 30
0.0
 40
0.140625
  0
LINE
  5
248
330
212
100
AcDbEntity
  8
0
  6
Continuous
 62
     2
100
AcDbLine
 10
29.595184
 20
2.121020999999999
 30
0.0
 11
29.595184
 21
2.242518668999999
 31
0.0
  0
LINE
  5
249
330
212
100
AcDbEntity
  8
0
  6
Continuous
 62
     2
100
AcDbLine
 10
29.6834316913
 20
2.402270999999999
 30
0.0
 11
29.595184
 21
2.314023308699999
 31
0.0
  0
LINE
  5
24A
330
212
100
AcDbEntity
  8
0
  6
Continuous
 62
     2
100
AcDbLine
 10
29.595184
 20
2.242518668999999
 30
0.0
 11
29.6923821352
 21
2.121020999999999
 31
0.0
  0
LINE
  5
24B
330
212
100
AcDbEntity
  8
0
  6
Continuous
 62
     2
100
AcDbLine
 10
29.6834316913
 20
2.402270999999999
 30
0.0
 11
29.778184
 21
2.402270999999999
 31
0.0
  0
LINE
  5
24C
330
212
100
AcDbEntity
  8
0
  6
Continuous
 62
     2
100
AcDbLine
 10
29.595184
 20
2.402270999999999
 30
0.0
 11
29.595184
 21
2.314023308699999
 31
0.0
  0
LINE
  5
24D
330
212
100
AcDbEntity
  8
0
  6
Continuous
 62
     2
100
AcDbLine
 10
30.059434
 20
2.402270999999999
 30
0.0
 11
30.059434
 21
2.121020999999999
 31
0.0
  0
LINE
  5
24E
330
212
100
AcDbEntity
  8
0
  6
Continuous
 62
     2
100
AcDbLine
 10
30.126434
 20
2.121020999999999
 30
0.0
 11
30.126434
 21
2.243771
 31
0.0
  0
LINE
  5
24F
330
212
100
AcDbEntity
  8
0
  6
Continuous
 62
     2
100
AcDbLine
 10
30.126434
 20
2.310770999999999
 30
0.0
 11
30.126434
 21
2.402270999999999
 31
0.0
  0
LINE
  5
250
330
212
100
AcDbEntity
  8
0
  6
Continuous
 62
     2
100
AcDbLine
 10
30.204559
 20
2.121020999999999
 30
0.0
 11
30.204559
 21
2.243771
 31
0.0
  0
LINE
  5
251
330
212
100
AcDbEntity
  8
0
  6
Continuous
 62
     2
100
AcDbLine
 10
30.204559
 20
2.310770999999999
 30
0.0
 11
30.204559
 21
2.402270999999999
 31
0.0
  0
LINE
  5
252
330
212
100
AcDbEntity
  8
0
  6
Continuous
 62
     2
100
AcDbLine
 10
30.271559
 20
2.402270999999999
 30
0.0
 11
30.271559
 21
2.121020999999999
 31
0.0
  0
LINE
  5
253
330
212
100
AcDbEntity
  8
0
  6
Continuous
 62
     2
100
AcDbLine
 10
30.126434
 20
2.310770999999999
 30
0.0
 11
30.204559
 21
2.310770999999999
 31
0.0
  0
LINE
  5
254
330
212
100
AcDbEntity
  8
0
  6
Continuous
 62
     2
100
AcDbLine
 10
30.126434
 20
2.243771
 30
0.0
 11
30.204559
 21
2.243771
 31
0.0
  0
LINE
  5
255
330
212
100
AcDbEntity
  8
0
  6
Continuous
 62
     2
100
AcDbLine
 10
30.204559
 20
2.121020999999999
 30
0.0
 11
30.271559
 21
2.121020999999999
 31
0.0
  0
LINE
  5
256
330
212
100
AcDbEntity
  8
0
  6
Continuous
 62
     2
100
AcDbLine
 10
30.059434
 20
2.121020999999999
 30
0.0
 11
30.126434
 21
2.121020999999999
 31
0.0
  0
LINE
  5
257
330
212
100
AcDbEntity
  8
0
  6
Continuous
 62
     2
100
AcDbLine
 10
30.204559
 20
2.402270999999999
 30
0.0
 11
30.271559
 21
2.402270999999999
 31
0.0
  0
LINE
  5
258
330
212
100
AcDbEntity
  8
0
  6
Continuous
 62
     2
100
AcDbLine
 10
30.059434
 20
2.402270999999999
 30
0.0
 11
30.126434
 21
2.402270999999999
 31
0.0
  0
LINE
  5
259
330
212
100
AcDbEntity
  8
0
  6
Continuous
 62
     2
100
AcDbLine
 10
30.302809
 20
2.402270999999999
 30
0.0
 11
30.302809
 21
2.121020999999999
 31
0.0
  0
LINE
  5
25A
330
212
100
AcDbEntity
  8
0
  6
Continuous
 62
     2
100
AcDbLine
 10
30.459059
 20
2.188020999999999
 30
0.0
 11
30.459059
 21
2.121020999999999
 31
0.0
  0
LINE
  5
25B
330
212
100
AcDbEntity
  8
0
  6
Continuous
 62
     2
100
AcDbLine
 10
30.302809
 20
2.121020999999999
 30
0.0
 11
30.459059
 21
2.121020999999999
 31
0.0
  0
LINE
  5
25C
330
212
100
AcDbEntity
  8
0
  6
Continuous
 62
     2
100
AcDbLine
 10
30.369809
 20
2.188020999999999
 30
0.0
 11
30.369809
 21
2.402270999999999
 31
0.0
  0
LINE
  5
25D
330
212
100
AcDbEntity
  8
0
  6
Continuous
 62
     2
100
AcDbLine
 10
30.369809
 20
2.188020999999999
 30
0.0
 11
30.459059
 21
2.188020999999999
 31
0.0
  0
LINE
  5
25E
330
212
100
AcDbEntity
  8
0
  6
Continuous
 62
     2
100
AcDbLine
 10
30.302809
 20
2.402270999999999
 30
0.0
 11
30.369809
 21
2.402270999999999
 31
0.0
  0
LINE
  5
25F
330
212
100
AcDbEntity
  8
0
  6
Continuous
 62
     2
100
AcDbLine
 10
30.490309
 20
2.121020999999999
 30
0.0
 11
30.646559
 21
2.121020999999999
 31
0.0
  0
LINE
  5
260
330
212
100
AcDbEntity
  8
0
  6
Continuous
 62
     2
100
AcDbLine
 10
30.646559
 20
2.188020999999999
 30
0.0
 11
30.646559
 21
2.121020999999999
 31
0.0
  0
LINE
  5
261
330
212
100
AcDbEntity
  8
0
  6
Continuous
 62
     2
100
AcDbLine
 10
30.557309
 20
2.188020999999999
 30
0.0
 11
30.646559
 21
2.188020999999999
 31
0.0
  0
LINE
  5
262
330
212
100
AcDbEntity
  8
0
  6
Continuous
 62
     2
100
AcDbLine
 10
30.557309
 20
2.2359585
 30
0.0
 11
30.557309
 21
2.188020999999999
 31
0.0
  0
LINE
  5
263
330
212
100
AcDbEntity
  8
0
  6
Continuous
 62
     2
100
AcDbLine
 10
30.557309
 20
2.335271
 30
0.0
 11
30.646559
 21
2.335271
 31
0.0
  0
LINE
  5
264
330
212
100
AcDbEntity
  8
0
  6
Continuous
 62
     2
100
AcDbLine
 10
30.490309
 20
2.402270999999999
 30
0.0
 11
30.490309
 21
2.121020999999999
 31
0.0
  0
LINE
  5
265
330
212
100
AcDbEntity
  8
0
  6
Continuous
 62
     2
100
AcDbLine
 10
30.646559
 20
2.335271
 30
0.0
 11
30.646559
 21
2.402270999999999
 31
0.0
  0
LINE
  5
266
330
212
100
AcDbEntity
  8
0
  6
Continuous
 62
     2
100
AcDbLine
 10
30.490309
 20
2.402270999999999
 30
0.0
 11
30.646559
 21
2.402270999999999
 31
0.0
  0
LINE
  5
267
330
212
100
AcDbEntity
  8
0
  6
Continuous
 62
     2
100
AcDbLine
 10
30.557309
 20
2.287333499999999
 30
0.0
 11
30.646559
 21
2.287333499999999
 31
0.0
  0
LINE
  5
268
330
212
100
AcDbEntity
  8
0
  6
Continuous
 62
     2
100
AcDbLine
 10
30.646559
 20
2.287333499999999
 30
0.0
 11
30.646559
 21
2.2359585
 31
0.0
  0
LINE
  5
269
330
212
100
AcDbEntity
  8
0
  6
Continuous
 62
     2
100
AcDbLine
 10
30.557309
 20
2.2359585
 30
0.0
 11
30.646559
 21
2.2359585
 31
0.0
  0
LINE
  5
26A
330
212
100
AcDbEntity
  8
0
  6
Continuous
 62
     2
100
AcDbLine
 10
30.557309
 20
2.287333499999999
 30
0.0
 11
30.557309
 21
2.335271
 31
0.0
  0
LINE
  5
26B
330
212
100
AcDbEntity
  8
0
  6
Continuous
 62
     2
100
AcDbLine
 10
30.677809
 20
2.121020999999999
 30
0.0
 11
30.677809
 21
2.402270999999999
 31
0.0
  0
LINE
  5
26C
330
212
100
AcDbEntity
  8
0
  6
Continuous
 62
     2
100
AcDbLine
 10
30.744809
 20
2.230395999999999
 30
0.0
 11
30.744809
 21
2.121020999999999
 31
0.0
  0
ARC
  5
26D
330
212
100
AcDbEntity
  8
0
  6
Continuous
 62
     2
100
AcDbCircle
 10
30.7793715
 20
2.316333499999999
 30
0.0
 40
0.0859375
100
AcDbArc
 50
304.1679402531
 51
90.0
  0
LINE
  5
26E
330
212
100
AcDbEntity
  8
0
  6
Continuous
 62
     2
100
AcDbLine
 10
30.7793715
 20
2.402270999999999
 30
0.0
 11
30.677809
 21
2.402270999999999
 31
0.0
  0
LINE
  5
26F
330
212
100
AcDbEntity
  8
0
  6
Continuous
 62
     2
100
AcDbLine
 10
30.778184
 20
2.347770999999999
 30
0.0
 11
30.744809
 21
2.347770999999999
 31
0.0
  0
LINE
  5
270
330
212
100
AcDbEntity
  8
0
  6
Continuous
 62
     2
100
AcDbLine
 10
30.8276357616
 20
2.2452292458
 30
0.0
 11
30.896559
 21
2.121020999999999
 31
0.0
  0
LINE
  5
271
330
212
100
AcDbEntity
  8
0
  6
Continuous
 62
     2
100
AcDbLine
 10
30.8199350526
 20
2.121020999999999
 30
0.0
 11
30.7592427922
 21
2.230395999999999
 31
0.0
  0
LINE
  5
272
330
212
100
AcDbEntity
  8
0
  6
Continuous
 62
     2
100
AcDbLine
 10
30.677809
 20
2.121020999999999
 30
0.0
 11
30.744809
 21
2.121020999999999
 31
0.0
  0
LINE
  5
273
330
212
100
AcDbEntity
  8
0
  6
Continuous
 62
     2
100
AcDbLine
 10
30.8199350526
 20
2.121020999999999
 30
0.0
 11
30.896559
 21
2.121020999999999
 31
0.0
  0
LINE
  5
274
330
212
100
AcDbEntity
  8
0
  6
Continuous
 62
     2
100
AcDbLine
 10
30.778184
 20
2.2864585
 30
0.0
 11
30.744809
 21
2.2864585
 31
0.0
  0
LINE
  5
275
330
212
100
AcDbEntity
  8
0
  6
Continuous
 62
     2
100
AcDbLine
 10
30.744809
 20
2.347770999999999
 30
0.0
 11
30.744809
 21
2.2864585
 31
0.0
  0
LINE
  5
276
330
212
100
AcDbEntity
  8
0
  6
Continuous
 62
     2
100
AcDbLine
 10
30.744809
 20
2.230395999999999
 30
0.0
 11
30.7592427922
 21
2.230395999999999
 31
0.0
  0
LWPOLYLINE
  5
277
330
212
100
AcDbEntity
  8
0
  6
Continuous
 62
     2
100
AcDbPolyline
 90
       14
 70
     0
 43
0.0
 10
30.896559
 20
2.121020999999999
 10
30.8199350526
 20
2.121020999999999
 10
30.7592427922
 20
2.230395999999999
 10
30.744809
 20
2.230395999999999
 10
30.744809
 20
2.121020999999999
 10
30.677809
 20
2.121020999999999
 10
30.677809
 20
2.347770999999999
 10
30.744809
 20
2.347770999999999
 10
30.744809
 20
2.2864585
 10
30.778184
 20
2.2864585
 10
30.858650134
 20
2.2864585
 10
30.8497683179
 20
2.267043116199999
 10
30.8276357616
 20
2.2452292458
 10
30.896559
 20
2.121020999999999
  0
HATCH
  5
278
330
212
100
AcDbEntity
  8
0
  6
Continuous
 62
     2
100
AcDbHatch
 10
0.0
 20
0.0
 30
0.0
210
0.0
220
0.0
230
1.0
  2
SOLID
 70
     1
 71
     1
 91
        1
 92
        1
 93
       13
 72
     1
 10
30.896559
 20
2.121020999999999
 11
30.8199350526
 21
2.121020999999999
 72
     1
 10
30.8199350526
 20
2.121020999999999
 11
30.7592427922
 21
2.230395999999999
 72
     1
 10
30.7592427922
 20
2.230395999999999
 11
30.744809
 21
2.230395999999999
 72
     1
 10
30.744809
 20
2.230395999999999
 11
30.744809
 21
2.121020999999999
 72
     1
 10
30.744809
 20
2.121020999999999
 11
30.677809
 21
2.121020999999999
 72
     1
 10
30.677809
 20
2.121020999999999
 11
30.677809
 21
2.347770999999999
 72
     1
 10
30.677809
 20
2.347770999999999
 11
30.744809
 21
2.347770999999999
 72
     1
 10
30.744809
 20
2.347770999999999
 11
30.744809
 21
2.2864585
 72
     1
 10
30.744809
 20
2.2864585
 11
30.778184
 21
2.2864585
 72
     1
 10
30.778184
 20
2.2864585
 11
30.858650134
 21
2.2864585
 72
     1
 10
30.858650134
 20
2.2864585
 11
30.8497683179
 21
2.267043116199999
 72
     1
 10
30.8497683179
 20
2.267043116199999
 11
30.8276357616
 21
2.2452292458
 72
     1
 10
30.8276357616
 20
2.2452292458
 11
30.896559
 21
2.121020999999999
 97
        1
330
277
 75
     0
 76
     1
 98
        1
 10
0.0
 20
0.0
450
        0
451
        0
460
0.0
461
0.0
452
        0
462
0.0
453
        0
470

  0
LWPOLYLINE
  5
279
330
212
100
AcDbEntity
  8
0
  6
Continuous
 62
     2
100
AcDbPolyline
 90
       18
 70
     0
 43
0.0
 10
30.677809
 20
2.347770999999999
 10
30.677809
 20
2.402270999999999
 10
30.7793715
 20
2.402270999999999
 10
30.8099349823
 20
2.396652410999999
 10
30.836501987
 20
2.3805313299
 10
30.8555986155
 20
2.356015747599999
 10
30.8647277946
 20
2.326311319
 10
30.8626957941
 20
2.295302191799999
 10
30.858650134
 20
2.2864585
 10
30.778184
 20
2.2864585
 10
30.793512125
 20
2.290565658699999
 10
30.8047330913
 20
2.301786625
 10
30.80884025
 20
2.31711475
 10
30.8047330913
 20
2.332442874999999
 10
30.793512125
 20
2.3436638413
 10
30.778184
 20
2.347770999999999
 10
30.744809
 20
2.347770999999999
 10
30.677809
 20
2.347770999999999
  0
HATCH
  5
27A
330
212
100
AcDbEntity
  8
0
  6
Continuous
 62
     2
100
AcDbHatch
 10
0.0
 20
0.0
 30
0.0
210
0.0
220
0.0
230
1.0
  2
SOLID
 70
     1
 71
     1
 91
        1
 92
        1
 93
       17
 72
     1
 10
30.677809
 20
2.347770999999999
 11
30.677809
 21
2.402270999999999
 72
     1
 10
30.677809
 20
2.402270999999999
 11
30.7793715
 21
2.402270999999999
 72
     1
 10
30.7793715
 20
2.402270999999999
 11
30.8099349823
 21
2.396652410999999
 72
     1
 10
30.8099349823
 20
2.396652410999999
 11
30.836501987
 21
2.3805313299
 72
     1
 10
30.836501987
 20
2.3805313299
 11
30.8555986155
 21
2.356015747599999
 72
     1
 10
30.8555986155
 20
2.356015747599999
 11
30.8647277946
 21
2.326311319
 72
     1
 10
30.8647277946
 20
2.326311319
 11
30.8626957941
 21
2.295302191799999
 72
     1
 10
30.8626957941
 20
2.295302191799999
 11
30.858650134
 21
2.2864585
 72
     1
 10
30.858650134
 20
2.2864585
 11
30.778184
 21
2.2864585
 72
     1
 10
30.778184
 20
2.2864585
 11
30.793512125
 21
2.290565658699999
 72
     1
 10
30.793512125
 20
2.290565658699999
 11
30.8047330913
 21
2.301786625
 72
     1
 10
30.8047330913
 20
2.301786625
 11
30.80884025
 21
2.31711475
 72
     1
 10
30.80884025
 20
2.31711475
 11
30.8047330913
 21
2.332442874999999
 72
     1
 10
30.8047330913
 20
2.332442874999999
 11
30.793512125
 21
2.3436638413
 72
     1
 10
30.793512125
 20
2.3436638413
 11
30.778184
 21
2.347770999999999
 72
     1
 10
30.778184
 20
2.347770999999999
 11
30.744809
 21
2.347770999999999
 72
     1
 10
30.744809
 20
2.347770999999999
 11
30.677809
 21
2.347770999999999
 97
        1
330
279
 75
     0
 76
     1
 98
        1
 10
0.0
 20
0.0
450
        0
451
        0
460
0.0
461
0.0
452
        0
462
0.0
453
        0
470

  0
LWPOLYLINE
  5
27B
330
212
100
AcDbEntity
  8
0
  6
Continuous
 62
     2
100
AcDbPolyline
 90
       12
 70
     0
 43
0.0
 10
29.595184
 20
2.121020999999999
 10
29.528184
 20
2.121020999999999
 10
29.528184
 20
2.402270999999999
 10
29.595184
 20
2.402270999999999
 10
29.595184
 20
2.314023308699999
 10
29.6834316913
 20
2.402270999999999
 10
29.778184
 20
2.402270999999999
 10
29.653184
 20
2.277270999999999
 10
29.778184
 20
2.121020999999999
 10
29.6923821352
 20
2.121020999999999
 10
29.595184
 20
2.242518668999999
 10
29.595184
 20
2.121020999999999
  0
HATCH
  5
27C
330
212
100
AcDbEntity
  8
0
  6
Continuous
 62
     2
100
AcDbHatch
 10
0.0
 20
0.0
 30
0.0
210
0.0
220
0.0
230
1.0
  2
SOLID
 70
     1
 71
     1
 91
        1
 92
        1
 93
       11
 72
     1
 10
29.595184
 20
2.121020999999999
 11
29.528184
 21
2.121020999999999
 72
     1
 10
29.528184
 20
2.121020999999999
 11
29.528184
 21
2.402270999999999
 72
     1
 10
29.528184
 20
2.402270999999999
 11
29.595184
 21
2.402270999999999
 72
     1
 10
29.595184
 20
2.402270999999999
 11
29.595184
 21
2.314023308699999
 72
     1
 10
29.595184
 20
2.314023308699999
 11
29.6834316913
 21
2.402270999999999
 72
     1
 10
29.6834316913
 20
2.402270999999999
 11
29.778184
 21
2.402270999999999
 72
     1
 10
29.778184
 20
2.402270999999999
 11
29.653184
 21
2.277270999999999
 72
     1
 10
29.653184
 20
2.277270999999999
 11
29.778184
 21
2.121020999999999
 72
     1
 10
29.778184
 20
2.121020999999999
 11
29.6923821352
 21
2.121020999999999
 72
     1
 10
29.6923821352
 20
2.121020999999999
 11
29.595184
 21
2.242518668999999
 72
     1
 10
29.595184
 20
2.242518668999999
 11
29.595184
 21
2.121020999999999
 97
        1
330
27B
 75
     0
 76
     1
 98
        1
 10
0.0
 20
0.0
450
        0
451
        0
460
0.0
461
0.0
452
        0
462
0.0
453
        0
470

  0
LWPOLYLINE
  5
27D
330
212
100
AcDbEntity
  8
0
  6
Continuous
 62
     2
100
AcDbPolyline
 90
       23
 70
     0
 43
0.0
 10
29.887559
 20
2.121020999999999
 10
29.8441034852
 20
2.127903677399999
 10
29.8049016989
 20
2.1478779852
 10
29.7737909852
 20
2.1789886989
 10
29.7538166774
 20
2.2181904852
 10
29.746934
 20
2.261645999999999
 10
29.7538166774
 20
2.3051015148
 10
29.7690287706
 20
2.3349569287
 10
29.894352258
 20
2.3349569287
 10
29.8674105624
 20
2.332460413
 10
29.8431900249
 20
2.320400018399999
 10
29.8249617634
 20
2.300404567999999
 10
29.8151876055
 20
2.275174558199999
 10
29.8151876055
 20
2.248117441799999
 10
29.8249617634
 20
2.222887431999999
 10
29.8431900249
 20
2.2028919816
 10
29.8674105624
 20
2.190831586999999
 10
29.894352258
 20
2.1883350713
 10
30.0060892294
 20
2.1883350713
 10
30.0013270148
 20
2.1789886989
 10
29.9702163011
 20
2.1478779852
 10
29.9310145148
 20
2.127903677399999
 10
29.887559
 20
2.121020999999999
  0
HATCH
  5
27E
330
212
100
AcDbEntity
  8
0
  6
Continuous
 62
     2
100
AcDbHatch
 10
0.0
 20
0.0
 30
0.0
210
0.0
220
0.0
230
1.0
  2
SOLID
 70
     1
 71
     1
 91
        1
 92
        1
 93
       22
 72
     1
 10
29.887559
 20
2.121020999999999
 11
29.8441034852
 21
2.127903677399999
 72
     1
 10
29.8441034852
 20
2.127903677399999
 11
29.8049016989
 21
2.1478779852
 72
     1
 10
29.8049016989
 20
2.1478779852
 11
29.7737909852
 21
2.1789886989
 72
     1
 10
29.7737909852
 20
2.1789886989
 11
29.7538166774
 21
2.2181904852
 72
     1
 10
29.7538166774
 20
2.2181904852
 11
29.746934
 21
2.261645999999999
 72
     1
 10
29.746934
 20
2.261645999999999
 11
29.7538166774
 21
2.3051015148
 72
     1
 10
29.7538166774
 20
2.3051015148
 11
29.7690287706
 21
2.3349569287
 72
     1
 10
29.7690287706
 20
2.3349569287
 11
29.894352258
 21
2.3349569287
 72
     1
 10
29.894352258
 20
2.3349569287
 11
29.8674105624
 21
2.332460413
 72
     1
 10
29.8674105624
 20
2.332460413
 11
29.8431900249
 21
2.320400018399999
 72
     1
 10
29.8431900249
 20
2.320400018399999
 11
29.8249617634
 21
2.300404567999999
 72
     1
 10
29.8249617634
 20
2.300404567999999
 11
29.8151876055
 21
2.275174558199999
 72
     1
 10
29.8151876055
 20
2.275174558199999
 11
29.8151876055
 21
2.248117441799999
 72
     1
 10
29.8151876055
 20
2.248117441799999
 11
29.8249617634
 21
2.222887431999999
 72
     1
 10
29.8249617634
 20
2.222887431999999
 11
29.8431900249
 21
2.2028919816
 72
     1
 10
29.8431900249
 20
2.2028919816
 11
29.8674105624
 21
2.190831586999999
 72
     1
 10
29.8674105624
 20
2.190831586999999
 11
29.894352258
 21
2.1883350713
 72
     1
 10
29.894352258
 20
2.1883350713
 11
30.0060892294
 21
2.1883350713
 72
     1
 10
30.0060892294
 20
2.1883350713
 11
30.0013270148
 21
2.1789886989
 72
     1
 10
30.0013270148
 20
2.1789886989
 11
29.9702163011
 21
2.1478779852
 72
     1
 10
29.9702163011
 20
2.1478779852
 11
29.9310145148
 21
2.127903677399999
 72
     1
 10
29.9310145148
 20
2.127903677399999
 11
29.887559
 21
2.121020999999999
 97
        1
330
27D
 75
     0
 76
     1
 98
        1
 10
0.0
 20
0.0
450
        0
451
        0
460
0.0
461
0.0
452
        0
462
0.0
453
        0
470

  0
LWPOLYLINE
  5
27F
330
212
100
AcDbEntity
  8
0
  6
Continuous
 62
     2
100
AcDbPolyline
 90
       22
 70
     0
 43
0.0
 10
29.7690287706
 20
2.3349569287
 10
29.7737909852
 20
2.3443033011
 10
29.8049016989
 20
2.3754140148
 10
29.8441034852
 20
2.3953883226
 10
29.887559
 20
2.402270999999999
 10
29.9310145148
 20
2.3953883226
 10
29.9702163011
 20
2.3754140148
 10
30.0013270148
 20
2.3443033011
 10
30.0213013226
 20
2.3051015148
 10
30.028184
 20
2.261645999999999
 10
30.0213013226
 20
2.2181904852
 10
30.0060892294
 20
2.1883350713
 10
29.894352258
 20
2.1883350713
 10
29.9203764864
 20
2.195739602699999
 10
29.9419685315
 20
2.2120451582
 10
29.9562122679
 20
2.235049582299999
 10
29.961184
 20
2.261645999999999
 10
29.9562122679
 20
2.288242417699999
 10
29.9419685315
 20
2.3112468418
 10
29.9203764864
 20
2.327552397299999
 10
29.894352258
 20
2.3349569287
 10
29.7690287706
 20
2.3349569287
  0
HATCH
  5
280
330
212
100
AcDbEntity
  8
0
  6
Continuous
 62
     2
100
AcDbHatch
 10
0.0
 20
0.0
 30
0.0
210
0.0
220
0.0
230
1.0
  2
SOLID
 70
     1
 71
     1
 91
        1
 92
        1
 93
       21
 72
     1
 10
29.7690287706
 20
2.3349569287
 11
29.7737909852
 21
2.3443033011
 72
     1
 10
29.7737909852
 20
2.3443033011
 11
29.8049016989
 21
2.3754140148
 72
     1
 10
29.8049016989
 20
2.3754140148
 11
29.8441034852
 21
2.3953883226
 72
     1
 10
29.8441034852
 20
2.3953883226
 11
29.887559
 21
2.402270999999999
 72
     1
 10
29.887559
 20
2.402270999999999
 11
29.9310145148
 21
2.3953883226
 72
     1
 10
29.9310145148
 20
2.3953883226
 11
29.9702163011
 21
2.3754140148
 72
     1
 10
29.9702163011
 20
2.3754140148
 11
30.0013270148
 21
2.3443033011
 72
     1
 10
30.0013270148
 20
2.3443033011
 11
30.0213013226
 21
2.3051015148
 72
     1
 10
30.0213013226
 20
2.3051015148
 11
30.028184
 21
2.261645999999999
 72
     1
 10
30.028184
 20
2.261645999999999
 11
30.0213013226
 21
2.2181904852
 72
     1
 10
30.0213013226
 20
2.2181904852
 11
30.0060892294
 21
2.1883350713
 72
     1
 10
30.0060892294
 20
2.1883350713
 11
29.894352258
 21
2.1883350713
 72
     1
 10
29.894352258
 20
2.1883350713
 11
29.9203764864
 21
2.195739602699999
 72
     1
 10
29.9203764864
 20
2.195739602699999
 11
29.9419685315
 21
2.2120451582
 72
     1
 10
29.9419685315
 20
2.2120451582
 11
29.9562122679
 21
2.235049582299999
 72
     1
 10
29.9562122679
 20
2.235049582299999
 11
29.961184
 21
2.261645999999999
 72
     1
 10
29.961184
 20
2.261645999999999
 11
29.9562122679
 21
2.288242417699999
 72
     1
 10
29.9562122679
 20
2.288242417699999
 11
29.9419685315
 21
2.3112468418
 72
     1
 10
29.9419685315
 20
2.3112468418
 11
29.9203764864
 21
2.327552397299999
 72
     1
 10
29.9203764864
 20
2.327552397299999
 11
29.894352258
 21
2.3349569287
 72
     1
 10
29.894352258
 20
2.3349569287
 11
29.7690287706
 21
2.3349569287
 97
        1
330
27F
 75
     0
 76
     1
 98
        1
 10
0.0
 20
0.0
450
        0
451
        0
460
0.0
461
0.0
452
        0
462
0.0
453
        0
470

  0
LWPOLYLINE
  5
281
330
212
100
AcDbEntity
  8
0
  6
Continuous
 62
     2
100
AcDbPolyline
 90
       13
 70
     0
 43
0.0
 10
30.126434
 20
2.121020999999999
 10
30.059434
 20
2.121020999999999
 10
30.059434
 20
2.402270999999999
 10
30.126434
 20
2.402270999999999
 10
30.126434
 20
2.310770999999999
 10
30.204559
 20
2.310770999999999
 10
30.204559
 20
2.402270999999999
 10
30.271559
 20
2.402270999999999
 10
30.271559
 20
2.121020999999999
 10
30.204559
 20
2.121020999999999
 10
30.204559
 20
2.243771
 10
30.126434
 20
2.243771
 10
30.126434
 20
2.121020999999999
  0
HATCH
  5
282
330
212
100
AcDbEntity
  8
0
  6
Continuous
 62
     2
100
AcDbHatch
 10
0.0
 20
0.0
 30
0.0
210
0.0
220
0.0
230
1.0
  2
SOLID
 70
     1
 71
     1
 91
        1
 92
        1
 93
       12
 72
     1
 10
30.126434
 20
2.121020999999999
 11
30.059434
 21
2.121020999999999
 72
     1
 10
30.059434
 20
2.121020999999999
 11
30.059434
 21
2.402270999999999
 72
     1
 10
30.059434
 20
2.402270999999999
 11
30.126434
 21
2.402270999999999
 72
     1
 10
30.126434
 20
2.402270999999999
 11
30.126434
 21
2.310770999999999
 72
     1
 10
30.126434
 20
2.310770999999999
 11
30.204559
 21
2.310770999999999
 72
     1
 10
30.204559
 20
2.310770999999999
 11
30.204559
 21
2.402270999999999
 72
     1
 10
30.204559
 20
2.402270999999999
 11
30.271559
 21
2.402270999999999
 72
     1
 10
30.271559
 20
2.402270999999999
 11
30.271559
 21
2.121020999999999
 72
     1
 10
30.271559
 20
2.121020999999999
 11
30.204559
 21
2.121020999999999
 72
     1
 10
30.204559
 20
2.121020999999999
 11
30.204559
 21
2.243771
 72
     1
 10
30.204559
 20
2.243771
 11
30.126434
 21
2.243771
 72
     1
 10
30.126434
 20
2.243771
 11
30.126434
 21
2.121020999999999
 97
        1
330
281
 75
     0
 76
     1
 98
        1
 10
0.0
 20
0.0
450
        0
451
        0
460
0.0
461
0.0
452
        0
462
0.0
453
        0
470

  0
LWPOLYLINE
  5
283
330
212
100
AcDbEntity
  8
0
  6
Continuous
 62
     2
100
AcDbPolyline
 90
        7
 70
     0
 43
0.0
 10
30.459059
 20
2.121020999999999
 10
30.302809
 20
2.121020999999999
 10
30.302809
 20
2.402270999999999
 10
30.369809
 20
2.402270999999999
 10
30.369809
 20
2.188020999999999
 10
30.459059
 20
2.188020999999999
 10
30.459059
 20
2.121020999999999
  0
HATCH
  5
284
330
212
100
AcDbEntity
  8
0
  6
Continuous
 62
     2
100
AcDbHatch
 10
0.0
 20
0.0
 30
0.0
210
0.0
220
0.0
230
1.0
  2
SOLID
 70
     1
 71
     1
 91
        1
 92
        1
 93
        6
 72
     1
 10
30.459059
 20
2.121020999999999
 11
30.302809
 21
2.121020999999999
 72
     1
 10
30.302809
 20
2.121020999999999
 11
30.302809
 21
2.402270999999999
 72
     1
 10
30.302809
 20
2.402270999999999
 11
30.369809
 21
2.402270999999999
 72
     1
 10
30.369809
 20
2.402270999999999
 11
30.369809
 21
2.188020999999999
 72
     1
 10
30.369809
 20
2.188020999999999
 11
30.459059
 21
2.188020999999999
 72
     1
 10
30.459059
 20
2.188020999999999
 11
30.459059
 21
2.121020999999999
 97
        1
330
283
 75
     0
 76
     1
 98
        1
 10
0.0
 20
0.0
450
        0
451
        0
460
0.0
461
0.0
452
        0
462
0.0
453
        0
470

  0
LWPOLYLINE
  5
285
330
212
100
AcDbEntity
  8
0
  6
Continuous
 62
     2
100
AcDbPolyline
 90
       13
 70
     0
 43
0.0
 10
30.646559
 20
2.121020999999999
 10
30.490309
 20
2.121020999999999
 10
30.490309
 20
2.402270999999999
 10
30.646559
 20
2.402270999999999
 10
30.646559
 20
2.335271
 10
30.557309
 20
2.335271
 10
30.557309
 20
2.287333499999999
 10
30.646559
 20
2.287333499999999
 10
30.646559
 20
2.2359585
 10
30.557309
 20
2.2359585
 10
30.557309
 20
2.188020999999999
 10
30.646559
 20
2.188020999999999
 10
30.646559
 20
2.121020999999999
  0
HATCH
  5
286
330
212
100
AcDbEntity
  8
0
  6
Continuous
 62
     2
100
AcDbHatch
 10
0.0
 20
0.0
 30
0.0
210
0.0
220
0.0
230
1.0
  2
SOLID
 70
     1
 71
     1
 91
        1
 92
        1
 93
       12
 72
     1
 10
30.646559
 20
2.121020999999999
 11
30.490309
 21
2.121020999999999
 72
     1
 10
30.490309
 20
2.121020999999999
 11
30.490309
 21
2.402270999999999
 72
     1
 10
30.490309
 20
2.402270999999999
 11
30.646559
 21
2.402270999999999
 72
     1
 10
30.646559
 20
2.402270999999999
 11
30.646559
 21
2.335271
 72
     1
 10
30.646559
 20
2.335271
 11
30.557309
 21
2.335271
 72
     1
 10
30.557309
 20
2.335271
 11
30.557309
 21
2.287333499999999
 72
     1
 10
30.557309
 20
2.287333499999999
 11
30.646559
 21
2.287333499999999
 72
     1
 10
30.646559
 20
2.287333499999999
 11
30.646559
 21
2.2359585
 72
     1
 10
30.646559
 20
2.2359585
 11
30.557309
 21
2.2359585
 72
     1
 10
30.557309
 20
2.2359585
 11
30.557309
 21
2.188020999999999
 72
     1
 10
30.557309
 20
2.188020999999999
 11
30.646559
 21
2.188020999999999
 72
     1
 10
30.646559
 20
2.188020999999999
 11
30.646559
 21
2.121020999999999
 97
        1
330
285
 75
     0
 76
     1
 98
        1
 10
0.0
 20
0.0
450
        0
451
        0
460
0.0
461
0.0
452
        0
462
0.0
453
        0
470

  0
ENDBLK
  5
287
330
212
100
AcDbEntity
  8
0
  6
ByBlock
 62
     0
100
AcDbBlockEnd
  0
BLOCK
  5
288
330
213
100
AcDbEntity
  8
DEFAULT_2
  6
HIDDEN
 62
     8
100
AcDbBlockBegin
  2
C_ARROW_BL1
 70
     0
 10
17.0
 20
21.775
 30
0.0
  3
C_ARROW_BL1
  1

  0
LINE
  5
289
330
213
100
AcDbEntity
  8
DEFAULT_2
  6
HIDDEN
 62
     8
100
AcDbLine
 10
17.0
 20
21.5875
 30
0.0
 11
17.09375
 21
21.775
 31
0.0
  0
LINE
  5
28A
330
213
100
AcDbEntity
  8
DEFAULT_2
  6
HIDDEN
 62
     8
100
AcDbLine
 10
17.0
 20
21.5875
 30
0.0
 11
16.90625
 21
21.775
 31
0.0
  0
LINE
  5
28B
330
213
100
AcDbEntity
  8
DEFAULT_2
  6
HIDDEN
 62
     8
100
AcDbLine
 10
16.9765625
 20
21.775
 30
0.0
 11
16.90625
 21
21.775
 31
0.0
  0
LINE
  5
28C
330
213
100
AcDbEntity
  8
DEFAULT_2
  6
HIDDEN
 62
     8
100
AcDbLine
 10
16.9765625
 20
21.9625
 30
0.0
 11
16.9765625
 21
21.775
 31
0.0
  0
LINE
  5
28D
330
213
100
AcDbEntity
  8
DEFAULT_2
  6
HIDDEN
 62
     8
100
AcDbLine
 10
16.9765625
 20
21.9625
 30
0.0
 11
17.0234375
 21
21.9625
 31
0.0
  0
LINE
  5
28E
330
213
100
AcDbEntity
  8
DEFAULT_2
  6
HIDDEN
 62
     8
100
AcDbLine
 10
17.0234375
 20
21.775
 30
0.0
 11
17.0234375
 21
21.9625
 31
0.0
  0
LINE
  5
28F
330
213
100
AcDbEntity
  8
DEFAULT_2
  6
HIDDEN
 62
     8
100
AcDbLine
 10
17.09375
 20
21.775
 30
0.0
 11
17.0234375
 21
21.775
 31
0.0
  0
LWPOLYLINE
  5
290
330
213
100
AcDbEntity
  8
DEFAULT_2
  6
HIDDEN
 62
     8
100
AcDbPolyline
 90
        8
 70
     0
 43
0.0
 10
17.0
 20
21.5875
 10
16.90625
 20
21.775
 10
16.9765625
 20
21.775
 10
16.9765625
 20
21.9625
 10
17.0234375
 20
21.9625
 10
17.0234375
 20
21.775
 10
17.09375
 20
21.775
 10
17.0
 20
21.5875
  0
HATCH
  5
291
330
213
100
AcDbEntity
  8
DEFAULT_2
  6
HIDDEN
 62
     8
100
AcDbHatch
 10
0.0
 20
0.0
 30
0.0
210
0.0
220
0.0
230
1.0
  2
SOLID
 70
     1
 71
     1
 91
        1
 92
        1
 93
        7
 72
     1
 10
17.0
 20
21.5875
 11
16.90625
 21
21.775
 72
     1
 10
16.90625
 20
21.775
 11
16.9765625
 21
21.775
 72
     1
 10
16.9765625
 20
21.775
 11
16.9765625
 21
21.9625
 72
     1
 10
16.9765625
 20
21.9625
 11
17.0234375
 21
21.9625
 72
     1
 10
17.0234375
 20
21.9625
 11
17.0234375
 21
21.775
 72
     1
 10
17.0234375
 20
21.775
 11
17.09375
 21
21.775
 72
     1
 10
17.09375
 20
21.775
 11
17.0
 21
21.5875
 97
        1
330
290
 75
     0
 76
     1
 98
        1
 10
0.0
 20
0.0
450
        0
451
        0
460
0.0
461
0.0
452
        0
462
0.0
453
        0
470

  0
ENDBLK
  5
292
330
213
100
AcDbEntity
  8
0
  6
ByBlock
 62
     0
100
AcDbBlockEnd
  0
BLOCK
  5
293
330
214
100
AcDbEntity
  8
DEFAULT_2
  6
HIDDEN
 62
     8
100
AcDbBlockBegin
  2
C_ARROW_BL2
 70
     0
 10
0.3375
 20
11.0
 30
0.0
  3
C_ARROW_BL2
  1

  0
LINE
  5
294
330
214
100
AcDbEntity
  8
DEFAULT_2
  6
HIDDEN
 62
     8
100
AcDbLine
 10
0.525
 20
11.0
 30
0.0
 11
0.3375
 21
11.09375
 31
0.0
  0
LINE
  5
295
330
214
100
AcDbEntity
  8
DEFAULT_2
  6
HIDDEN
 62
     8
100
AcDbLine
 10
0.525
 20
11.0
 30
0.0
 11
0.3375
 21
10.90625
 31
0.0
  0
LINE
  5
296
330
214
100
AcDbEntity
  8
DEFAULT_2
  6
HIDDEN
 62
     8
100
AcDbLine
 10
0.3375
 20
10.9765625
 30
0.0
 11
0.3375
 21
10.90625
 31
0.0
  0
LINE
  5
297
330
214
100
AcDbEntity
  8
DEFAULT_2
  6
HIDDEN
 62
     8
100
AcDbLine
 10
0.15
 20
10.9765625
 30
0.0
 11
0.3375
 21
10.9765625
 31
0.0
  0
LINE
  5
298
330
214
100
AcDbEntity
  8
DEFAULT_2
  6
HIDDEN
 62
     8
100
AcDbLine
 10
0.15
 20
10.9765625
 30
0.0
 11
0.15
 21
11.0234375
 31
0.0
  0
LINE
  5
299
330
214
100
AcDbEntity
  8
DEFAULT_2
  6
HIDDEN
 62
     8
100
AcDbLine
 10
0.3375
 20
11.0234375
 30
0.0
 11
0.15
 21
11.0234375
 31
0.0
  0
LINE
  5
29A
330
214
100
AcDbEntity
  8
DEFAULT_2
  6
HIDDEN
 62
     8
100
AcDbLine
 10
0.3375
 20
11.09375
 30
0.0
 11
0.3375
 21
11.0234375
 31
0.0
  0
LWPOLYLINE
  5
29B
330
214
100
AcDbEntity
  8
DEFAULT_2
  6
HIDDEN
 62
     8
100
AcDbPolyline
 90
        8
 70
     0
 43
0.0
 10
0.525
 20
11.0
 10
0.3375
 20
10.90625
 10
0.3375
 20
10.9765625
 10
0.15
 20
10.9765625
 10
0.15
 20
11.0234375
 10
0.3375
 20
11.0234375
 10
0.3375
 20
11.09375
 10
0.525
 20
11.0
  0
HATCH
  5
29C
330
214
100
AcDbEntity
  8
DEFAULT_2
  6
HIDDEN
 62
     8
100
AcDbHatch
 10
0.0
 20
0.0
 30
0.0
210
0.0
220
0.0
230
1.0
  2
SOLID
 70
     1
 71
     1
 91
        1
 92
        1
 93
        7
 72
     1
 10
0.525
 20
11.0
 11
0.3375
 21
10.90625
 72
     1
 10
0.3375
 20
10.90625
 11
0.3375
 21
10.9765625
 72
     1
 10
0.3375
 20
10.9765625
 11
0.15
 21
10.9765625
 72
     1
 10
0.15
 20
10.9765625
 11
0.15
 21
11.0234375
 72
     1
 10
0.15
 20
11.0234375
 11
0.3375
 21
11.0234375
 72
     1
 10
0.3375
 20
11.0234375
 11
0.3375
 21
11.09375
 72
     1
 10
0.3375
 20
11.09375
 11
0.525
 21
11.0
 97
        1
330
29B
 75
     0
 76
     1
 98
        1
 10
0.0
 20
0.0
450
        0
451
        0
460
0.0
461
0.0
452
        0
462
0.0
453
        0
470

  0
ENDBLK
  5
29D
330
214
100
AcDbEntity
  8
0
  6
ByBlock
 62
     0
100
AcDbBlockEnd
  0
BLOCK
  5
29E
330
215
100
AcDbEntity
  8
DEFAULT_2
  6
HIDDEN
 62
     8
100
AcDbBlockBegin
  2
C_ARROW_BL3
 70
     0
 10
17.0
 20
0.4
 30
0.0
  3
C_ARROW_BL3
  1

  0
LINE
  5
29F
330
215
100
AcDbEntity
  8
DEFAULT_2
  6
HIDDEN
 62
     8
100
AcDbLine
 10
17.0
 20
0.5875
 30
0.0
 11
16.90625
 21
0.4
 31
0.0
  0
LINE
  5
2A0
330
215
100
AcDbEntity
  8
DEFAULT_2
  6
HIDDEN
 62
     8
100
AcDbLine
 10
17.0
 20
0.5875
 30
0.0
 11
17.09375
 21
0.4
 31
0.0
  0
LINE
  5
2A1
330
215
100
AcDbEntity
  8
DEFAULT_2
  6
HIDDEN
 62
     8
100
AcDbLine
 10
17.0234375
 20
0.4
 30
0.0
 11
17.09375
 21
0.4
 31
0.0
  0
LINE
  5
2A2
330
215
100
AcDbEntity
  8
DEFAULT_2
  6
HIDDEN
 62
     8
100
AcDbLine
 10
17.0234375
 20
0.2125
 30
0.0
 11
17.0234375
 21
0.4
 31
0.0
  0
LINE
  5
2A3
330
215
100
AcDbEntity
  8
DEFAULT_2
  6
HIDDEN
 62
     8
100
AcDbLine
 10
17.0234375
 20
0.2125
 30
0.0
 11
16.9765625
 21
0.2125
 31
0.0
  0
LINE
  5
2A4
330
215
100
AcDbEntity
  8
DEFAULT_2
  6
HIDDEN
 62
     8
100
AcDbLine
 10
16.9765625
 20
0.4
 30
0.0
 11
16.9765625
 21
0.2125
 31
0.0
  0
LINE
  5
2A5
330
215
100
AcDbEntity
  8
DEFAULT_2
  6
HIDDEN
 62
     8
100
AcDbLine
 10
16.90625
 20
0.4
 30
0.0
 11
16.9765625
 21
0.4
 31
0.0
  0
LWPOLYLINE
  5
2A6
330
215
100
AcDbEntity
  8
DEFAULT_2
  6
HIDDEN
 62
     8
100
AcDbPolyline
 90
        8
 70
     0
 43
0.0
 10
17.0
 20
0.5875
 10
17.09375
 20
0.4
 10
17.0234375
 20
0.4
 10
17.0234375
 20
0.2125
 10
16.9765625
 20
0.2125
 10
16.9765625
 20
0.4
 10
16.90625
 20
0.4
 10
17.0
 20
0.5875
  0
HATCH
  5
2A7
330
215
100
AcDbEntity
  8
DEFAULT_2
  6
HIDDEN
 62
     8
100
AcDbHatch
 10
0.0
 20
0.0
 30
0.0
210
0.0
220
0.0
230
1.0
  2
SOLID
 70
     1
 71
     1
 91
        1
 92
        1
 93
        7
 72
     1
 10
17.0
 20
0.5875
 11
17.09375
 21
0.4
 72
     1
 10
17.09375
 20
0.4
 11
17.0234375
 21
0.4
 72
     1
 10
17.0234375
 20
0.4
 11
17.0234375
 21
0.2125
 72
     1
 10
17.0234375
 20
0.2125
 11
16.9765625
 21
0.2125
 72
     1
 10
16.9765625
 20
0.2125
 11
16.9765625
 21
0.4
 72
     1
 10
16.9765625
 20
0.4
 11
16.90625
 21
0.4
 72
     1
 10
16.90625
 20
0.4
 11
17.0
 21
0.5875
 97
        1
330
2A6
 75
     0
 76
     1
 98
        1
 10
0.0
 20
0.0
450
        0
451
        0
460
0.0
461
0.0
452
        0
462
0.0
453
        0
470

  0
ENDBLK
  5
2A8
330
215
100
AcDbEntity
  8
0
  6
ByBlock
 62
     0
100
AcDbBlockEnd
  0
BLOCK
  5
2A9
330
216
100
AcDbEntity
  8
DEFAULT_2
  6
HIDDEN
 62
     8
100
AcDbBlockBegin
  2
C_ARROW_BL4
 70
     0
 10
33.7125
 20
11.0
 30
0.0
  3
C_ARROW_BL4
  1

  0
LINE
  5
2AA
330
216
100
AcDbEntity
  8
DEFAULT_2
  6
HIDDEN
 62
     8
100
AcDbLine
 10
33.525
 20
11.0
 30
0.0
 11
33.7125
 21
10.90625
 31
0.0
  0
LINE
  5
2AB
330
216
100
AcDbEntity
  8
DEFAULT_2
  6
HIDDEN
 62
     8
100
AcDbLine
 10
33.525
 20
11.0
 30
0.0
 11
33.7125
 21
11.09375
 31
0.0
  0
LINE
  5
2AC
330
216
100
AcDbEntity
  8
DEFAULT_2
  6
HIDDEN
 62
     8
100
AcDbLine
 10
33.7125
 20
11.0234375
 30
0.0
 11
33.7125
 21
11.09375
 31
0.0
  0
LINE
  5
2AD
330
216
100
AcDbEntity
  8
DEFAULT_2
  6
HIDDEN
 62
     8
100
AcDbLine
 10
33.9
 20
11.0234375
 30
0.0
 11
33.7125
 21
11.0234375
 31
0.0
  0
LINE
  5
2AE
330
216
100
AcDbEntity
  8
DEFAULT_2
  6
HIDDEN
 62
     8
100
AcDbLine
 10
33.9
 20
11.0234375
 30
0.0
 11
33.9
 21
10.9765625
 31
0.0
  0
LINE
  5
2AF
330
216
100
AcDbEntity
  8
DEFAULT_2
  6
HIDDEN
 62
     8
100
AcDbLine
 10
33.7125
 20
10.9765625
 30
0.0
 11
33.9
 21
10.9765625
 31
0.0
  0
LINE
  5
2B0
330
216
100
AcDbEntity
  8
DEFAULT_2
  6
HIDDEN
 62
     8
100
AcDbLine
 10
33.7125
 20
10.90625
 30
0.0
 11
33.7125
 21
10.9765625
 31
0.0
  0
LWPOLYLINE
  5
2B1
330
216
100
AcDbEntity
  8
DEFAULT_2
  6
HIDDEN
 62
     8
100
AcDbPolyline
 90
        8
 70
     0
 43
0.0
 10
33.525
 20
11.0
 10
33.7125
 20
11.09375
 10
33.7125
 20
11.0234375
 10
33.9
 20
11.0234375
 10
33.9
 20
10.9765625
 10
33.7125
 20
10.9765625
 10
33.7125
 20
10.90625
 10
33.525
 20
11.0
  0
HATCH
  5
2B2
330
216
100
AcDbEntity
  8
DEFAULT_2
  6
HIDDEN
 62
     8
100
AcDbHatch
 10
0.0
 20
0.0
 30
0.0
210
0.0
220
0.0
230
1.0
  2
SOLID
 70
     1
 71
     1
 91
        1
 92
        1
 93
        7
 72
     1
 10
33.525
 20
11.0
 11
33.7125
 21
11.09375
 72
     1
 10
33.7125
 20
11.09375
 11
33.7125
 21
11.0234375
 72
     1
 10
33.7125
 20
11.0234375
 11
33.9
 21
11.0234375
 72
     1
 10
33.9
 20
11.0234375
 11
33.9
 21
10.9765625
 72
     1
 10
33.9
 20
10.9765625
 11
33.7125
 21
10.9765625
 72
     1
 10
33.7125
 20
10.9765625
 11
33.7125
 21
10.90625
 72
     1
 10
33.7125
 20
10.90625
 11
33.525
 21
11.0
 97
        1
330
2B1
 75
     0
 76
     1
 98
        1
 10
0.0
 20
0.0
450
        0
451
        0
460
0.0
461
0.0
452
        0
462
0.0
453
        0
470

  0
ENDBLK
  5
2B3
330
216
100
AcDbEntity
  8
0
  6
ByBlock
 62
     0
100
AcDbBlockEnd
  0
BLOCK
  5
372
330
22C
100
AcDbEntity
  8
___SYMBOL
  6
Continuous
 62
     2
100
AcDbBlockBegin
  2
DELTA_BL5
 70
     0
 10
28.6134686528
 20
2.342089393999999
 30
0.0
  3
DELTA_BL5
  1

  0
TEXT
  5
373
330
22C
100
AcDbEntity
  8
___SYMBOL
  6
Continuous
 62
     2
100
AcDbText
 10
28.5450204776
 20
2.208960983799999
 30
0.0
 40
0.15625
  1
C
 41
0.8
100
AcDbText
  0
LINE
  5
374
330
22C
100
AcDbEntity
  8
___SYMBOL
  6
Continuous
 62
     7
100
AcDbLine
 10
28.8382401644
 20
2.166347362299999
 30
0.0
 11
28.3886971413
 21
2.166347362299999
 31
0.0
  0
LINE
  5
375
330
22C
100
AcDbEntity
  8
___SYMBOL
  6
Continuous
 62
     7
100
AcDbLine
 10
28.3886971413
 20
2.166347362299999
 30
0.0
 11
28.6039174554
 21
2.517831425699999
 31
0.0
  0
LINE
  5
376
330
22C
100
AcDbEntity
  8
___SYMBOL
  6
Continuous
 62
     7
100
AcDbLine
 10
28.6039174554
 20
2.517831425699999
 30
0.0
 11
28.8382401644
 21
2.166347362299999
 31
0.0
  0
ENDBLK
  5
377
330
22C
100
AcDbEntity
  8
0
  6
ByBlock
 62
     0
100
AcDbBlockEnd
  0
BLOCK
  5
378
330
22D
100
AcDbEntity
  8
___SYMBOL
  6
Continuous
 62
     2
100
AcDbBlockBegin
  2
DELTA_BL6
 70
     0
 10
26.9768091881
 20
7.729961434499999
 30
0.0
  3
DELTA_BL6
  1

  0
TEXT
  5
379
330
22D
100
AcDbEntity
  8
___SYMBOL
  6
Continuous
 62
     2
100
AcDbText
 10
26.9083610128
 20
7.5968330242
 30
0.0
 40
0.15625
  1
 
 41
0.8
100
AcDbText
  0
LINE
  5
37A
330
22D
100
AcDbEntity
  8
___SYMBOL
  6
Continuous
 62
     7
100
AcDbLine
 10
27.2015806996
 20
7.5542194028
 30
0.0
 11
26.7520376765
 21
7.5542194028
 31
0.0
  0
LINE
  5
37B
330
22D
100
AcDbEntity
  8
___SYMBOL
  6
Continuous
 62
     7
100
AcDbLine
 10
26.7520376765
 20
7.5542194028
 30
0.0
 11
26.9672579907
 21
7.9057034662
 31
0.0
  0
LINE
  5
37C
330
22D
100
AcDbEntity
  8
___SYMBOL
  6
Continuous
 62
     7
100
AcDbLine
 10
26.9672579907
 20
7.9057034662
 30
0.0
 11
27.2015806996
 21
7.5542194028
 31
0.0
  0
ENDBLK
  5
37D
330
22D
100
AcDbEntity
  8
0
  6
ByBlock
 62
     0
100
AcDbBlockEnd
  0
BLOCK
  5
37E
330
22E
100
AcDbEntity
  8
___SYMBOL
  6
Continuous
 62
     2
100
AcDbBlockBegin
  2
DELTA_BL7
 70
     0
 10
26.976563972
 20
7.2333619115
 30
0.0
  3
DELTA_BL7
  1

  0
TEXT
  5
37F
330
22E
100
AcDbEntity
  8
___SYMBOL
  6
Continuous
 62
     2
100
AcDbText
 10
26.9081157968
 20
7.100233501299999
 30
0.0
 40
0.15625
  1
 
 41
0.8
100
AcDbText
  0
LINE
  5
380
330
22E
100
AcDbEntity
  8
___SYMBOL
  6
Continuous
 62
     7
100
AcDbLine
 10
27.2013354836
 20
7.057619879799999
 30
0.0
 11
26.7517924605
 21
7.057619879799999
 31
0.0
  0
LINE
  5
381
330
22E
100
AcDbEntity
  8
___SYMBOL
  6
Continuous
 62
     7
100
AcDbLine
 10
26.7517924605
 20
7.057619879799999
 30
0.0
 11
26.9670127746
 21
7.409103943199999
 31
0.0
  0
LINE
  5
382
330
22E
100
AcDbEntity
  8
___SYMBOL
  6
Continuous
 62
     7
100
AcDbLine
 10
26.9670127746
 20
7.409103943199999
 30
0.0
 11
27.2013354836
 21
7.057619879799999
 31
0.0
  0
ENDBLK
  5
383
330
22E
100
AcDbEntity
  8
0
  6
ByBlock
 62
     0
100
AcDbBlockEnd
  0
BLOCK
  5
384
330
22F
100
AcDbEntity
  8
___SYMBOL
  6
Continuous
 62
     2
100
AcDbBlockBegin
  2
DELTA_BL8
 70
     0
 10
26.9873865811
 20
5.365184702199999
 30
0.0
  3
DELTA_BL8
  1

  0
TEXT
  5
385
330
22F
100
AcDbEntity
  8
___SYMBOL
  6
Continuous
 62
     2
100
AcDbText
 10
26.9189384059
 20
5.232056292
 30
0.0
 40
0.15625
  1
 
 41
0.8
100
AcDbText
  0
LINE
  5
386
330
22F
100
AcDbEntity
  8
___SYMBOL
  6
Continuous
 62
     7
100
AcDbLine
 10
27.2121580927
 20
5.1894426705
 30
0.0
 11
26.7626150696
 21
5.1894426705
 31
0.0
  0
LINE
  5
387
330
22F
100
AcDbEntity
  8
___SYMBOL
  6
Continuous
 62
     7
100
AcDbLine
 10
26.7626150696
 20
5.1894426705
 30
0.0
 11
26.9778353838
 21
5.5409267339
 31
0.0
  0
LINE
  5
388
330
22F
100
AcDbEntity
  8
___SYMBOL
  6
Continuous
 62
     7
100
AcDbLine
 10
26.9778353838
 20
5.5409267339
 30
0.0
 11
27.2121580927
 21
5.1894426705
 31
0.0
  0
ENDBLK
  5
389
330
22F
100
AcDbEntity
  8
0
  6
ByBlock
 62
     0
100
AcDbBlockEnd
  0
BLOCK
  5
38A
330
230
100
AcDbEntity
  8
0
  6
Continuous
 62
     2
100
AcDbBlockBegin
  2
DELTA_BL9
 70
     0
 10
26.9873865811
 20
4.9205958009
 30
0.0
  3
DELTA_BL9
  1

  0
TEXT
  5
38B
330
230
100
AcDbEntity
  8
0
  6
Continuous
 62
     2
100
AcDbText
 10
26.9189384059
 20
4.787467390599999
 30
0.0
 40
0.15625
  1
 
 41
0.8
100
AcDbText
  0
LINE
  5
38C
330
230
100
AcDbEntity
  8
0
  6
Continuous
 62
     7
100
AcDbLine
 10
27.2121580927
 20
4.744853769199999
 30
0.0
 11
26.7626150696
 21
4.744853769199999
 31
0.0
  0
LINE
  5
38D
330
230
100
AcDbEntity
  8
0
  6
Continuous
 62
     7
100
AcDbLine
 10
26.7626150696
 20
4.744853769199999
 30
0.0
 11
26.9778353838
 21
5.096337832599999
 31
0.0
  0
LINE
  5
38E
330
230
100
AcDbEntity
  8
0
  6
Continuous
 62
     7
100
AcDbLine
 10
26.9778353838
 20
5.096337832599999
 30
0.0
 11
27.2121580927
 21
4.744853769199999
 31
0.0
  0
ENDBLK
  5
38F
330
230
100
AcDbEntity
  8
0
  6
ByBlock
 62
     0
100
AcDbBlockEnd
  0
BLOCK
  5
390
330
231
100
AcDbEntity
  8
0
  6
Continuous
 62
     2
100
AcDbBlockBegin
  2
DELTA_BL10
 70
     0
 10
26.9873865811
 20
4.476006899499999
 30
0.0
  3
DELTA_BL10
  1

  0
TEXT
  5
391
330
231
100
AcDbEntity
  8
0
  6
Continuous
 62
     2
100
AcDbText
 10
26.9189384059
 20
4.3428784893
 30
0.0
 40
0.15625
  1
 
 41
0.8
100
AcDbText
  0
LINE
  5
392
330
231
100
AcDbEntity
  8
0
  6
Continuous
 62
     7
100
AcDbLine
 10
27.2121580927
 20
4.3002648678
 30
0.0
 11
26.7626150696
 21
4.3002648678
 31
0.0
  0
LINE
  5
393
330
231
100
AcDbEntity
  8
0
  6
Continuous
 62
     7
100
AcDbLine
 10
26.7626150696
 20
4.3002648678
 30
0.0
 11
26.9778353838
 21
4.6517489312
 31
0.0
  0
LINE
  5
394
330
231
100
AcDbEntity
  8
0
  6
Continuous
 62
     7
100
AcDbLine
 10
26.9778353838
 20
4.6517489312
 30
0.0
 11
27.2121580927
 21
4.3002648678
 31
0.0
  0
ENDBLK
  5
395
330
231
100
AcDbEntity
  8
0
  6
ByBlock
 62
     0
100
AcDbBlockEnd
  0
BLOCK
  5
396
330
232
100
AcDbEntity
  8
___SYMBOL
  6
Continuous
 62
     2
100
AcDbBlockBegin
  2
REVISION_BL11
 70
     0
 10
14.3097100182
 20
10.6051462536
 30
0.0
  3
REVISION_BL11
  1

  0
TEXT
  5
397
330
232
100
AcDbEntity
  8
___SYMBOL
  6
Continuous
 62
     2
100
AcDbText
 10
14.1910637189
 20
10.5260720464
 30
0.0
 40
0.15625
  1
B1
 41
0.8
100
AcDbText
  0
LINE
  5
398
330
232
100
AcDbEntity
  8
___SYMBOL
  6
Continuous
 62
     7
100
AcDbLine
 10
14.1707637346
 20
10.4901462536
 30
0.0
 11
14.1122100182
 21
10.54869997
 31
0.0
  0
LINE
  5
399
330
232
100
AcDbEntity
  8
___SYMBOL
  6
Continuous
 62
     7
100
AcDbLine
 10
14.1122100182
 20
10.6615925373
 30
0.0
 11
14.1122100182
 21
10.54869997
 31
0.0
  0
LINE
  5
39A
330
232
100
AcDbEntity
  8
___SYMBOL
  6
Continuous
 62
     7
100
AcDbLine
 10
14.1707637346
 20
10.7201462536
 30
0.0
 11
14.1122100182
 21
10.6615925373
 31
0.0
  0
LINE
  5
39B
330
232
100
AcDbEntity
  8
___SYMBOL
  6
Continuous
 62
     7
100
AcDbLine
 10
14.4486563019
 20
10.4901462536
 30
0.0
 11
14.5072100182
 21
10.54869997
 31
0.0
  0
LINE
  5
39C
330
232
100
AcDbEntity
  8
___SYMBOL
  6
Continuous
 62
     7
100
AcDbLine
 10
14.5072100182
 20
10.6615925373
 30
0.0
 11
14.5072100182
 21
10.54869997
 31
0.0
  0
LINE
  5
39D
330
232
100
AcDbEntity
  8
___SYMBOL
  6
Continuous
 62
     7
100
AcDbLine
 10
14.4486563019
 20
10.7201462536
 30
0.0
 11
14.5072100182
 21
10.6615925373
 31
0.0
  0
LINE
  5
39E
330
232
100
AcDbEntity
  8
___SYMBOL
  6
Continuous
 62
     7
100
AcDbLine
 10
14.1707637346
 20
10.7201462536
 30
0.0
 11
14.4486563019
 21
10.7201462536
 31
0.0
  0
LINE
  5
39F
330
232
100
AcDbEntity
  8
___SYMBOL
  6
Continuous
 62
     7
100
AcDbLine
 10
14.4486563019
 20
10.4901462536
 30
0.0
 11
14.1707637346
 21
10.4901462536
 31
0.0
  0
ENDBLK
  5
3A0
330
232
100
AcDbEntity
  8
0
  6
ByBlock
 62
     0
100
AcDbBlockEnd
  0
BLOCK
  5
3A1
330
233
100
AcDbEntity
  8
___SYMBOL
  6
Continuous
 62
     2
100
AcDbBlockBegin
  2
REVISION_BL12
 70
     0
 10
15.1492378779
 20
7.928961081799999
 30
0.0
  3
REVISION_BL12
  1

  0
TEXT
  5
3A2
330
233
100
AcDbEntity
  8
___SYMBOL
  6
Continuous
 62
     2
100
AcDbText
 10
15.0305915786
 20
7.8498868746
 30
0.0
 40
0.15625
  1
B2
 41
0.8
100
AcDbText
  0
LINE
  5
3A3
330
233
100
AcDbEntity
  8
___SYMBOL
  6
Continuous
 62
     7
100
AcDbLine
 10
15.0102915943
 20
7.813961081799999
 30
0.0
 11
14.9517378779
 21
7.8725147982
 31
0.0
  0
LINE
  5
3A4
330
233
100
AcDbEntity
  8
___SYMBOL
  6
Continuous
 62
     7
100
AcDbLine
 10
14.9517378779
 20
7.9854073655
 30
0.0
 11
14.9517378779
 21
7.8725147982
 31
0.0
  0
LINE
  5
3A5
330
233
100
AcDbEntity
  8
___SYMBOL
  6
Continuous
 62
     7
100
AcDbLine
 10
15.0102915943
 20
8.043961081799999
 30
0.0
 11
14.9517378779
 21
7.9854073655
 31
0.0
  0
LINE
  5
3A6
330
233
100
AcDbEntity
  8
___SYMBOL
  6
Continuous
 62
     7
100
AcDbLine
 10
15.2881841616
 20
7.813961081799999
 30
0.0
 11
15.3467378779
 21
7.8725147982
 31
0.0
  0
LINE
  5
3A7
330
233
100
AcDbEntity
  8
___SYMBOL
  6
Continuous
 62
     7
100
AcDbLine
 10
15.3467378779
 20
7.9854073655
 30
0.0
 11
15.3467378779
 21
7.8725147982
 31
0.0
  0
LINE
  5
3A8
330
233
100
AcDbEntity
  8
___SYMBOL
  6
Continuous
 62
     7
100
AcDbLine
 10
15.2881841616
 20
8.043961081799999
 30
0.0
 11
15.3467378779
 21
7.9854073655
 31
0.0
  0
LINE
  5
3A9
330
233
100
AcDbEntity
  8
___SYMBOL
  6
Continuous
 62
     7
100
AcDbLine
 10
15.0102915943
 20
8.043961081799999
 30
0.0
 11
15.2881841616
 21
8.043961081799999
 31
0.0
  0
LINE
  5
3AA
330
233
100
AcDbEntity
  8
___SYMBOL
  6
Continuous
 62
     7
100
AcDbLine
 10
15.2881841616
 20
7.813961081799999
 30
0.0
 11
15.0102915943
 21
7.813961081799999
 31
0.0
  0
ENDBLK
  5
3AB
330
233
100
AcDbEntity
  8
0
  6
ByBlock
 62
     0
100
AcDbBlockEnd
  0
BLOCK
  5
3AC
330
234
100
AcDbEntity
  8
___SYMBOL
  6
Continuous
 62
     2
100
AcDbBlockBegin
  2
REVISION_BL13
 70
     0
 10
10.4257512715
 20
2.024366513099999
 30
0.0
  3
REVISION_BL13
  1

  0
TEXT
  5
3AD
330
234
100
AcDbEntity
  8
___SYMBOL
  6
Continuous
 62
     2
100
AcDbText
 10
10.3071049721
 20
1.945292305799999
 30
0.0
 40
0.15625
  1
B3
 41
0.8
100
AcDbText
  0
LINE
  5
3AE
330
234
100
AcDbEntity
  8
___SYMBOL
  6
Continuous
 62
     7
100
AcDbLine
 10
10.2868049878
 20
1.909366513099999
 30
0.0
 11
10.2282512715
 21
1.967920229499999
 31
0.0
  0
LINE
  5
3AF
330
234
100
AcDbEntity
  8
___SYMBOL
  6
Continuous
 62
     7
100
AcDbLine
 10
10.2282512715
 20
2.0808127968
 30
0.0
 11
10.2282512715
 21
1.967920229499999
 31
0.0
  0
LINE
  5
3B0
330
234
100
AcDbEntity
  8
___SYMBOL
  6
Continuous
 62
     7
100
AcDbLine
 10
10.2868049878
 20
2.1393665131
 30
0.0
 11
10.2282512715
 21
2.0808127968
 31
0.0
  0
LINE
  5
3B1
330
234
100
AcDbEntity
  8
___SYMBOL
  6
Continuous
 62
     7
100
AcDbLine
 10
10.5646975551
 20
1.909366513099999
 30
0.0
 11
10.6232512715
 21
1.967920229499999
 31
0.0
  0
LINE
  5
3B2
330
234
100
AcDbEntity
  8
___SYMBOL
  6
Continuous
 62
     7
100
AcDbLine
 10
10.6232512715
 20
2.0808127968
 30
0.0
 11
10.6232512715
 21
1.967920229499999
 31
0.0
  0
LINE
  5
3B3
330
234
100
AcDbEntity
  8
___SYMBOL
  6
Continuous
 62
     7
100
AcDbLine
 10
10.5646975551
 20
2.1393665131
 30
0.0
 11
10.6232512715
 21
2.0808127968
 31
0.0
  0
LINE
  5
3B4
330
234
100
AcDbEntity
  8
___SYMBOL
  6
Continuous
 62
     7
100
AcDbLine
 10
10.2868049878
 20
2.1393665131
 30
0.0
 11
10.5646975551
 21
2.1393665131
 31
0.0
  0
LINE
  5
3B5
330
234
100
AcDbEntity
  8
___SYMBOL
  6
Continuous
 62
     7
100
AcDbLine
 10
10.5646975551
 20
1.909366513099999
 30
0.0
 11
10.2868049878
 21
1.909366513099999
 31
0.0
  0
ENDBLK
  5
3B6
330
234
100
AcDbEntity
  8
0
  6
ByBlock
 62
     0
100
AcDbBlockEnd
  0
BLOCK
  5
3B7
330
235
100
AcDbEntity
  8
___SYMBOL
  6
Continuous
 62
     2
100
AcDbBlockBegin
  2
REVISION_BL14
 70
     0
 10
8.323645351199999
 20
1.4869172921
 30
0.0
  3
REVISION_BL14
  1

  0
TEXT
  5
3B8
330
235
100
AcDbEntity
  8
___SYMBOL
  6
Continuous
 62
     2
100
AcDbText
 10
8.204999051799999
 20
1.4078430848
 30
0.0
 40
0.15625
  1
B4
 41
0.8
100
AcDbText
  0
LINE
  5
3B9
330
235
100
AcDbEntity
  8
___SYMBOL
  6
Continuous
 62
     7
100
AcDbLine
 10
8.1846990675
 20
1.3719172921
 30
0.0
 11
8.126145351199999
 21
1.4304710084
 31
0.0
  0
LINE
  5
3BA
330
235
100
AcDbEntity
  8
___SYMBOL
  6
Continuous
 62
     7
100
AcDbLine
 10
8.126145351199999
 20
1.543363575699999
 30
0.0
 11
8.126145351199999
 21
1.4304710084
 31
0.0
  0
LINE
  5
3BB
330
235
100
AcDbEntity
  8
___SYMBOL
  6
Continuous
 62
     7
100
AcDbLine
 10
8.1846990675
 20
1.6019172921
 30
0.0
 11
8.126145351199999
 21
1.543363575699999
 31
0.0
  0
LINE
  5
3BC
330
235
100
AcDbEntity
  8
___SYMBOL
  6
Continuous
 62
     7
100
AcDbLine
 10
8.4625916348
 20
1.3719172921
 30
0.0
 11
8.521145351199999
 21
1.4304710084
 31
0.0
  0
LINE
  5
3BD
330
235
100
AcDbEntity
  8
___SYMBOL
  6
Continuous
 62
     7
100
AcDbLine
 10
8.521145351199999
 20
1.543363575699999
 30
0.0
 11
8.521145351199999
 21
1.4304710084
 31
0.0
  0
LINE
  5
3BE
330
235
100
AcDbEntity
  8
___SYMBOL
  6
Continuous
 62
     7
100
AcDbLine
 10
8.4625916348
 20
1.6019172921
 30
0.0
 11
8.521145351199999
 21
1.543363575699999
 31
0.0
  0
LINE
  5
3BF
330
235
100
AcDbEntity
  8
___SYMBOL
  6
Continuous
 62
     7
100
AcDbLine
 10
8.1846990675
 20
1.6019172921
 30
0.0
 11
8.4625916348
 21
1.6019172921
 31
0.0
  0
LINE
  5
3C0
330
235
100
AcDbEntity
  8
___SYMBOL
  6
Continuous
 62
     7
100
AcDbLine
 10
8.4625916348
 20
1.3719172921
 30
0.0
 11
8.1846990675
 21
1.3719172921
 31
0.0
  0
ENDBLK
  5
3C1
330
235
100
AcDbEntity
  8
0
  6
ByBlock
 62
     0
100
AcDbBlockEnd
  0
BLOCK
  5
3C2
330
236
100
AcDbEntity
  8
___SYMBOL
  6
Continuous
 62
     2
100
AcDbBlockBegin
  2
CHARACTERISTIC_BL15
 70
     0
 10
9.0432789211
 20
14.7628078572
 30
0.0
  3
CHARACTERISTIC_BL15
  1

  0
TEXT
  5
3C3
330
236
100
AcDbEntity
  8
___SYMBOL
  6
Continuous
 62
     2
100
AcDbText
 10
8.977973585999999
 20
14.8239614701
 30
0.0
 40
0.15625
  1
1
 41
0.8
100
AcDbText
  0
LINE
  5
3C4
330
236
100
AcDbEntity
  8
___SYMBOL
  6
Continuous
 62
     7
100
AcDbLine
 10
8.9082788354
 20
15.0328080284
 30
0.0
 11
8.9082788354
 21
14.4928076859
 31
0.0
  0
LINE
  5
3C5
330
236
100
AcDbEntity
  8
___SYMBOL
  6
Continuous
 62
     7
100
AcDbLine
 10
8.9082788354
 20
14.4928076859
 30
0.0
 11
9.1782790067
 21
14.4928076859
 31
0.0
  0
LINE
  5
3C6
330
236
100
AcDbEntity
  8
___SYMBOL
  6
Continuous
 62
     7
100
AcDbLine
 10
8.9082788354
 20
14.7628078572
 30
0.0
 11
9.1782790067
 21
14.7628078572
 31
0.0
  0
LINE
  5
3C7
330
236
100
AcDbEntity
  8
___SYMBOL
  6
Continuous
 62
     7
100
AcDbLine
 10
8.9082788354
 20
15.0328080284
 30
0.0
 11
9.1782790067
 21
15.0328080284
 31
0.0
  0
LINE
  5
3C8
330
236
100
AcDbEntity
  8
___SYMBOL
  6
Continuous
 62
     7
100
AcDbLine
 10
9.1782790067
 20
14.4928076859
 30
0.0
 11
9.1782790067
 21
15.0328080284
 31
0.0
  0
ENDBLK
  5
3C9
330
236
100
AcDbEntity
  8
0
  6
ByBlock
 62
     0
100
AcDbBlockEnd
  0
BLOCK
  5
3CA
330
237
100
AcDbEntity
  8
___SYMBOL
  6
Continuous
 62
     2
100
AcDbBlockBegin
  2
CHARACTERISTIC_BL16
 70
     0
 10
17.1791408301
 20
8.263909764499999
 30
0.0
  3
CHARACTERISTIC_BL16
  1

  0
TEXT
  5
3CB
330
237
100
AcDbEntity
  8
___SYMBOL
  6
Continuous
 62
     2
100
AcDbText
 10
17.1138354951
 20
8.325063377299999
 30
0.0
 40
0.15625
  1
2
 41
0.8
100
AcDbText
  0
LINE
  5
3CC
330
237
100
AcDbEntity
  8
___SYMBOL
  6
Continuous
 62
     7
100
AcDbLine
 10
17.0441407445
 20
8.5339099357
 30
0.0
 11
17.0441407445
 21
7.993909593199999
 31
0.0
  0
LINE
  5
3CD
330
237
100
AcDbEntity
  8
___SYMBOL
  6
Continuous
 62
     7
100
AcDbLine
 10
17.0441407445
 20
7.993909593199999
 30
0.0
 11
17.3141409157
 21
7.993909593199999
 31
0.0
  0
LINE
  5
3CE
330
237
100
AcDbEntity
  8
___SYMBOL
  6
Continuous
 62
     7
100
AcDbLine
 10
17.0441407445
 20
8.263909764499999
 30
0.0
 11
17.3141409157
 21
8.263909764499999
 31
0.0
  0
LINE
  5
3CF
330
237
100
AcDbEntity
  8
___SYMBOL
  6
Continuous
 62
     7
100
AcDbLine
 10
17.0441407445
 20
8.5339099357
 30
0.0
 11
17.3141409157
 21
8.5339099357
 31
0.0
  0
LINE
  5
3D0
330
237
100
AcDbEntity
  8
___SYMBOL
  6
Continuous
 62
     7
100
AcDbLine
 10
17.3141409157
 20
7.993909593199999
 30
0.0
 11
17.3141409157
 21
8.5339099357
 31
0.0
  0
ENDBLK
  5
3D1
330
237
100
AcDbEntity
  8
0
  6
ByBlock
 62
     0
100
AcDbBlockEnd
  0
BLOCK
  5
3D2
330
211
100
AcDbEntity
  8
0
100
AcDbBlockBegin
  2
_FILLED
 70
     0
 10
0.0
 20
0.0
 30
0.0
  3
_FILLED
  1

  0
SOLID
  5
3D3
330
211
100
AcDbEntity
  8
0
  6
ByBlock
 62
     0
100
AcDbTrace
 10
0.0
 20
0.0
 30
0.0
 11
-1.0
 21
0.1666666667
 31
0.0
 12
-1.0
 22
-0.1666666667
 32
0.0
 13
-1.0
 23
-0.1666666667
 33
0.0
  0
ENDBLK
  5
3D4
330
211
100
AcDbEntity
  8
0
  6
ByBlock
 62
     0
100
AcDbBlockEnd
  0
BLOCK
  5
709
330
707
100
AcDbEntity
  8
0
370
     0
100
AcDbBlockBegin
  2
GENAXEH
 70
     0
 10
0.0
 20
0.0
 30
0.0
  3
GENAXEH
  1

  0
LINE
  5
708
330
707
100
AcDbEntity
  8
0
100
AcDbLine
 10
-1.0
 20
0.0
 30
0.0
 11
1.0
 21
0.0
 31
0.0
  0
ENDBLK
  5
70A
330
707
100
AcDbEntity
  8
0
370
     0
100
AcDbBlockEnd
  0
ENDSEC
  0
SECTION
  2
ENTITIES
  0
TEXT
  5
448
330
1F
100
AcDbEntity
  8
0
  6
Continuous
 62
     2
100
AcDbText
 10
28.3216668959
 20
2.1375000314
 30
0.0
 40
0.1
  1
 
 41
0.8
100
AcDbText
  0
LWPOLYLINE
  5
4FE
330
1F
100
AcDbEntity
  8
0
  6
Continuous
 62
     7
100
AcDbPolyline
 90
       19
 70
     0
 43
0.0
 10
8.945705504499999
 20
4.162257693899999
 10
9.0157245185
 20
4.1632394435
 10
9.095379264199999
 20
4.166744654899999
 10
9.174880466999999
 20
4.1727891312
 10
9.254141070999999
 20
4.1813669623
 10
9.333082602899999
 20
4.1924678107
 10
9.411629833299999
 20
4.206081555899999
 10
9.4897041808
 20
4.2221954214
 10
9.567225051099999
 20
4.240791191499999
 10
9.6441140873
 20
4.2618505633
 10
9.720291962699999
 20
4.285353697099999
 10
9.795680887999999
 20
4.311274931899999
 10
9.8702047455
 20
4.339587458999999
 10
9.9437857773
 20
4.3702634151
 10
10.0163505109
 20
4.4032715494
 10
10.0878295729
 20
4.438579652899999
 10
10.158151101
 20
4.476154219999999
 10
10.2272391359
 20
4.5159541423
 10
10.2875200879
 20
4.553142209699999
  0
LINE
  5
4FF
330
1F
100
AcDbEntity
  8
0
  6
Continuous
 62
     7
100
AcDbLine
 10
7.5977543016
 20
4.1622576409
 30
0.0
 11
8.945705504499999
 21
4.1622576409
 31
0.0
  0
LWPOLYLINE
  5
500
330
1F
100
AcDbEntity
  8
0
  6
Continuous
 62
     7
100
AcDbPolyline
 90
       10
 70
     0
 43
0.0
 10
5.7572014636
 20
4.822994871299999
 10
5.8082961608
 20
4.799436692499999
 10
5.8670106853
 20
4.7712768692
 10
5.9252585228
 20
4.7421647777
 10
5.9830220852
 20
4.7121090035
 10
6.0402869244
 20
4.6811172227
 10
6.097039762099999
 20
4.649196644099999
 10
6.153266367799999
 20
4.6163551274
 10
6.2089500371
 20
4.5826026629
 10
6.255939665699999
 20
4.5531421272
  0
LWPOLYLINE
  5
501
330
1F
100
AcDbEntity
  8
0
  6
Continuous
 62
     7
100
AcDbPolyline
 90
       19
 70
     0
 43
0.0
 10
6.255939718199999
 20
4.553142209699999
 10
6.316220670099999
 20
4.5159541423
 10
6.385308704999999
 20
4.476154219999999
 10
6.455630233099999
 20
4.438579652899999
 10
6.527109295199999
 20
4.4032715494
 10
6.599674028699999
 20
4.3702634151
 10
6.673255060499999
 20
4.339587458999999
 10
6.747778917999999
 20
4.311274931899999
 10
6.8231678433
 20
4.285353697099999
 10
6.8993457188
 20
4.2618505633
 10
6.9762347549
 20
4.240791191499999
 10
7.053755625199999
 20
4.2221954214
 10
7.1318299727
 20
4.206081555899999
 10
7.2103772031
 20
4.1924678107
 10
7.2893187351
 20
4.1813669623
 10
7.368579339
 20
4.1727891312
 10
7.448080541799999
 20
4.166744654899999
 10
7.527735287599999
 20
4.1632394435
 10
7.5977543016
 20
4.162257693899999
  0
LWPOLYLINE
  5
50E
330
1F
100
AcDbEntity
  8
0
  6
Continuous
 62
     7
100
AcDbPolyline
 90
       10
 70
     0
 43
0.0
 10
10.2875201404
 20
4.5531421272
 10
10.3345097689
 20
4.5826026629
 10
10.3901934383
 20
4.6163551274
 10
10.446420044
 20
4.649196644099999
 10
10.5031728816
 20
4.6811172227
 10
10.5604377208
 20
4.7121090035
 10
10.6182012833
 20
4.7421647777
 10
10.6764491207
 20
4.7712768692
 10
10.7351636452
 20
4.799436692499999
 10
10.7862583425
 20
4.822994871299999
  0
LWPOLYLINE
  5
50F
330
1F
100
AcDbEntity
  8
0
  6
Continuous
 62
     7
100
AcDbPolyline
 90
       91
 70
     0
 43
0.0
 10
10.7862583014
 20
4.8229949621
 10
10.9165025014
 20
4.883982968899999
 10
11.0513117484
 20
4.951621894299999
 10
11.1817889174
 20
5.0217961194
 10
11.3077759248
 20
5.0943137361
 10
11.4292955247
 20
5.169083793999999
 10
11.5465488565
 20
5.246140699799999
 10
11.6594798636
 20
5.3253572456
 10
11.7680433768
 20
5.4065617452
 10
11.8724486801
 20
5.489767010499999
 10
11.9726646378
 20
5.5748102157
 10
12.0686877539
 20
5.6614992607
 10
12.1607503135
 20
5.7498533178
 10
12.248854983
 20
5.8397031085
 10
12.3330031638
 20
5.9308815132
 10
12.4133973324
 20
6.023459536999999
 10
12.4900375639
 20
6.117308131799999
 10
12.5629088486
 20
6.2122784042
 10
12.6321604686
 20
6.3084514901
 10
12.6978206842
 20
6.4057776282
 10
12.7598242913
 20
6.504065180199999
 10
12.8181675836
 20
6.6032026109
 10
12.8728583771
 20
6.703098675299999
 10
12.9238727316
 20
6.803601481
 10
12.9711732142
 20
6.9045123534
 10
13.0147398139
 20
7.005625747799999
 10
13.0546315694
 20
7.1068871035
 10
13.0909293888
 20
7.208331565699999
 10
13.1236118321
 20
7.3097307113
 10
13.1527373745
 20
7.411073436099999
 10
13.1784586403
 20
7.512734556299999
 10
13.2007681522
 20
7.614606642
 10
13.2196559934
 20
7.716576669
 10
13.2351960668
 20
7.819029636299999
 10
13.2473758896
 20
7.921949557199999
 10
13.2561454014
 20
8.0251347861
 10
13.2614794894
 20
8.128692198899999
 10
13.263358599
 20
8.232546075
 10
13.2617891883
 20
8.3365274286
 10
13.256812322
 20
8.440596901699999
 10
13.2484765084
 20
8.5446427212
 10
13.2368311266
 20
8.648568004799999
 10
13.2218832246
 20
8.752365384599999
 10
13.2036245613
 20
8.855910901599999
 10
13.1819954006
 20
8.959116253499999
 10
13.1568914998
 20
9.06201891
 10
13.1282451771
 20
9.164473158099999
 10
13.0960183601
 20
9.2663428259
 10
13.0601515847
 20
9.367673551699999
 10
13.0207142059
 20
9.4683230544
 10
12.9777577033
 20
9.568220467599999
 10
12.9312121825
 20
9.667532121
 10
12.8811335566
 20
9.766130263899999
 10
12.8275600457
 20
9.8639422015
 10
12.7703426108
 20
9.961199048999999
 10
12.7094907181
 20
10.057807055
 10
12.6450198243
 20
10.1536300476
 10
12.5767301003
 20
10.2487981999
 10
12.5045547517
 20
10.3432048479
 10
12.4284991536
 20
10.4366409565
 10
12.3484414799
 20
10.5290508766
 10
12.2643598987
 20
10.6202604114
 10
12.1762538769
 20
10.7101020894
 10
12.0840310277
 20
10.7985252132
 10
11.9877635888
 20
10.8853490298
 10
11.8874687696
 20
10.9704889939
 10
11.7829739822
 20
11.0540269045
 10
11.6743283062
 20
11.1358579592
 10
11.5615953657
 20
11.2158744714
 10
11.444570377
 20
11.2940675914
 10
11.3231140521
 20
11.3703408252
 10
11.1973811647
 20
11.4444033682
 10
11.0676084087
 20
11.5159366936
 10
10.9337772044
 20
11.5847865894
 10
10.7959942481
 20
11.6507505411
 10
10.6547194617
 20
11.7134843045
 10
10.5100269009
 20
11.7728442163
 10
10.3620018259
 20
11.8286964048
 10
10.2111548377
 20
11.880780885
 10
10.0575933152
 20
11.9290271479
 10
9.9014343066
 20
11.9733749864
 10
9.7432282871
 20
12.0136806606
 10
9.583093636299999
 20
12.049944675
 10
9.421137656499999
 20
12.082131076
 10
9.257913978999999
 20
12.1101443284
 10
9.0935365424
 20
12.1339840693
 10
8.9281135478
 20
12.1536573924
 10
8.762187927399999
 20
12.1690850776
 10
8.596004477399999
 20
12.1801840756
 10
8.4295200846
 20
12.1868768689
 10
8.271729909299999
 20
12.18907482
  0
LWPOLYLINE
  5
510
330
1F
100
AcDbEntity
  8
0
  6
Continuous
 62
     7
100
AcDbPolyline
 90
       91
 70
     0
 43
0.0
 10
8.2717298968
 20
12.18907482
 10
8.113939744799999
 20
12.1868768695
 10
7.9474553516
 20
12.1801840768
 10
7.781271901
 20
12.1690850794
 10
7.615346279999999
 20
12.1536573947
 10
7.449923284699999
 20
12.1339840721
 10
7.285545847399999
 20
12.1101443316
 10
7.1223221692
 20
12.0821310797
 10
6.9603661886
 20
12.049944679
 10
6.8002315369
 20
12.0136806649
 10
6.6420255166
 20
11.9733749911
 10
6.485866507099999
 20
11.9290271528
 10
6.3323049838
 20
11.8807808901
 10
6.181457994699999
 20
11.8286964101
 10
6.033432918799999
 20
11.7728442217
 10
5.888740357099999
 20
11.71348431
 10
5.7474655699
 20
11.6507505466
 10
5.6096826128
 20
11.5847865949
 10
5.475851407699999
 20
11.5159366991
 10
5.3460786509
 20
11.4444033736
 10
5.2203457627
 20
11.3703408306
 10
5.0988894372
 20
11.2940675966
 10
4.981864447799999
 20
11.2158744765
 10
4.869131506599999
 20
11.1358579642
 10
4.76048583
 20
11.0540269093
 10
4.655991042
 20
10.9704889984
 10
4.555696222299999
 20
10.8853490342
 10
4.459428782799999
 20
10.7985252173
 10
4.3672059331
 20
10.7101020933
 10
4.2790999109
 20
10.6202604151
 10
4.195018329099999
 20
10.52905088
 10
4.114960654999999
 20
10.4366409596
 10
4.038905056599999
 20
10.3432048507
 10
3.966729707599999
 20
10.2487982023
 10
3.898439983299999
 20
10.1536300498
 10
3.8339690892
 20
10.0578070569
 10
3.773117196199999
 20
9.961199050599999
 10
3.7158997611
 20
9.8639422028
 10
3.66232625
 20
9.766130264899999
 10
3.6122476238
 20
9.6675321216
 10
3.5657021029
 20
9.568220467899999
 10
3.522745600099999
 20
9.4683230543
 10
3.4833082212
 20
9.367673551299999
 10
3.447441445699999
 20
9.2663428252
 10
3.415214628699999
 20
9.164473156999999
 10
3.3865683059
 20
9.0620189086
 10
3.361464405099999
 20
8.959116251799999
 10
3.3398352443
 20
8.855910899499999
 10
3.321576581099999
 20
8.7523653821
 10
3.3066286791
 20
8.648568001999999
 10
3.294983297299999
 20
8.544642718
 10
3.286647483799999
 20
8.440596898
 10
3.2816706176
 20
8.336527424599999
 10
3.280101206999999
 20
8.232546070599999
 10
3.281980316799999
 20
8.128692194199999
 10
3.287314405
 20
8.025134781
 10
3.296083916999999
 20
7.9219495516
 10
3.3082637401
 20
7.8190296304
 10
3.3238038137
 20
7.716576662699999
 10
3.342691655199999
 20
7.6146066353
 10
3.3650011675
 20
7.5127345492
 10
3.3907224335
 20
7.411073428599999
 10
3.419847976299999
 20
7.309730703399999
 10
3.452530420099999
 20
7.2083315575
 10
3.4888282399
 20
7.1068870949
 10
3.528719995799999
 20
7.0056257389
 10
3.5722865959
 20
6.904512344299999
 10
3.619587079099999
 20
6.8036014715
 10
3.670601434099999
 20
6.703098665599999
 10
3.725292228199999
 20
6.6032026008
 10
3.783635520999999
 20
6.504065169899999
 10
3.845639128699999
 20
6.4057776177
 10
3.911299345
 20
6.3084514793
 10
3.980550965599999
 20
6.2122783933
 10
4.053422250899999
 20
6.117308120699999
 10
4.130062483099999
 20
6.023459525799999
 10
4.2104566524
 20
5.9308815019
 10
4.2946048339
 20
5.8397030971
 10
4.3827095042
 20
5.7498533063
 10
4.474772064599999
 20
5.6614992491
 10
4.5707951815
 20
5.5748102042
 10
4.67101114
 20
5.489766999
 10
4.7754164442
 20
5.4065617336
 10
4.8839799583
 20
5.3253572341
 10
4.996910966399999
 20
5.246140688399999
 10
5.114164299199999
 20
5.169083782599999
 10
5.235683900199999
 20
5.0943137248
 10
5.361670908599999
 20
5.0217961082
 10
5.492148078799999
 20
4.951621883299999
 10
5.6269573271
 20
4.883982957999999
 10
5.7572015046
 20
4.8229949621
  0
CIRCLE
  5
5C1
330
1F
100
AcDbEntity
  8
0
  6
Continuous
 62
     7
100
AcDbCircle
 10
8.271729903
 20
8.872801143
 30
0.0
 40
0.4375
  0
SPLINE
  5
5D3
330
1F
100
AcDbEntity
  8
0
  6
Continuous
 62
     7
100
AcDbSpline
210
0.0
220
0.0
230
1.0
 70
     8
 71
     3
 72
    41
 73
    37
 74
    35
 42
0.0000000001
 43
0.0000000001
 44
0.0000000001
 12
0.9999996250469841
 22
-0.0008659710683483
 32
0.0
 13
-0.9999995696359434
 23
0.0009277542391362
 33
0.0
 40
0.0
 40
0.0
 40
0.0
 40
0.0
 40
0.4130703528540854
 40
0.8639322108464499
 40
1.334162588907591
 40
1.792574018543621
 40
2.219040026563092
 40
2.607405416669752
 40
2.961069341941776
 40
3.290745518944252
 40
3.605279475290205
 40
3.908528641490211
 40
4.199531088599433
 40
4.473745942167113
 40
4.725561504471818
 40
4.949140856862676
 40
5.144025847003623
 40
5.3219209661046
 40
5.496202305229273
 40
5.677533122535402
 40
5.874589053808582
 40
6.093925891296231
 40
6.331709925534338
 40
6.582567871367171
 40
6.850612159083183
 40
7.137801895737886
 40
7.437250401822154
 40
7.754021817077962
 40
8.098621810428378
 40
8.471458976673842
 40
8.860902405561148
 40
9.266000613508378
 40
9.692941844727434
 40
10.1452903961618
 40
10.6107004329381
 40
11.06650551064912
 40
11.06650551064912
 40
11.06650551064912
 40
11.06650551064912
 10
8.2717299032
 20
5.242227731399999
 30
0.0
 10
8.409419969190704
 20
5.242108495741745
 30
0.0
 10
8.697534657484048
 20
5.255590051183442
 30
0.0
 10
9.138791784552156
 20
5.314861397266599
 30
0.0
 10
9.588458806976325
 20
5.413608226008554
 30
0.0
 10
10.02042707533292
 20
5.547542332489851
 30
0.0
 10
10.41398798231922
 20
5.707854491674025
 30
0.0
 10
10.76070400494494
 20
5.886478206762365
 30
0.0
 10
11.06239699403168
 20
6.078770582676797
 30
0.0
 10
11.32467666438945
 20
6.284199910151106
 30
0.0
 10
11.55346477569506
 20
6.502636348273792
 30
0.0
 10
11.75141973059558
 20
6.732583870375698
 30
0.0
 10
11.9179073747558
 20
6.970002537494025
 30
0.0
 10
12.05127239648604
 20
7.207993599071283
 30
0.0
 10
12.15110219441939
 20
7.437506809215364
 30
0.0
 10
12.2200616136066
 20
7.650373854430227
 30
0.0
 10
12.26403455460649
 20
7.844487732835684
 30
0.0
 10
12.28931416851942
 20
8.025281468760306
 30
0.0
 10
12.29956514544161
 20
8.203019186155074
 30
0.0
 10
12.29482897488546
 20
8.387392573974366
 30
0.0
 10
12.2732309847929
 20
8.585684671453122
 30
0.0
 10
12.23088794988511
 20
8.799928167934409
 30
0.0
 10
12.16126402025919
 20
9.025912219956742
 30
0.0
 10
12.0610116801296
 20
9.257878959576995
 30
0.0
 10
11.92950103279014
 20
9.492699991748461
 30
0.0
 10
11.76628260613815
 20
9.726773736349358
 30
0.0
 10
11.56999829343894
 20
9.955815341732563
 30
0.0
 10
11.33781550731709
 20
10.17718846803417
 30
0.0
 10
11.06593665099571
 20
10.38996057600862
 30
0.0
 10
10.75557666850236
 20
10.59042141221958
 30
0.0
 10
10.41025910815969
 20
10.77097051146076
 30
0.0
 10
10.03335585258634
 20
10.92644765399753
 30
0.0
 10
9.623968810726768
 20
11.0536419769054
 30
0.0
 10
9.185399316752873
 20
11.14890428658506
 30
0.0
 10
8.73085989100555
 20
11.20799791754862
 30
0.0
 10
8.423664863416298
 20
11.22204580603564
 30
0.0
 10
8.2717299029
 20
11.2221867644
 30
0.0
 11
8.2717299032
 21
5.242227731399999
 31
0.0
 11
8.684387351099999
 21
5.260692484299999
 31
0.0
 11
9.131332265299999
 21
5.319993906399999
 31
0.0
 11
9.5905987575
 21
5.4209438821
 31
0.0
 11
10.0283140875
 21
5.5571287884
 31
0.0
 11
10.4230014155
 21
5.718668780699999
 31
0.0
 11
10.767908433
 21
5.8971815968
 31
0.0
 11
11.0657325745
 21
6.087914270399999
 31
0.0
 11
11.3250524057
 21
6.2914814751
 31
0.0
 11
11.5524021847
 21
6.5088376061
 31
0.0
 11
11.7500452103
 21
6.7388317174
 31
0.0
 11
11.9168598374
 21
6.977275221
 31
0.0
 11
12.0506323881
 21
7.21664667
 31
0.0
 11
12.1508217505
 21
7.447673008499999
 31
0.0
 11
12.2195321057
 21
7.660432529799999
 31
0.0
 11
12.2624828868
 21
7.850525637999999
 31
0.0
 11
12.2870553367
 21
8.0267155018
 31
0.0
 11
12.2970565764
 21
8.200709640699999
 31
0.0
 11
12.2925684824
 21
8.381984907399999
 31
0.0
 11
12.2713695713
 21
8.577897250599999
 31
0.0
 11
12.2285442907
 21
8.793012669899999
 31
0.0
 11
12.1585985701
 21
9.0202764882
 31
0.0
 11
12.0595707193
 21
9.250761181299999
 31
0.0
 11
11.9290241264
 21
9.4848665577
 31
0.0
 11
11.7649259052
 21
9.7205564358
 31
0.0
 11
11.5702143701
 21
9.948057701499999
 31
0.0
 11
11.3413184664
 21
10.1670344007
 31
0.0
 11
11.0704622939
 21
10.3800745125
 31
0.0
 11
10.7574220023
 21
10.5825919892
 31
0.0
 11
10.4124549292
 21
10.7633235658
 31
0.0
 11
10.0380881794
 21
10.9180946701
 31
0.0
 11
9.630531920599999
 21
11.0452823693
 31
0.0
 11
9.1885951018
 21
11.1417762042
 31
0.0
 11
8.7270824477
 21
11.2018808832
 31
0.0
 11
8.2717299029
 21
11.2221867644
 31
0.0
  0
SPLINE
  5
5DC
330
1F
100
AcDbEntity
  8
0
  6
Continuous
 62
     7
100
AcDbSpline
210
0.0
220
0.0
230
1.0
 70
     8
 71
     3
 72
    59
 73
    55
 74
    53
 42
0.0000000001
 43
0.0000000001
 44
0.0000000001
 12
0.9999993835055709
 22
-0.0011104001433626
 32
0.0
 13
-0.9999995326754319
 23
0.0009667724229604
 33
0.0
 40
0.0
 40
0.0
 40
0.0
 40
0.0
 40
0.3497686698255533
 40
0.5232359096836312
 40
0.695830207118765
 40
1.040183097864336
 40
1.384685888764103
 40
1.730711727470271
 40
2.079183144646143
 40
2.430202002465457
 40
2.784175780471362
 40
3.141936346083122
 40
3.322552541597841
 40
3.5052675729047
 40
3.878692878734297
 40
4.069452095333465
 40
4.262190298056951
 40
4.456719734472446
 40
4.653103729231379
 40
4.852138613237094
 40
5.055145100164788
 40
5.262630769596293
 40
5.368159636315282
 40
5.474966629280648
 40
5.58239008050365
 40
5.689636927526914
 40
5.903450100838342
 40
6.010454562987556
 40
6.118326036593396
 40
6.337324002355646
 40
6.448344117544024
 40
6.559623867637671
 40
6.67080327300965
 40
6.782006285224612
 40
7.00421017960497
 40
7.225227700222383
 40
7.663402065737874
 40
8.097260260935167
 40
8.528047676925128
 40
8.956389683129041
 40
9.169918327756683
 40
9.382287873732055
 40
9.801475119997364
 40
10.21405066959546
 40
10.62153923331141
 40
10.82360678643401
 40
11.02467621206995
 40
11.22516072360669
 40
11.42527669085976
 40
11.62493646773529
 40
11.8242781780935
 40
12.02390775593179
 40
12.22424053060137
 40
12.626793217823
 40
12.626793217823
 40
12.626793217823
 40
12.626793217823
 10
8.271729903
 20
11.7194439176
 30
0.0
 10
8.388319387731705
 20
11.71931445653962
 30
0.0
 10
8.562783214193
 20
11.71368236916762
 30
0.0
 10
8.794061469686219
 20
11.69583661153282
 30
0.0
 10
9.022938548752273
 20
11.67151116446765
 30
0.0
 10
9.307097157373275
 20
11.62899207695103
 30
0.0
 10
9.64486294251059
 20
11.55792328951245
 30
0.0
 10
9.979009434543758
 20
11.46598415349527
 30
0.0
 10
10.30851534496146
 20
11.35167965545364
 30
0.0
 10
10.63180656032018
 20
11.21384241530966
 30
0.0
 10
10.94708634817905
 20
11.05162364848536
 30
0.0
 10
11.20078620544255
 20
10.89571501564312
 30
0.0
 10
11.39775678803859
 20
10.75785012358474
 30
0.0
 10
11.59301711694433
 20
10.60881906824152
 30
0.0
 10
11.78060605186545
 20
10.44442489261688
 30
0.0
 10
11.9570753984033
 20
10.26396082617831
 30
0.0
 10
12.0842002539413
 20
10.1190398620027
 30
0.0
 10
12.20423477248525
 20
9.965803307115134
 30
0.0
 10
12.31650529078247
 20
9.804219206817773
 30
0.0
 10
12.42055728241585
 20
9.633888776911915
 30
0.0
 10
12.51541408823471
 20
9.454056069514725
 30
0.0
 10
12.58513705704748
 20
9.296637716502052
 30
0.0
 10
12.63464959889327
 20
9.165718624633115
 30
0.0
 10
12.66847940796975
 20
9.0646131148426
 30
0.0
 10
12.69837200783521
 20
8.961676282509198
 30
0.0
 10
12.73274350607654
 20
8.823016328005154
 30
0.0
 10
12.75900250500168
 20
8.682599710519415
 30
0.0
 10
12.77741735551088
 20
8.54086855114259
 30
0.0
 10
12.79065222585314
 20
8.396823690276585
 30
0.0
 10
12.79546899437949
 20
8.250751015055005
 30
0.0
 10
12.79115890887209
 20
8.103680159234707
 30
0.0
 10
12.78319749059967
 20
7.992771353693106
 30
0.0
 10
12.77060810267748
 20
7.882232397983672
 30
0.0
 10
12.7477813528577
 20
7.735771116166226
 30
0.0
 10
12.70810038629873
 20
7.555039761521454
 30
0.0
 10
12.62252534090634
 20
7.273723826468393
 30
0.0
 10
12.47715932551336
 20
6.938084970950716
 30
0.0
 10
12.25053054403333
 20
6.566195114149063
 30
0.0
 10
11.98072500397137
 20
6.228724731454749
 30
0.0
 10
11.72529896459659
 20
5.977302750715022
 30
0.0
 10
11.50613828569288
 20
5.795315717098699
 30
0.0
 10
11.27971596990378
 20
5.627517049960115
 30
0.0
 10
10.98433481378803
 20
5.442290493953587
 30
0.0
 10
10.61550532812869
 20
5.255238230031956
 30
0.0
 10
10.2999364580281
 20
5.125832740205206
 30
0.0
 10
10.04462657943158
 20
5.037214584819277
 30
0.0
 10
9.852327138339607
 20
4.977868403383251
 30
0.0
 10
9.658766143592186
 20
4.92521884405329
 30
0.0
 10
9.464004135053365
 20
4.879202962554042
 30
0.0
 10
9.268190760141077
 20
4.839778157285847
 30
0.0
 10
9.07134206416495
 20
4.806881497378012
 30
0.0
 10
8.873272847995099
 20
4.780547530476426
 30
0.0
 10
8.606986285122035
 20
4.754695423390562
 30
0.0
 10
8.405914069466287
 20
4.746528642787735
 30
0.0
 10
8.2717299031
 20
4.7466583684
 30
0.0
 11
8.271729903
 21
11.7194439176
 31
0.0
 11
8.6213211574
 21
11.7083049213
 31
0.0
 11
8.794275912899999
 21
11.6949806632
 31
0.0
 11
8.9659045588
 21
11.676748839
 31
0.0
 11
9.306448716
 21
11.6256744779
 31
0.0
 11
9.643544785499999
 21
11.5546222938
 31
0.0
 11
9.977112144199999
 21
11.4626076305
 31
0.0
 11
10.3062755853
 21
11.3482233762
 31
0.0
 11
10.6291134262
 21
11.2104192869
 31
0.0
 11
10.9437873688
 21
11.048315168
 31
0.0
 11
11.248498696
 21
10.860848826
 31
0.0
 11
11.396453595
 21
10.7572555929
 31
0.0
 11
11.5416411428
 21
10.6463260719
 31
0.0
 11
11.8220308886
 21
10.3996926405
 31
0.0
 11
11.9553604089
 21
10.263265672
 31
0.0
 11
12.0824377003
 21
10.1183540548
 31
0.0
 11
12.2023668937
 21
9.965191754599999
 31
0.0
 11
12.314398393
 21
9.803898181999999
 31
0.0
 11
12.4180681985
 21
9.6339939252
 31
0.0
 11
12.5126581982
 21
9.454371082299999
 31
0.0
 11
12.5965503446
 21
9.264601720199999
 31
0.0
 11
12.6338621879
 21
9.165889167499999
 31
0.0
 11
12.6677319181
 21
9.0645946705
 31
0.0
 11
12.6977020481
 21
8.9614365919
 31
0.0
 11
12.7235189926
 21
8.857343501
 31
0.0
 11
12.7629343565
 21
8.647194738999999
 31
0.0
 11
12.7767165779
 21
8.5410815669
 31
0.0
 11
12.7865681038
 21
8.433660888
 31
0.0
 11
12.7936387965
 21
8.2147770962
 31
0.0
 11
12.790379281
 21
8.1038048405
 31
0.0
 11
12.7824237377
 21
7.992809831099999
 31
0.0
 11
12.7698523391
 21
7.8823434556
 31
0.0
 11
12.7527303128
 21
7.772466496499999
 31
0.0
 11
12.705172686
 21
7.5554115661
 31
0.0
 11
12.6409487876
 21
7.3439309871
 31
0.0
 11
12.4675667958
 21
6.9415189352
 31
0.0
 11
12.2424387576
 21
6.5706411926
 31
0.0
 11
11.9738520124
 21
6.2338341884
 31
0.0
 11
11.6688779635
 21
5.933055692199999
 31
0.0
 11
11.5046234789
 21
5.7966190902
 31
0.0
 11
11.3340593929
 21
5.670093533
 31
0.0
 11
10.9793532651
 21
5.446707073399999
 31
0.0
 11
10.6116845856
 21
5.259521800899999
 31
0.0
 11
10.2348217355
 21
5.1045336666
 31
0.0
 11
10.0439453595
 21
5.038219979399999
 31
0.0
 11
9.851825657299999
 21
4.9788993763
 31
0.0
 11
9.658371027099999
 21
4.9262748058
 31
0.0
 11
9.463618333399999
 21
4.8802553681
 31
0.0
 11
9.2678874814
 21
4.8408414102
 31
0.0
 11
9.071270663099999
 21
4.8079941234
 31
0.0
 11
8.8733740945
 21
4.7817469048
 31
0.0
 11
8.6739726344
 21
4.762452389599999
 31
0.0
 11
8.2717299031
 21
4.7466583684
 31
0.0
  0
SPLINE
  5
5DD
330
1F
100
AcDbEntity
  8
0
  6
Continuous
 62
     7
100
AcDbSpline
210
0.0
220
0.0
230
1.0
 70
     8
 71
     3
 72
    59
 73
    55
 74
    53
 42
0.0000000001
 43
0.0000000001
 44
0.0000000001
 12
-0.9999993835055708
 22
-0.0011104001433527
 32
0.0
 13
0.999999532675417
 23
0.0009667724384213
 33
0.0
 40
0.0
 40
0.0
 40
0.0
 40
0.0
 40
0.3497686698255542
 40
0.523235909683633
 40
0.6958302070193253
 40
1.040183097764896
 40
1.384685888762515
 40
1.730711727372283
 40
2.079183144548155
 40
2.43020200245944
 40
2.784175780376448
 40
3.14193634607338
 40
3.322552541588098
 40
3.505267572894958
 40
3.878692878724554
 40
4.069452095323722
 40
4.262190297981276
 40
4.45671973445842
 40
4.653103729160307
 40
4.852138613218107
 40
5.055145100099207
 40
5.262630769571145
 40
5.368159636290133
 40
5.474966629223788
 40
5.58239008044679
 40
5.689636927470055
 40
5.903450100799917
 40
6.010454562949131
 40
6.118326036545838
 40
6.337324002308087
 40
6.44834411749353
 40
6.559623867587177
 40
6.670803272970464
 40
6.782006285170028
 40
7.004210179571788
 40
7.225227700189201
 40
7.663402065665123
 40
8.097260260862416
 40
8.528047676852377
 40
8.956389683127488
 40
9.16991832775513
 40
9.382287873650188
 40
9.801475119915497
 40
10.21405066951359
 40
10.62153923332203
 40
10.82360678644463
 40
11.02467621208056
 40
11.22516072361731
 40
11.42527669077305
 40
11.62493646764859
 40
11.82427817810543
 40
12.02390775594371
 40
12.2242405306133
 40
12.62679321783492
 40
12.62679321783492
 40
12.62679321783492
 40
12.62679321783492
 10
8.271729903
 20
11.7194439176
 30
0.0
 10
8.155140418268294
 20
11.71931445653963
 30
0.0
 10
7.980676591807208
 20
11.71368236916547
 30
0.0
 10
7.749398336346485
 20
11.6958366115389
 30
0.0
 10
7.520521257315423
 20
11.67151116445666
 30
0.0
 10
7.236362648696473
 20
11.62899207693819
 30
0.0
 10
6.898596863548858
 20
11.55792328954253
 30
0.0
 10
6.564450371526334
 20
11.46598415347929
 30
0.0
 10
6.23494446111753
 20
11.35167965542733
 30
0.0
 10
5.911653245718266
 20
11.21384241536755
 30
0.0
 10
5.596373457890678
 20
11.05162364842051
 30
0.0
 10
5.342673600574689
 20
10.89571501566943
 30
0.0
 10
5.145703017962947
 20
10.75785012358251
 30
0.0
 10
4.950442689052503
 20
10.60881906824474
 30
0.0
 10
4.762853754150849
 20
10.44442489260307
 30
0.0
 10
4.586384407583589
 20
10.26396082621798
 30
0.0
 10
4.459259552183779
 20
10.11903986192819
 30
0.0
 10
4.339225033475889
 20
9.965803307192292
 30
0.0
 10
4.226954515365947
 20
9.80421920674293
 30
0.0
 10
4.12290252352898
 20
9.633888776981716
 30
0.0
 10
4.02804571791948
 20
9.454056069453892
 30
0.0
 10
3.958322748955569
 20
9.29663771651796
 30
0.0
 10
3.908810207082258
 20
9.165718624651884
 30
0.0
 10
3.874980398159854
 20
9.064613114821812
 30
0.0
 10
3.845087798253481
 20
8.961676282512552
 30
0.0
 10
3.810716300042533
 20
8.823016327994391
 30
0.0
 10
3.78445730099762
 20
8.682599710527458
 30
0.0
 10
3.766042450462838
 20
8.540868551147919
 30
0.0
 10
3.752807580311895
 20
8.396823690266552
 30
0.0
 10
3.747990811778162
 20
8.250751015058501
 30
0.0
 10
3.752300897108535
 20
8.103680159234002
 30
0.0
 10
3.76026231536364
 20
7.992771353684059
 30
0.0
 10
3.772851703489942
 20
7.882232398002136
 30
0.0
 10
3.795678453034228
 20
7.73577111613674
 30
0.0
 10
3.835359419864474
 20
7.555039761539766
 30
0.0
 10
3.920934465165647
 20
7.2737238264802
 30
0.0
 10
4.066300480471542
 20
6.938084970926054
 30
0.0
 10
4.292929261976746
 20
6.566195114156736
 30
0.0
 10
4.562734802025074
 20
6.228724731418854
 30
0.0
 10
4.8181608414875
 20
5.977302750730283
 30
0.0
 10
5.037321520396252
 20
5.795315717129554
 30
0.0
 10
5.263743836092342
 20
5.627517049909467
 30
0.0
 10
5.55912499222232
 20
5.44229049396934
 30
0.0
 10
5.92795447789093
 20
5.255238230001299
 30
0.0
 10
6.243523348045593
 20
5.125832740221767
 30
0.0
 10
6.498833226667998
 20
5.037214584818546
 30
0.0
 10
6.691132667760059
 20
4.977868403381581
 30
0.0
 10
6.884693662478257
 20
4.925218844069183
 30
0.0
 10
7.079455670976694
 20
4.87920296254067
 30
0.0
 10
7.275269045890759
 20
4.839778157276001
 30
0.0
 10
7.472117741903355
 20
4.806881497388054
 30
0.0
 10
7.670186958104659
 20
4.780547530474835
 30
0.0
 10
7.936473520978111
 20
4.754695423391937
 30
0.0
 10
8.137545736633715
 20
4.74652864278566
 30
0.0
 10
8.271729903
 20
4.7466583684
 30
0.0
 11
8.271729903
 21
11.7194439176
 31
0.0
 11
7.922138648599999
 21
11.7083049213
 31
0.0
 11
7.749183893099999
 21
11.6949806632
 31
0.0
 11
7.5775552473
 21
11.676748839
 31
0.0
 11
7.2370110901
 21
11.6256744779
 31
0.0
 11
6.899915020499999
 21
11.5546222938
 31
0.0
 11
6.5663476619
 21
11.4626076305
 31
0.0
 11
6.237184220799999
 21
11.3482233762
 31
0.0
 11
5.9143463798
 21
11.2104192869
 31
0.0
 11
5.599672437299999
 21
11.048315168
 31
0.0
 11
5.29496111
 21
10.860848826
 31
0.0
 11
5.147006210999999
 21
10.7572555929
 31
0.0
 11
5.001818663199999
 21
10.6463260719
 31
0.0
 11
4.721428917399999
 21
10.3996926405
 31
0.0
 11
4.588099397099999
 21
10.263265672
 31
0.0
 11
4.461022105799999
 21
10.1183540548
 31
0.0
 11
4.341092912299999
 21
9.965191754599999
 31
0.0
 11
4.2290614131
 21
9.803898181999999
 31
0.0
 11
4.1253916075
 21
9.6339939252
 31
0.0
 11
4.030801607899999
 21
9.454371082299999
 31
0.0
 11
3.9469094614
 21
9.264601720199999
 31
0.0
 11
3.909597618099999
 21
9.165889167499999
 31
0.0
 11
3.875727888
 21
9.0645946705
 31
0.0
 11
3.845757757999999
 21
8.9614365919
 31
0.0
 11
3.8199408135
 21
8.857343501
 31
0.0
 11
3.780525449499999
 21
8.647194738999999
 31
0.0
 11
3.7667432281
 21
8.5410815669
 31
0.0
 11
3.756891702299999
 21
8.433660888
 31
0.0
 11
3.7498210096
 21
8.2147770962
 31
0.0
 11
3.753080525
 21
8.1038048405
 31
0.0
 11
3.7610360683
 21
7.992809831099999
 31
0.0
 11
3.773607467
 21
7.8823434556
 31
0.0
 11
3.7907294932
 21
7.772466496499999
 31
0.0
 11
3.8382871201
 21
7.5554115661
 31
0.0
 11
3.902511018499999
 21
7.3439309871
 31
0.0
 11
4.075893010199999
 21
6.9415189352
 31
0.0
 11
4.301021048399999
 21
6.5706411926
 31
0.0
 11
4.5696077936
 21
6.2338341884
 31
0.0
 11
4.874581842599999
 21
5.933055692199999
 31
0.0
 11
5.0388363272
 21
5.7966190902
 31
0.0
 11
5.2094004131
 21
5.670093533
 31
0.0
 11
5.5641065409
 21
5.446707073399999
 31
0.0
 11
5.931775220399999
 21
5.259521800899999
 31
0.0
 11
6.308638070599999
 21
5.1045336666
 31
0.0
 11
6.4995144466
 21
5.038219979399999
 31
0.0
 11
6.6916341488
 21
4.9788993763
 31
0.0
 11
6.885088779
 21
4.9262748058
 31
0.0
 11
7.0798414726
 21
4.8802553681
 31
0.0
 11
7.275572324599999
 21
4.8408414102
 31
0.0
 11
7.472189142999999
 21
4.8079941234
 31
0.0
 11
7.670085711599999
 21
4.7817469048
 31
0.0
 11
7.8694871717
 21
4.762452389599999
 31
0.0
 11
8.271729903
 21
4.7466583684
 31
0.0
  0
SPLINE
  5
5E2
330
1F
100
AcDbEntity
  8
0
  6
Continuous
 62
     7
100
AcDbSpline
210
0.0
220
0.0
230
1.0
 70
     8
 71
     3
 72
    41
 73
    37
 74
    35
 42
0.0000000001
 43
0.0000000001
 44
0.0000000001
 12
-0.9999996250469449
 22
-0.0008659711135453
 32
0.0
 13
0.9999995696359098
 23
0.000927754275298
 33
0.0
 40
0.0
 40
0.0
 40
0.0
 40
0.0
 40
0.4130703530286239
 40
0.8639322111332726
 40
1.334162589096745
 40
1.792574018732774
 40
2.219040026844794
 40
2.607405416905488
 40
2.961069342147231
 40
3.290745519149708
 40
3.605279475567943
 40
3.908528641702774
 40
4.19953108886932
 40
4.473745942388215
 40
4.725561504732707
 40
4.949140857123565
 40
5.144025847242473
 40
5.32192096634345
 40
5.496202305473861
 40
5.677533122782466
 40
5.874589054044888
 40
6.093925891552062
 40
6.331709925760753
 40
6.582567871593584
 40
6.8506121593583
 40
7.137801895955863
 40
7.437250402105155
 40
7.754021817360962
 40
8.098621810711378
 40
8.471458976956842
 40
8.860902405755568
 40
9.266000613795213
 40
9.692941845014269
 40
10.14529039644864
 40
10.61070043312578
 40
11.06650551057462
 40
11.06650551057462
 40
11.06650551057462
 40
11.06650551057462
 10
8.2717299032
 20
5.2422277341
 30
0.0
 10
8.134039837151123
 20
5.242108498435471
 30
0.0
 10
7.845925148569135
 20
5.255590049629168
 30
0.0
 10
7.404668021538015
 20
5.314861397694738
 30
0.0
 10
6.955000999088265
 20
5.413608225905359
 30
0.0
 10
6.523032730737222
 20
5.547542332527688
 30
0.0
 10
6.129471823742901
 20
5.70785449168261
 30
0.0
 10
5.782755801010655
 20
5.886478206598601
 30
0.0
 10
5.481062812079773
 20
6.07877058271902
 30
0.0
 10
5.218783141713132
 20
6.284199910182488
 30
0.0
 10
4.989995030288745
 20
6.502636348199928
 30
0.0
 10
4.792040075540438
 20
6.732583870453024
 30
0.0
 10
4.625552431194941
 20
6.970002537421917
 30
0.0
 10
4.492187409663695
 20
7.207993599130857
 30
0.0
 10
4.392357611562609
 20
7.437506809189834
 30
0.0
 10
4.323398192366843
 20
7.650373854417588
 30
0.0
 10
4.279425251506996
 20
7.844487732848677
 30
0.0
 10
4.254145637622012
 20
8.025281468762191
 30
0.0
 10
4.243894660477794
 20
8.203019186154431
 30
0.0
 10
4.248630831306345
 20
8.387392573964083
 30
0.0
 10
4.270228821114182
 20
8.585684671475766
 30
0.0
 10
4.312571856295909
 20
8.799928167901152
 30
0.0
 10
4.382195785699917
 20
9.025912219974916
 30
0.0
 10
4.482448125860416
 20
9.257878959606774
 30
0.0
 10
4.613958773344495
 20
9.492699991682863
 30
0.0
 10
4.777177199833126
 20
9.726773736421421
 30
0.0
 10
4.973461512678125
 20
9.955815341691394
 30
0.0
 10
5.205644298773504
 20
10.17718846804112
 30
0.0
 10
5.477523155105263
 20
10.38996057601037
 30
0.0
 10
5.787883137580256
 20
10.59042141218705
 30
0.0
 10
6.133200697881704
 20
10.77097051151695
 30
0.0
 10
6.510103953493127
 20
10.92644765395817
 30
0.0
 10
6.919490995368727
 20
11.05364197695529
 30
0.0
 10
7.358060489323717
 20
11.14890428639847
 30
0.0
 10
7.812599914910259
 20
11.20799791820877
 30
0.0
 10
8.119794942471097
 20
11.22204580463023
 30
0.0
 10
8.2717299029
 20
11.222186763
 30
0.0
 11
8.2717299032
 21
5.2422277341
 31
0.0
 11
7.859072454999999
 21
5.260692484199999
 31
0.0
 11
7.4121275407
 21
5.319993906399999
 31
0.0
 11
6.952861048599999
 21
5.4209438821
 31
0.0
 11
6.5151457186
 21
5.5571287884
 31
0.0
 11
6.120458390499999
 21
5.718668780699999
 31
0.0
 11
5.775551372999999
 21
5.8971815967
 31
0.0
 11
5.4777272316
 21
6.087914270399999
 31
0.0
 11
5.2184074004
 21
6.2914814751
 31
0.0
 11
4.9910576213
 21
6.5088376061
 31
0.0
 11
4.793414595799999
 21
6.7388317174
 31
0.0
 11
4.626599968599999
 21
6.977275221
 31
0.0
 11
4.492827418
 21
7.21664667
 31
0.0
 11
4.392638055499999
 21
7.447673008499999
 31
0.0
 11
4.323927700299999
 21
7.660432529799999
 31
0.0
 11
4.280976919299999
 21
7.850525637999999
 31
0.0
 11
4.256404469399999
 21
8.0267155018
 31
0.0
 11
4.2464032296
 21
8.200709640699999
 31
0.0
 11
4.2508913237
 21
8.381984907399999
 31
0.0
 11
4.2720902347
 21
8.577897250599999
 31
0.0
 11
4.3149155154
 21
8.793012669899999
 31
0.0
 11
4.384861235899999
 21
9.0202764882
 31
0.0
 11
4.483889086699999
 21
9.250761181299999
 31
0.0
 11
4.614435679699999
 21
9.4848665577
 31
0.0
 11
4.7785339008
 21
9.7205564358
 31
0.0
 11
4.973245436
 21
9.948057701499999
 31
0.0
 11
5.202141339699999
 21
10.1670344007
 31
0.0
 11
5.4729975122
 21
10.3800745125
 31
0.0
 11
5.7860378038
 21
10.5825919892
 31
0.0
 11
6.131004876799999
 21
10.7633235658
 31
0.0
 11
6.505371626699999
 21
10.9180946701
 31
0.0
 11
6.9129278855
 21
11.0452823693
 31
0.0
 11
7.354864704299999
 21
11.1417762042
 31
0.0
 11
7.816377358299999
 21
11.2018808832
 31
0.0
 11
8.2717299029
 21
11.222186763
 31
0.0
  0
SPLINE
  5
5EF
330
1F
100
AcDbEntity
  8
0
  6
Continuous
 62
     2
100
AcDbSpline
210
0.0
220
0.0
230
1.0
 70
     8
 71
     3
 72
    26
 73
    22
 74
    20
 42
0.0000000001
 43
0.0000000001
 44
0.0000000001
 12
0.2869354344787358
 22
-0.9579499237645457
 32
0.0
 13
-0.5934439157918162
 23
0.8048753436462542
 33
0.0
 40
0.0
 40
0.0
 40
0.0
 40
0.0
 40
0.0029055390362539
 40
0.0041445381640234
 40
0.0049646151466438
 40
0.0057846922158193
 40
0.006092373463518
 40
0.0062677563035192
 40
0.0066185220781625
 40
0.0067939049181632
 40
0.0069692878365397
 40
0.0073312749006739
 40
0.0076932618854099
 40
0.0084172360744715
 40
0.0087792230592061
 40
0.0094439543241312
 40
0.0110826273662663
 40
0.0127213004734568
 40
0.0136467522283641
 40
0.0147862229193863
 40
0.019344105721678
 40
0.019344105721678
 40
0.019344105721678
 40
0.019344105721678
 10
10.5317451634
 20
4.7047696167
 30
0.0
 10
10.53202306410192
 20
4.703841829733908
 30
0.0
 10
10.53241713211096
 20
4.702516098477531
 30
0.0
 10
10.53289716022255
 20
4.700935944004153
 30
0.0
 10
10.53299658774369
 20
4.699960452407509
 30
0.0
 10
10.53305633537449
 20
4.699363939236992
 30
0.0
 10
10.53315450419888
 20
4.698862784678405
 30
0.0
 10
10.53288950784606
 20
4.698716257658061
 30
0.0
 10
10.53272326827956
 20
4.698554919908314
 30
0.0
 10
10.53253709258339
 20
4.698427970372993
 30
0.0
 10
10.53235213455185
 20
4.698210793759506
 30
0.0
 10
10.53211241361354
 20
4.698573696245349
 30
0.0
 10
10.53172906335603
 20
4.69879439802337
 30
0.0
 10
10.5313507632162
 20
4.699124158746423
 30
0.0
 10
10.53087269395848
 20
4.699456968036363
 30
0.0
 10
10.53030580226506
 20
4.700153197283058
 30
0.0
 10
10.52944648135264
 20
4.701139677007709
 30
0.0
 10
10.52852742470146
 20
4.702199330131056
 30
0.0
 10
10.52774738929748
 20
4.703156466253987
 30
0.0
 10
10.52645942283543
 20
4.704950345052838
 30
0.0
 10
10.5253197161393
 20
4.706469128704402
 30
0.0
 10
10.5244181002
 20
4.7076919712
 30
0.0
 11
10.5317451634
 21
4.7047696167
 31
0.0
 11
10.5325788655
 21
4.701986255799999
 31
0.0
 11
10.5328913259
 21
4.7007873032
 31
0.0
 11
10.5329950051
 21
4.6999738065
 31
0.0
 11
10.5330986842
 21
4.699160309699999
 31
0.0
 11
10.5330874258
 21
4.6988528345
 31
0.0
 11
10.5329499716
 21
4.698743905699999
 31
0.0
 11
10.532675063
 21
4.698526048199999
 31
0.0
 11
10.5325376088
 21
4.6984171194
 31
0.0
 11
10.5324001545
 21
4.698308190599999
 31
0.0
 11
10.5321127381
 21
4.698528250699999
 31
0.0
 11
10.5318253218
 21
4.6987483108
 31
0.0
 11
10.531250489
 21
4.699188431099999
 31
0.0
 11
10.5309630727
 21
4.699408491199999
 31
0.0
 11
10.5305119293
 21
4.6998966892
 31
0.0
 11
10.5294459156
 21
4.701141222899999
 31
0.0
 11
10.5283799018
 21
4.7023857566
 31
0.0
 11
10.5277991599
 21
4.7031063118
 31
0.0
 11
10.527122948
 21
4.704023443699999
 31
0.0
 11
10.5244181002
 21
4.7076919712
 31
0.0
  0
ENDSEC
  0
SECTION
  2
OBJECTS
  0
DICTIONARY
  5
C
330
0
100
AcDbDictionary
281
     1
  3
ACAD_COLOR
350
65F
  3
ACAD_GROUP
350
D
  3
ACAD_LAYOUT
350
1A
  3
ACAD_MATERIAL
350
65E
  3
ACAD_MLINESTYLE
350
17
  3
ACAD_PLOTSETTINGS
350
19
  3
ACAD_PLOTSTYLENAME
350
E
  3
ACAD_TABLESTYLE
350
660
  3
AcDbVariableDictionary
350
717
  3
AcmDictionary
350
6BE
  3
AMG
350
69E
  3
AMGSNAPSETTINGS
350
735
  3
ASE_INDEX_DICTIONARY
350
713
  0
DICTIONARY
  5
65F
102
{ACAD_REACTORS
330
C
102
}
330
C
100
AcDbDictionary
281
     1
  0
DICTIONARY
  5
D
102
{ACAD_REACTORS
330
C
102
}
330
C
100
AcDbDictionary
281
     1
  0
DICTIONARY
  5
1A
102
{ACAD_REACTORS
330
C
102
}
330
C
100
AcDbDictionary
281
     1
  3
Layout1
350
1E
  3
Model
350
22
  0
DICTIONARY
  5
65E
102
{ACAD_REACTORS
330
C
102
}
330
C
100
AcDbDictionary
281
     1
  0
DICTIONARY
  5
17
102
{ACAD_REACTORS
330
C
102
}
330
C
100
AcDbDictionary
281
     1
  3
Standard
350
18
  0
DICTIONARY
  5
19
102
{ACAD_REACTORS
330
C
102
}
330
C
100
AcDbDictionary
281
     1
  0
ACDBDICTIONARYWDFLT
  5
E
102
{ACAD_REACTORS
330
C
102
}
330
C
100
AcDbDictionary
281
     1
  3
Normal
350
F
100
AcDbDictionaryWithDefault
340
F
  0
DICTIONARY
  5
660
102
{ACAD_REACTORS
330
C
102
}
330
C
100
AcDbDictionary
281
     1
  3
Standard
350
661
  0
DICTIONARY
  5
717
102
{ACAD_REACTORS
330
C
102
}
330
C
100
AcDbDictionary
281
     1
  3
CTABLESTYLE
350
718
  0
DICTIONARY
  5
6BE
102
{ACAD_REACTORS
330
C
102
}
330
C
100
AcDbDictionary
281
     1
  3
AcmStdDictionary
350
6C9
  3
AMDTSECTSYM_ARROWCOLOR
350
6E9
  0
DICTIONARY
  5
69E
102
{ACAD_REACTORS
330
C
102
}
330
C
100
AcDbDictionary
281
     1
  0
DICTIONARY
  5
735
102
{ACAD_REACTORS
330
C
102
}
330
C
100
AcDbDictionary
281
     1
  0
DICTIONARY
  5
713
102
{ACAD_REACTORS
330
C
102
}
330
C
100
AcDbDictionary
281
     1
  3
ASEBlockHierarchyIndexRecord
350
715
1001
DCO15
1040
1629192155.583
  0
LAYOUT
  5
1E
102
{ACAD_REACTORS
330
1A
102
}
330
1A
100
AcDbPlotSettings
  1

  2

  4

  6

 40
0.0
 41
0.0
 42
0.0
 43
0.0
 44
0.0
 45
0.0
 46
0.0
 47
0.0
 48
0.0
 49
0.0
140
0.0
141
0.0
142
1.0
143
1.0
 70
     0
 72
     0
 73
     0
 74
     0
  7

 75
     0
147
1.0
 76
     0
 77
     2
 78
   300
148
0.0
149
0.0
100
AcDbLayout
  1
Layout1
 70
     0
 71
     1
 10
0.0
 20
0.0
 11
12.0
 21
9.0
 12
0.0
 22
0.0
 32
0.0
 14
1.000000000000000E+20
 24
1.000000000000000E+20
 34
1.000000000000000E+20
 15
-1.000000000000000E+20
 25
-1.000000000000000E+20
 35
-1.000000000000000E+20
146
0.0
 13
0.0
 23
0.0
 33
0.0
 16
1.0
 26
0.0
 36
0.0
 17
0.0
 27
1.0
 37
0.0
 76
     0
330
1B
  0
LAYOUT
  5
22
102
{ACAD_REACTORS
330
1A
102
}
330
1A
100
AcDbPlotSettings
  1

  2

  4

  6

 40
0.0
 41
0.0
 42
0.0
 43
0.0
 44
0.0
 45
0.0
 46
0.0
 47
0.0
 48
0.0
 49
0.0
140
0.0
141
0.0
142
1.0
143
1.0
 70
     0
 72
     0
 73
     0
 74
     0
  7

 75
     0
147
1.0
 76
     0
 77
     2
 78
   300
148
0.0
149
0.0
100
AcDbLayout
  1
Model
 70
     0
 71
     0
 10
0.0
 20
0.0
 11
0.0
 21
0.0
 12
0.0
 22
0.0
 32
0.0
 14
0.0
 24
0.0
 34
0.0
 15
0.0
 25
0.0
 35
0.0
146
0.0
 13
0.0
 23
0.0
 33
0.0
 16
0.0
 26
0.0
 36
0.0
 17
0.0
 27
0.0
 37
0.0
 76
     0
330
1F
  0
MLINESTYLE
  5
18
102
{ACAD_REACTORS
330
17
102
}
330
17
100
AcDbMlineStyle
  2
STANDARD
 70
     0
  3

 62
   256
 51
90.0
 52
90.0
 71
     2
 49
0.5
 62
   256
  6
BYLAYER
 49
-0.5
 62
   256
  6
BYLAYER
  0
ACDBPLACEHOLDER
  5
F
102
{ACAD_REACTORS
330
E
102
}
330
0
  0
TABLESTYLE
  5
661
102
{ACAD_REACTORS
330
660
102
}
330
660
100
AcDbTableStyle
  3
Standard
 70
     0
 71
     0
 40
0.06
 41
0.06
280
     0
281
     0
  7
STANDARD
140
0.18
170
     2
 62
     0
 63
     7
283
     0
274
    -2
284
     1
 64
     0
275
    -2
285
     1
 65
     0
276
    -2
286
     1
 66
     0
277
    -2
287
     1
 67
     0
278
    -2
288
     1
 68
     0
279
    -2
289
     1
 69
     0
  7
STANDARD
140
0.25
170
     5
 62
     0
 63
     7
283
     0
274
    -2
284
     1
 64
     0
275
    -2
285
     1
 65
     0
276
    -2
286
     1
 66
     0
277
    -2
287
     1
 67
     0
278
    -2
288
     1
 68
     0
279
    -2
289
     1
 69
     0
  7
STANDARD
140
0.18
170
     5
 62
     0
 63
     7
283
     0
274
    -2
284
     1
 64
     0
275
    -2
285
     1
 65
     0
276
    -2
286
     1
 66
     0
277
    -2
287
     1
 67
     0
278
    -2
288
     1
 68
     0
279
    -2
289
     1
 69
     0
  0
DICTIONARYVAR
  5
718
102
{ACAD_REACTORS
330
717
102
}
330
717
100
DictionaryVariables
280
     0
  1
STANDARD
  0
DICTIONARY
  5
6C9
102
{ACAD_REACTORS
330
6BE
102
}
330
6BE
100
AcDbDictionary
281
     1
  0
XRECORD
  5
6E9
102
{ACAD_REACTORS
330
6BE
102
}
330
6BE
100
AcDbXrecord
280
     1
 90
-1023410169
  0
XRECORD
  5
715
102
{ACAD_REACTORS
330
713
102
}
330
713
100
AcDbXrecord
280
     1
330
2BC
330
2BD
330
2C5
330
2C6
330
2CF
330
2D0
330
2D9
330
2DA
330
2E1
330
2E8
330
2F0
330
2F1
330
2F9
330
2FA
330
302
330
303
330
30B
330
30C
330
314
330
315
330
31D
330
31E
330
326
330
327
330
32F
330
330
330
338
330
339
330
341
330
342
330
34A
330
34B
330
353
330
354
330
365
330
366
330
36F
330
370
  0
ENDSEC
  0
EOF
