  0
SECTION
  2
HEADER
  9
$ACADVER
  1
AC1018
  9
$ACADMAINTVER
 70
    76
  9
$DWGCODEPAGE
  3
ANSI_936
  9
$INSBASE
 10
0.0
 20
0.0
 30
0.0
  9
$EXTMIN
 10
3.384186636099999
 20
0.5660888171126613
 30
0.0
  9
$EXTMAX
 10
38.45991571004882
 20
21.45966093213887
 30
0.0
  9
$LIMMIN
 10
0.0
 20
0.0
  9
$LIMMAX
 10
34.0
 20
22.0
  9
$ORTHOMODE
 70
     1
  9
$REGENMODE
 70
     1
  9
$FILLMODE
 70
     1
  9
$QTEXTMODE
 70
     0
  9
$MIRRTEXT
 70
     1
  9
$LTSCALE
 40
1.87
  9
$ATTMODE
 70
     1
  9
$TEXTSIZE
 40
0.2
  9
$TRACEWID
 40
0.05
  9
$TEXTSTYLE
  7
STANDARD
  9
$CLAYER
  8
0
  9
$CELTYPE
  6
ByLayer
  9
$CECOLOR
 62
   256
  9
$CELTSCALE
 40
1.0
  9
$DISPSILH
 70
     0
  9
$DIMSCALE
 40
1.0
  9
$DIMASZ
 40
0.1875
  9
$DIMEXO
 40
0.2125
  9
$DIMDLI
 40
1.292
  9
$DIMRND
 40
0.0
  9
$DIMDLE
 40
0.0
  9
$DIMEXE
 40
0.612
  9
$DIMTP
 40
0.01
  9
$DIMTM
 40
0.01
  9
$DIMTXT
 40
0.15625
  9
$DIMCEN
 40
0.306
  9
$DIMTSZ
 40
0.0
  9
$DIMTOL
 70
     1
  9
$DIMLIM
 70
     0
  9
$DIMTIH
 70
     1
  9
$DIMTOH
 70
     1
  9
$DIMSE1
 70
     0
  9
$DIMSE2
 70
     0
  9
$DIMTAD
 70
     0
  9
$DIMZIN
 70
     0
  9
$DIMBLK
  1
_FILLED
  9
$DIMASO
 70
     1
  9
$DIMSHO
 70
     1
  9
$DIMPOST
  1

  9
$DIMAPOST
  1

  9
$DIMALT
 70
     0
  9
$DIMALTD
 70
     2
  9
$DIMALTF
 40
25.4
  9
$DIMLFAC
 40
1.0
  9
$DIMTOFL
 70
     0
  9
$DIMTVP
 40
0.0
  9
$DIMTIX
 70
     0
  9
$DIMSOXD
 70
     0
  9
$DIMSAH
 70
     0
  9
$DIMBLK1
  1

  9
$DIMBLK2
  1

  9
$DIMSTYLE
  2
STANDARD
  9
$DIMCLRD
 70
     0
  9
$DIMCLRE
 70
     0
  9
$DIMCLRT
 70
     0
  9
$DIMTFAC
 40
1.0
  9
$DIMGAP
 40
0.09
  9
$DIMJUST
 70
     0
  9
$DIMSD1
 70
     0
  9
$DIMSD2
 70
     0
  9
$DIMTOLJ
 70
     1
  9
$DIMTZIN
 70
     0
  9
$DIMALTZ
 70
     0
  9
$DIMALTTZ
 70
     0
  9
$DIMUPT
 70
     0
  9
$DIMDEC
 70
     4
  9
$DIMTDEC
 70
     4
  9
$DIMALTU
 70
     2
  9
$DIMALTTD
 70
     2
  9
$DIMTXSTY
  7
STANDARD
  9
$DIMAUNIT
 70
     0
  9
$DIMADEC
 70
     0
  9
$DIMALTRND
 40
0.0
  9
$DIMAZIN
 70
     0
  9
$DIMDSEP
 70
     0
  9
$DIMATFIT
 70
     3
  9
$DIMFRAC
 70
     0
  9
$DIMLDRBLK
  1

  9
$DIMLUNIT
 70
     2
  9
$DIMLWD
 70
     0
  9
$DIMLWE
 70
     0
  9
$DIMTMOVE
 70
     0
  9
$LUNITS
 70
     2
  9
$LUPREC
 70
     4
  9
$SKETCHINC
 40
0.1
  9
$FILLETRAD
 40
0.0
  9
$AUNITS
 70
     0
  9
$AUPREC
 70
     0
  9
$MENU
  1
acad
  9
$ELEVATION
 40
0.0
  9
$PELEVATION
 40
0.0
  9
$THICKNESS
 40
0.0
  9
$LIMCHECK
 70
     0
  9
$CHAMFERA
 40
0.0
  9
$CHAMFERB
 40
0.0
  9
$CHAMFERC
 40
0.0
  9
$CHAMFERD
 40
0.0
  9
$SKPOLY
 70
     0
  9
$TDCREATE
 40
2454659.399251458
  9
$TDUCREATE
 40
2454659.065918125
  9
$TDUPDATE
 40
2454659.468092361
  9
$TDUUPDATE
 40
2454659.134759028
  9
$TDINDWG
 40
0.0154003819
  9
$TDUSRTIMER
 40
0.0154003819
  9
$USRTIMER
 70
     1
  9
$ANGBASE
 50
0.0
  9
$ANGDIR
 70
     0
  9
$PDMODE
 70
     3
  9
$PDSIZE
 40
0.3125
  9
$PLINEWID
 40
0.0
  9
$SPLFRAME
 70
     0
  9
$SPLINETYPE
 70
     6
  9
$SPLINESEGS
 70
     8
  9
$HANDSEED
  5
9E6
  9
$SURFTAB1
 70
     6
  9
$SURFTAB2
 70
     6
  9
$SURFTYPE
 70
     6
  9
$SURFU
 70
     6
  9
$SURFV
 70
     6
  9
$UCSBASE
  2

  9
$UCSNAME
  2

  9
$UCSORG
 10
0.0
 20
0.0
 30
0.0
  9
$UCSXDIR
 10
1.0
 20
0.0
 30
0.0
  9
$UCSYDIR
 10
0.0
 20
1.0
 30
0.0
  9
$UCSORTHOREF
  2

  9
$UCSORTHOVIEW
 70
     0
  9
$UCSORGTOP
 10
0.0
 20
0.0
 30
0.0
  9
$UCSORGBOTTOM
 10
0.0
 20
0.0
 30
0.0
  9
$UCSORGLEFT
 10
0.0
 20
0.0
 30
0.0
  9
$UCSORGRIGHT
 10
0.0
 20
0.0
 30
0.0
  9
$UCSORGFRONT
 10
0.0
 20
0.0
 30
0.0
  9
$UCSORGBACK
 10
0.0
 20
0.0
 30
0.0
  9
$PUCSBASE
  2

  9
$PUCSNAME
  2

  9
$PUCSORG
 10
0.0
 20
0.0
 30
0.0
  9
$PUCSXDIR
 10
1.0
 20
0.0
 30
0.0
  9
$PUCSYDIR
 10
0.0
 20
1.0
 30
0.0
  9
$PUCSORTHOREF
  2

  9
$PUCSORTHOVIEW
 70
     0
  9
$PUCSORGTOP
 10
0.0
 20
0.0
 30
0.0
  9
$PUCSORGBOTTOM
 10
0.0
 20
0.0
 30
0.0
  9
$PUCSORGLEFT
 10
0.0
 20
0.0
 30
0.0
  9
$PUCSORGRIGHT
 10
0.0
 20
0.0
 30
0.0
  9
$PUCSORGFRONT
 10
0.0
 20
0.0
 30
0.0
  9
$PUCSORGBACK
 10
0.0
 20
0.0
 30
0.0
  9
$USERI1
 70
     0
  9
$USERI2
 70
     0
  9
$USERI3
 70
     0
  9
$USERI4
 70
     0
  9
$USERI5
 70
     0
  9
$USERR1
 40
0.0
  9
$USERR2
 40
0.0
  9
$USERR3
 40
0.0
  9
$USERR4
 40
0.0
  9
$USERR5
 40
0.0
  9
$WORLDVIEW
 70
     1
  9
$SHADEDGE
 70
     3
  9
$SHADEDIF
 70
    70
  9
$TILEMODE
 70
     1
  9
$MAXACTVP
 70
    16
  9
$PINSBASE
 10
0.0
 20
0.0
 30
0.0
  9
$PLIMCHECK
 70
     0
  9
$PEXTMIN
 10
1.000000000000000E+20
 20
1.000000000000000E+20
 30
1.000000000000000E+20
  9
$PEXTMAX
 10
-1.000000000000000E+20
 20
-1.000000000000000E+20
 30
-1.000000000000000E+20
  9
$PLIMMIN
 10
0.0
 20
0.0
  9
$PLIMMAX
 10
12.0
 20
9.0
  9
$UNITMODE
 70
     0
  9
$VISRETAIN
 70
     0
  9
$PLINEGEN
 70
     1
  9
$PSLTSCALE
 70
     0
  9
$TREEDEPTH
 70
  3020
  9
$CMLSTYLE
  2
Standard
  9
$CMLJUST
 70
     0
  9
$CMLSCALE
 40
1.0
  9
$PROXYGRAPHICS
 70
     0
  9
$MEASUREMENT
 70
     0
  9
$CELWEIGHT
370
     0
  9
$ENDCAPS
280
     0
  9
$JOINSTYLE
280
     0
  9
$LWDISPLAY
290
     0
  9
$INSUNITS
 70
     1
  9
$HYPERLINKBASE
  1

  9
$STYLESHEET
  1

  9
$XEDIT
290
     1
  9
$CEPSNTYPE
380
     0
  9
$PSTYLEMODE
290
     1
  9
$FINGERPRINTGUID
  2

  9
$VERSIONGUID
  2
{2AB198D8-AC32-481A-B7D1-B4F3AF57C5E8}
  9
$EXTNAMES
290
     1
  9
$PSVPSCALE
 40
0.0
  9
$OLESTARTUP
290
     0
  9
$SORTENTS
280
   127
  9
$INDEXCTL
280
     0
  9
$HIDETEXT
280
     0
  9
$XCLIPFRAME
290
     0
  9
$HALOGAP
280
     0
  9
$OBSCOLOR
 70
   257
  9
$OBSLTYPE
280
     0
  9
$INTERSECTIONDISPLAY
280
     0
  9
$INTERSECTIONCOLOR
 70
   257
  9
$DIMASSOC
280
     1
  9
$PROJECTNAME
  1

  0
ENDSEC
  0
SECTION
  2
CLASSES
  0
CLASS
  1
ACDBDICTIONARYWDFLT
  2
AcDbDictionaryWithDefault
  3
ObjectDBX Classes
 90
        0
 91
        1
280
     0
281
     0
  0
CLASS
  1
IMAGE
  2
AcDbRasterImage
  3
ISM
 90
      127
 91
        0
280
     0
281
     1
  0
CLASS
  1
DICTIONARYVAR
  2
AcDbDictionaryVar
  3
ObjectDBX Classes
 90
        0
 91
        1
280
     0
281
     0
  0
CLASS
  1
RASTERVARIABLES
  2
AcDbRasterVariables
  3
ISM
 90
        0
 91
        0
280
     0
281
     0
  0
CLASS
  1
IMAGEDEF
  2
AcDbRasterImageDef
  3
ISM
 90
        0
 91
        0
280
     0
281
     0
  0
CLASS
  1
IMAGEDEF_REACTOR
  2
AcDbRasterImageDefReactor
  3
ISM
 90
        1
 91
        0
280
     0
281
     0
  0
CLASS
  1
IDBUFFER
  2
AcDbIdBuffer
  3
ObjectDBX Classes
 90
        0
 91
        0
280
     0
281
     0
  0
CLASS
  1
SPATIAL_FILTER
  2
AcDbSpatialFilter
  3
ObjectDBX Classes
 90
        0
 91
        0
280
     0
281
     0
  0
CLASS
  1
SORTENTSTABLE
  2
AcDbSortentsTable
  3
ObjectDBX Classes
 90
        0
 91
        0
280
     0
281
     0
  0
CLASS
  1
LAYER_INDEX
  2
AcDbLayerIndex
  3
ObjectDBX Classes
 90
        0
 91
        0
280
     0
281
     0
  0
CLASS
  1
SPATIAL_INDEX
  2
AcDbSpatialIndex
  3
ObjectDBX Classes
 90
        0
 91
        0
280
     0
281
     0
  0
CLASS
  1
OBJECT_PTR
  2
CAseDLPNTableRecord
  3
ASE-LPNTableRecord
 90
        1
 91
        0
280
     0
281
     0
  0
CLASS
  1
PLOTSETTINGS
  2
AcDbPlotSettings
  3
ObjectDBX Classes
 90
        0
 91
        0
280
     0
281
     0
  0
CLASS
  1
WIPEOUT
  2
AcDbWipeout
  3
"WipeOut|Product Desc: Object Enabler for WipeOut entity^I^I^I^I^I^I|Company: Autodesk, Inc.^I^I^I^I^I^I|WEB Address: www.autodesk.com"
 90
      127
 91
        0
280
     0
281
     1
  0
CLASS
  1
WIPEOUTVARIABLES
  2
AcDbWipeoutVariables
  3
"WipeOut|Product Desc:     WipeOut Dbx Application|Company:          Autodesk, Inc.|WEB Address:      www.autodesk.com"
 90
        0
 91
        0
280
     0
281
     0
  0
CLASS
  1
RTEXT
  2
RText
  3
RText|AutoCAD Express Tool|expresstools@autodesk.com
 90
     1023
 91
        0
280
     0
281
     1
  0
CLASS
  1
ARCALIGNEDTEXT
  2
AcDbArcAlignedText
  3
ATEXT|AutoCAD Express Tool|expresstools@autodesk.com
 90
        0
 91
        0
280
     0
281
     1
  0
CLASS
  1
TABLESTYLE
  2
AcDbTableStyle
  3
ObjectDBX Classes
 90
     2047
 91
        1
280
     0
281
     0
  0
CLASS
  1
ACME_DOCUMENT
  2
AcMeDbDoc
  3
AcMeServices
 90
        0
 91
        2
280
     0
281
     0
  0
CLASS
  1
AMGSETTINGSOBJ
  2
AmgSettingsObj
  3
"AcadM|Product Description: AutoCAD Mechanical 2000|Company: Autodesk"
 90
        0
 91
        2
280
     0
281
     0
  0
CLASS
  1
ACMESCOPE
  2
AcMeScope
  3
AcMeServices
 90
        0
 91
        1
280
     0
281
     0
  0
CLASS
  1
ACMECOMMANDHISTORY
  2
AcMeCommandHistory
  3
AcMeServices
 90
        0
 91
        1
280
     0
281
     0
  0
CLASS
  1
ACIMSYSVARMAN
  2
AcImSysVarManager
  3
AcMeServices
 90
        0
 91
        5
280
     0
281
     0
  0
CLASS
  1
ACIMINTSYSVAR
  2
AcImIntSysVar
  3
AcMeServices
 90
        0
 91
       26
280
     0
281
     0
  0
CLASS
  1
ACMEDRAWINGMAN
  2
AcMeDrawingMan
  3
AcMeServices
 90
        0
 91
        1
280
     0
281
     0
  0
CLASS
  1
ACMEVIEW
  2
AcMeView
  3
AcMeServices
 90
        0
 91
        1
280
     0
281
     0
  0
CLASS
  1
ACDBENTITYCACHE
  2
AcMeEntityCache
  3
AcMeServices
 90
        0
 91
        1
280
     0
281
     0
  0
CLASS
  1
GSMANAGER
  2
AcMeGSManager
  3
AcMeServices
 90
        0
 91
        1
280
     0
281
     0
  0
CLASS
  1
AMDTINTERNALREACTOR
  2
AmdtInternalReactor
  3
AcMeServices
 90
        0
 91
        2
280
     0
281
     0
  0
CLASS
  1
ACMESTATEMGR
  2
AcMeStateMgr
  3
AcMeServices
 90
        0
 91
        1
280
     0
281
     0
  0
CLASS
  1
ACGREFMASTER
  2
AcGrefMaster
  3
AcAttribServices
 90
        0
 91
        1
280
     0
281
     0
  0
CLASS
  1
AM_DRAWING_MGR
  2
AcDmDwgMgr
  3
AcMechDwgViewMgmt
 90
        0
 91
        1
280
     0
281
     0
  0
CLASS
  1
AM_DWG_DOCUMENT
  2
AcDmDwgDocument
  3
AcMechDwgViewMgmt
 90
        0
 91
        1
280
     0
281
     0
  0
CLASS
  1
AM_DWG_SHEET
  2
AcDmSheet
  3
AcMechDwgViewMgmt
 90
        0
 91
        2
280
     0
281
     0
  0
CLASS
  1
AM_VIEWDIMPARMAP
  2
AcDmViewDimParMap
  3
AcMechDwgViewMgmt
 90
        0
 91
        2
280
     0
281
     0
  0
CLASS
  1
ACIMREALSYSVAR
  2
AcImRealSysVar
  3
AcMeServices
 90
        0
 91
        1
280
     0
281
     0
  0
CLASS
  1
AM_DWGMGR_NAME
  2
AcDmDwgMgrName
  3
AcMechDwgViewMgmt
 90
        0
 91
        1
280
     0
281
     0
  0
CLASS
  1
ACME_DATABASE
  2
AcMeDbDatabase
  3
AcMeServices
 90
        0
 91
        1
280
     0
281
     0
  0
CLASS
  1
ACRFINSADJUSTERMGR
  2
AcRfInsAdjusterMgr
  3
AcMeServices
 90
        0
 91
        1
280
     0
281
     0
  0
CLASS
  1
ACGREFACADMASTER
  2
AcGrefacadMaster
  3
AcGrefServices
 90
        0
 91
        1
280
     0
281
     0
  0
CLASS
  1
AMDTMENUSTATEMGR
  2
AmdtMenuStateMgr
  3
McadcomServices
 90
        0
 91
        1
280
     0
281
     0
  0
CLASS
  1
AMDTMCOMMENUSTATE
  2
AmdtMcomMenuState
  3
McadcomServices
 90
        0
 91
        1
280
     0
281
     0
  0
CLASS
  1
AMIMASTER
  2
AmiMaster
  3
AmiServices
 90
        0
 91
        1
280
     0
281
     0
  0
CLASS
  1
MAPIAMMOUDLE
  2
MApiAmModule
  3
MApiAmServices
 90
        0
 91
        1
280
     0
281
     0
  0
CLASS
  1
ACIMSTRSYSVAR
  2
AcImStrSysVar
  3
AcMeServices
 90
        0
 91
        5
280
     0
281
     0
  0
CLASS
  1
AMDTADMENUSTATE
  2
AmdtAdMenuState
  3
DesignerServices
 90
        0
 91
        1
280
     0
281
     0
  0
CLASS
  1
ADAPPL
  2
AcAdAppl
  3
DesignerServices
 90
        0
 91
        1
280
     0
281
     0
  0
CLASS
  1
DEPMGR
  2
AcAdDepMgr
  3
DesignerServices
 90
        0
 91
        1
280
     0
281
     0
  0
CLASS
  1
PARAMMGR
  2
AcAdParamMgr
  3
DesignerServices
 90
        0
 91
        1
280
     0
281
     0
  0
CLASS
  1
PARAMSCOPE
  2
AcAdParamScope
  3
DesignerServices
 90
        0
 91
        1
280
     0
281
     0
  0
CLASS
  1
NAMEDAPPL
  2
AcAdNamedAppl
  3
DesignerServices
 90
        0
 91
        1
280
     0
281
     0
  0
CLASS
  1
AMDTDMMENUSTATE
  2
AmdtDmMenuState
  3
AcMechDwgViewMgmt
 90
        0
 91
        1
280
     0
281
     0
  0
CLASS
  1
AMDTAMMENUSTATE
  2
AmdtAmMenuState
  3
DesignerAssemblies
 90
        0
 91
        1
280
     0
281
     0
  0
CLASS
  1
ACAMPROJECT
  2
AcAmProject
  3
DesignerAssemblies
 90
        0
 91
        1
280
     0
281
     0
  0
CLASS
  1
ACAMGRCOMPDEF
  2
AcAmGrCompDef
  3
DesignerAssemblies
 90
        0
 91
        1
280
     0
281
     0
  0
CLASS
  1
ACCMCONTEXT
  2
AcCmContext
  3
DesignerAssemblies
 90
        0
 91
        1
280
     0
281
     0
  0
CLASS
  1
ACAMCOMPDEF
  2
AcAmCompDef
  3
DesignerAssemblies
 90
        0
 91
        1
280
     0
281
     0
  0
CLASS
  1
ACAMCOMPDEFMGR
  2
AcAmCompDefMgr
  3
DesignerAssemblies
 90
        0
 91
        1
280
     0
281
     0
  0
CLASS
  1
AMCONTEXTMGR
  2
AcAmContextMgr
  3
DesignerAssemblies
 90
        0
 91
        1
280
     0
281
     0
  0
CLASS
  1
ACAMCONTEXTMODELER
  2
AcAmContextModeler
  3
DesignerAssemblies
 90
        0
 91
        1
280
     0
281
     0
  0
CLASS
  1
ACMDATADICTIONARY
  2
AcmDataDictionary
  3
"AcmSymBB|Product Description: AutoCAD Mechanical 2004 DX|Company: Autodesk"
 90
        0
 91
        1
280
     0
281
     0
  0
CLASS
  1
CATALOGSTATE
  2
AcAmCatalogState
  3
DesignerAssemblies
 90
        0
 91
        1
280
     0
281
     0
  0
CLASS
  1
ACAMGRCOMPDEFSET
  2
AcAmGrCompDefSet
  3
DesignerAssemblies
 90
        0
 91
        1
280
     0
281
     0
  0
CLASS
  1
AMDTBROWSERDBTAB
  2
AmdtBrowserDbTab
  3
McadcomServices
 90
        0
 91
        1
280
     0
281
     0
  0
CLASS
  1
CBROWSERAPPOBJECT
  2
CBrowserAppObject
  3
McadcomServices
 90
        0
 91
        3
280
     0
281
     0
  0
CLASS
  1
DM_PLACEHOLDER
  2
AcDmSelsetPlaceholder
  3
AcMechDwgViewMgmt
 90
        0
 91
        1
280
     0
281
     0
  0
CLASS
  1
ACMSTANDARDANSI
  2
AcmStandardANSI
  3
"Amdt_StdImp|Product Description: AutoCAD Mechanical 2004 DX|Company: Autodesk"
 90
        0
 91
        1
280
     0
281
     0
  0
CLASS
  1
AMGOBJPROPCFG
  2
AmgObjPropCfg
  3
"AmgLay|Product Description: AutoCAD Mechanical 2000|Company: Autodesk"
 90
        1
 91
        1
280
     0
281
     0
  0
CLASS
  1
ACMSURFSTANDARDANSI
  2
AcmSurfTextStdANSI
  3
"Amdt_StdImp|Product Description: AutoCAD Mechanical 2004 DX|Company: Autodesk"
 90
        0
 91
        1
280
     0
281
     0
  0
CLASS
  1
ACMFCFSTANDARDANSI
  2
AcmFCFStdANSI
  3
"Amdt_StdImp|Product Description: AutoCAD Mechanical 2004 DX|Company: Autodesk"
 90
        0
 91
        1
280
     0
281
     0
  0
CLASS
  1
ACMWELDSTANDARDANSI
  2
AcmWeldingStdANSI
  3
"Amdt_StdImp|Product Description: AutoCAD Mechanical 2004 DX|Company: Autodesk"
 90
        0
 91
        1
280
     0
281
     0
  0
CLASS
  1
ACMIDSTANDARDANSI
  2
AcmIdStdANSI
  3
"Amdt_StdImp|Product Description: AutoCAD Mechanical 2004 DX|Company: Autodesk"
 90
        0
 91
        1
280
     0
281
     0
  0
CLASS
  1
ACMDATUMSTANDARDANSI
  2
AcmDatumStdANSI
  3
"Amdt_StdImp|Product Description: AutoCAD Mechanical 2004 DX|Company: Autodesk"
 90
        0
 91
        1
280
     0
281
     0
  0
CLASS
  1
ACMBOMSTANDARDANSI
  2
AcmBOMStdANSI
  3
"Amdt_StdImp|Product Description: AutoCAD Mechanical 2004 DX|Company: Autodesk"
 90
        0
 91
        1
280
     0
281
     0
  0
CLASS
  1
ACMDETAILSTANDARDANSI
  2
AmdtDetailSymStdANSI
  3
"Amdt_StdImp|Product Description: AutoCAD Mechanical 2004 DX|Company: Autodesk"
 90
        0
 91
        1
280
     0
281
     0
  0
CLASS
  1
ACMSECTIONSTANDARDANSI
  2
AmdtSectionSymStdANSI
  3
"Amdt_StdImp|Product Description: AutoCAD Mechanical 2004 DX|Company: Autodesk"
 90
        0
 91
        1
280
     0
281
     0
  0
CLASS
  1
ACMCENTERLINESTANDARDANSI
  2
AmdtCenterLineStdANSI
  3
"Amdt_StdImp|Product Description: AutoCAD Mechanical 2004 DX|Company: Autodesk"
 90
        0
 91
        1
280
     0
281
     0
  0
CLASS
  1
ACMTHREADLINESTANDARDANSI
  2
AmdtThreadLineStdANSI
  3
"Amdt_StdImp|Product Description: AutoCAD Mechanical 2004 DX|Company: Autodesk"
 90
        0
 91
        1
280
     0
281
     0
  0
CLASS
  1
ACMNOTESTANDARDANSI
  2
AmdtNoteStdANSI
  3
"Amdt_StdImp|Product Description: AutoCAD Mechanical 2004 DX|Company: Autodesk"
 90
        0
 91
        1
280
     0
281
     0
  0
CLASS
  1
AMDTNOTETEMPLATEDB
  2
AmdtNoteTemplateDB
  3
AMDT_STDIMP_MODULE_NAME
 90
        0
 91
        6
280
     0
281
     0
  0
CLASS
  1
ACAMGLAYSTD
  2
AcAmgLayStd
  3
"AcAmgLayStd|Product Description: AutoCAD Mechanical 2000|Company: Autodesk"
 90
        0
 91
        1
280
     0
281
     0
  0
CLASS
  1
ACAMGDIMSTD
  2
AcAmgDimStd
  3
"AcAmgDimStd|Product Description: AutoCAD Mechanical 2000|Company: Autodesk"
 90
        0
 91
        1
280
     0
281
     0
  0
CLASS
  1
ACAMGHOLECHARTSTDANSI
  2
AcAmgHoleChartStdANSI
  3
ACMSYMBB_MODULE_NAME
 90
        0
 91
        1
280
     0
281
     0
  0
CLASS
  1
ACAMGTITLESTD
  2
AcAmgTitleStd
  3
"TITLEAPP"
 90
        0
 91
        1
280
     0
281
     0
  0
CLASS
  1
ACAMGFILTERDAT
  2
AcAmgFilterDat
  3
"AcadM|Product Description: AutoCAD Mechanical 2000|Company: Autodesk"
 90
        0
 91
        6
280
     0
281
     0
  0
ENDSEC
  0
SECTION
  2
TABLES
  0
TABLE
  2
VPORT
  5
8
330
0
100
AcDbSymbolTable
 70
     6
  0
VPORT
  5
9E5
330
8
100
AcDbSymbolTableRecord
100
AcDbViewportTableRecord
  2
*Active
 70
     0
 10
0.0
 20
0.0
 11
1.0
 21
1.0
 12
7.819126103940327
 22
15.4791414244355
 13
0.0
 23
0.0
 14
1.0
 24
1.0
 15
0.0
 25
0.0
 16
0.0
 26
0.0
 36
1.0
 17
0.0
 27
0.0
 37
0.0
 40
9.989232171543049
 41
1.504492939666238
 42
50.0
 43
0.0
 44
0.0
 50
0.0
 51
0.0
 71
     0
 72
   100
 73
     1
 74
     1
 75
     0
 76
     0
 77
     0
 78
     0
281
     0
 65
     0
110
0.0
120
0.0
130
0.0
111
1.0
121
0.0
131
0.0
112
0.0
122
1.0
132
0.0
 79
     0
146
0.0
  0
ENDTAB
  0
TABLE
  2
LTYPE
  5
5
330
0
100
AcDbSymbolTable
 70
    19
  0
LTYPE
  5
14
330
5
100
AcDbSymbolTableRecord
100
AcDbLinetypeTableRecord
  2
ByBlock
 70
     0
  3

 72
    65
 73
     0
 40
0.0
  0
LTYPE
  5
15
330
5
100
AcDbSymbolTableRecord
100
AcDbLinetypeTableRecord
  2
ByLayer
 70
     0
  3

 72
    65
 73
     0
 40
0.0
  0
LTYPE
  5
16
330
5
100
AcDbSymbolTableRecord
100
AcDbLinetypeTableRecord
  2
CONTINUOUS
 70
     0
  3
Solid line
 72
    65
 73
     0
 40
0.0
  0
LTYPE
  5
1F5
330
5
100
AcDbSymbolTableRecord
100
AcDbLinetypeTableRecord
  2
CENTER
 70
     0
  3
____ _ ____ _ ____ _ ____ _ ____ _ ____ _ ____
 72
    65
 73
     4
 40
0.6
 49
0.375
 74
     0
 49
-0.075
 74
     0
 49
0.075
 74
     0
 49
-0.075
 74
     0
  0
LTYPE
  5
1F6
330
5
100
AcDbSymbolTableRecord
100
AcDbLinetypeTableRecord
  2
HIDDEN
 70
     0
  3
- - - - - - - - - - - - - - - - - - - -
 72
    65
 73
     2
 40
0.2
 49
0.1
 74
     0
 49
-0.1
 74
     0
  0
LTYPE
  5
1F7
330
5
100
AcDbSymbolTableRecord
100
AcDbLinetypeTableRecord
  2
PHANTOM
 70
     0
  3
_____ _ _ _____ _ _ _____ _ _ _____
 72
    65
 73
     6
 40
0.8
 49
0.45
 74
     0
 49
-0.05
 74
     0
 49
0.1
 74
     0
 49
-0.05
 74
     0
 49
0.1
 74
     0
 49
-0.05
 74
     0
  0
LTYPE
  5
1F8
330
5
100
AcDbSymbolTableRecord
100
AcDbLinetypeTableRecord
  2
DOT
 70
     0
  3
. . . . . . . . . . . . . . . . . . . .
 72
    65
 73
     2
 40
0.2
 49
0.1
 74
     0
 49
-0.1
 74
     0
  0
LTYPE
  5
1F9
330
5
100
AcDbSymbolTableRecord
100
AcDbLinetypeTableRecord
  2
DASHED
 70
     0
  3
- - - - - - - - - - - - - - - - - - - -
 72
    65
 73
     2
 40
0.2
 49
0.1
 74
     0
 49
-0.1
 74
     0
  0
LTYPE
  5
929
330
5
100
AcDbSymbolTableRecord
100
AcDbLinetypeTableRecord
  2
PHANTOM2
 70
     0
  3
Phantom (.5x) ___ _ _ ___ _ _ ___ _ _ ___ _ _
 72
    65
 73
     6
 40
1.25
 49
0.625
 74
     0
 49
-0.125
 74
     0
 49
0.125
 74
     0
 49
-0.125
 74
     0
 49
0.125
 74
     0
 49
-0.125
 74
     0
  0
LTYPE
  5
95D
330
5
100
AcDbSymbolTableRecord
100
AcDbLinetypeTableRecord
  2
AM_ISO02W050
 70
     0
  3
__ __ __ __ __ __ __ __ __ __ __ __ __ __ __
 72
    65
 73
     2
 40
7.5
 49
6.0
 74
     0
 49
-1.5
 74
     0
  0
LTYPE
  5
95E
330
5
100
AcDbSymbolTableRecord
100
AcDbLinetypeTableRecord
  2
AM_ISO08W050
 70
     0
  3
____ . ____ . ____ . ____ . ____ . ____ . ____
 72
    65
 73
     4
 40
18.0
 49
12.0
 74
     0
 49
-1.5
 74
     0
 49
3.0
 74
     0
 49
-1.5
 74
     0
  0
LTYPE
  5
95F
330
5
100
AcDbSymbolTableRecord
100
AcDbLinetypeTableRecord
  2
AM_ISO09W050
 70
     0
  3
_____ . . _____ . . _____ . . ____ .. ____
 72
    65
 73
     6
 40
22.5
 49
12.0
 74
     0
 49
-1.5
 74
     0
 49
3.0
 74
     0
 49
-1.5
 74
     0
 49
3.0
 74
     0
 49
-1.5
 74
     0
  0
LTYPE
  5
960
330
5
100
AcDbSymbolTableRecord
100
AcDbLinetypeTableRecord
  2
Amconstr
 70
     0
  3
_______________________
 72
    65
 73
     2
 40
9999.0
 49
9999.0
 74
     0
 49
0.0
 74
     0
  0
LTYPE
  5
961
330
5
100
AcDbSymbolTableRecord
100
AcDbLinetypeTableRecord
  2
AM_ISO08W050x2
 70
     0
  3
__ . __ . __ . __ . __ . __
 72
    65
 73
     4
 40
9.0
 49
6.0
 74
     0
 49
-0.75
 74
     0
 49
1.5
 74
     0
 49
-0.75
 74
     0
  0
LTYPE
  5
962
330
5
100
AcDbSymbolTableRecord
100
AcDbLinetypeTableRecord
  2
AM_ISO02W050x2
 70
     0
  3
 _ _ _ _ _ _ _ _ _ _ _ _
 72
    65
 73
     2
 40
3.75
 49
3.0
 74
     0
 49
-0.75
 74
     0
  0
LTYPE
  5
965
330
5
100
AcDbSymbolTableRecord
100
AcDbLinetypeTableRecord
  2
Amzigzag
 70
     0
  3
/\/-/\/-/\/-/\/-/\/-/\/
 72
    65
 73
     2
 40
11.0001
 49
0.0001
 74
     4
 75
   136
340
964
 46
0.04
 50
0.0
 44
0.0
 45
0.0
 49
-11.0
 74
     0
  0
LTYPE
  5
966
330
5
100
AcDbSymbolTableRecord
100
AcDbLinetypeTableRecord
  2
CENTER2
 70
     0
  3
Center (.5x) ___ _ ___ _ ___ _ ___ _ ___ _ ___
 72
    65
 73
     4
 40
1.125
 49
0.75
 74
     0
 49
-0.125
 74
     0
 49
0.125
 74
     0
 49
-0.125
 74
     0
  0
LTYPE
  5
967
330
5
100
AcDbSymbolTableRecord
100
AcDbLinetypeTableRecord
  2
HIDDEN2
 70
     0
  3
Hidden (.5x) _ _ _ _ _ _ _ _ _ _ _ _ _ _ _ _ _
 72
    65
 73
     2
 40
0.1875
 49
0.125
 74
     0
 49
-0.0625
 74
     0
  0
LTYPE
  5
968
330
5
100
AcDbSymbolTableRecord
100
AcDbLinetypeTableRecord
  2
Amzigzag2
 70
     0
  3
/\/-/\/-/\/-/\/-/\/-/\/
 72
    65
 73
     2
 40
0.4401
 49
0.0001
 74
     4
 75
   136
340
964
 46
0.0016
 50
0.0
 44
0.0
 45
0.0
 49
-0.4400000000000001
 74
     0
  0
LTYPE
  5
976
330
5
100
AcDbSymbolTableRecord
100
AcDbLinetypeTableRecord
  2
ACANSTGB
 70
     0
  3
__ . . __ . .
 72
    65
 73
     6
 40
0.35433070866
 49
0.15748031496
 74
     0
 49
-0.03937007874
 74
     0
 49
0.03937007874
 74
     0
 49
-0.03937007874
 74
     0
 49
0.03937007874
 74
     0
 49
-0.03937007874
 74
     0
  0
LTYPE
  5
977
330
5
100
AcDbSymbolTableRecord
100
AcDbLinetypeTableRecord
  2
ACANSTGL
 70
     0
  3
_ _ _ _ _
 72
    65
 73
     2
 40
0.11811023622
 49
0.07874015748
 74
     0
 49
-0.03937007874
 74
     0
  0
ENDTAB
  0
TABLE
  2
LAYER
  5
2
330
0
100
AcDbSymbolTable
 70
    17
  0
LAYER
  5
10
330
2
100
AcDbSymbolTableRecord
100
AcDbLayerTableRecord
  2
0
 70
     0
 62
     7
  6
CONTINUOUS
370
    -3
390
F
  0
LAYER
  5
1FA
330
2
100
AcDbSymbolTableRecord
100
AcDbLayerTableRecord
  2
DEFAULT_1
 70
     0
 62
     7
  6
CENTER
370
    -3
390
F
  0
LAYER
  5
1FB
330
2
100
AcDbSymbolTableRecord
100
AcDbLayerTableRecord
  2
DEFAULT_2
 70
     0
 62
     8
  6
HIDDEN
370
    -3
390
F
  0
LAYER
  5
1FC
330
2
100
AcDbSymbolTableRecord
100
AcDbLayerTableRecord
  2
DEFAULT_3
 70
     0
 62
     7
  6
PHANTOM
370
    -3
390
F
  0
LAYER
  5
1FD
330
2
100
AcDbSymbolTableRecord
100
AcDbLayerTableRecord
  2
DATUMS
 70
     0
 62
     7
  6
CONTINUOUS
370
    -3
390
F
  0
LAYER
  5
1FE
330
2
100
AcDbSymbolTableRecord
100
AcDbLayerTableRecord
  2
DATUM_AXIS
 70
     0
 62
     7
  6
CONTINUOUS
370
    -3
390
F
  0
LAYER
  5
1FF
330
2
100
AcDbSymbolTableRecord
100
AcDbLayerTableRecord
  2
DATUM_CSYS
 70
     0
 62
     7
  6
CONTINUOUS
370
    -3
390
F
  0
LAYER
  5
200
330
2
100
AcDbSymbolTableRecord
100
AcDbLayerTableRecord
  2
DATUM_PLANE
 70
     0
 62
     7
  6
CONTINUOUS
370
    -3
390
F
  0
LAYER
  5
201
330
2
100
AcDbSymbolTableRecord
100
AcDbLayerTableRecord
  2
DATUM_POINT
 70
     0
 62
     7
  6
CONTINUOUS
370
    -3
390
F
  0
LAYER
  5
202
330
2
100
AcDbSymbolTableRecord
100
AcDbLayerTableRecord
  2
GEOMETRY
 70
     0
 62
     7
  6
CONTINUOUS
370
    -3
390
F
  0
LAYER
  5
203
330
2
100
AcDbSymbolTableRecord
100
AcDbLayerTableRecord
  2
_CURVE
 70
     0
 62
     7
  6
CONTINUOUS
370
    -3
390
F
  0
LAYER
  5
204
330
2
100
AcDbSymbolTableRecord
100
AcDbLayerTableRecord
  2
_SURFACE
 70
     0
 62
     7
  6
CONTINUOUS
370
    -3
390
F
  0
LAYER
  5
205
330
2
100
AcDbSymbolTableRecord
100
AcDbLayerTableRecord
  2
__REF_CURVE
 70
     0
 62
     7
  6
CONTINUOUS
370
    -3
390
F
  0
LAYER
  5
206
330
2
100
AcDbSymbolTableRecord
100
AcDbLayerTableRecord
  2
__REF_SURFACE
 70
     0
 62
     7
  6
CONTINUOUS
370
    -3
390
F
  0
LAYER
  5
207
330
2
100
AcDbSymbolTableRecord
100
AcDbLayerTableRecord
  2
___COSMETIC_SKETCH
 70
     0
 62
     7
  6
CONTINUOUS
370
    -3
390
F
  0
LAYER
  5
208
330
2
100
AcDbSymbolTableRecord
100
AcDbLayerTableRecord
  2
___NOTE
 70
     0
 62
     7
  6
CONTINUOUS
370
    -3
390
F
  0
LAYER
  5
209
330
2
100
AcDbSymbolTableRecord
100
AcDbLayerTableRecord
  2
___SYMBOL
 70
     0
 62
     7
  6
CONTINUOUS
370
    -3
390
F
  0
ENDTAB
  0
TABLE
  2
STYLE
  5
3
330
0
100
AcDbSymbolTable
 70
     6
  0
STYLE
  5
11
330
3
100
AcDbSymbolTableRecord
100
AcDbTextStyleTableRecord
  2
STANDARD
 70
     0
 40
0.0
 41
0.8
 50
0.0
 71
     0
 42
0.2
  3
txt
  4

  0
STYLE
  5
20A
330
3
100
AcDbSymbolTableRecord
100
AcDbTextStyleTableRecord
  2
TEXTSTYLE_1
 70
     0
 40
0.0
 41
1.0299999783
 50
0.0
 71
     0
 42
0.2
  3
txt
  4

  0
STYLE
  5
20B
330
3
100
AcDbSymbolTableRecord
100
AcDbTextStyleTableRecord
  2
TEXTSTYLE_2
 70
     0
 40
0.0
 41
0.8
 50
0.0
 71
     0
 42
0.2
  3
txt
  4

  0
STYLE
  5
964
330
3
100
AcDbSymbolTableRecord
100
AcDbTextStyleTableRecord
  2

 70
     1
 40
0.0
 41
1.0
 50
0.0
 71
     0
 42
0.2
  3
genltshp.shx
  4

  0
STYLE
  5
969
330
3
100
AcDbSymbolTableRecord
100
AcDbTextStyleTableRecord
  2
ACANSTS
 70
     0
 40
1.0
 41
1.0
 50
0.0
 71
     0
 42
0.2
  3
romans.shx
  4

  0
STYLE
  5
975
330
3
100
AcDbSymbolTableRecord
100
AcDbTextStyleTableRecord
  2
ACANSGDT
 70
     0
 40
0.0
 41
1.0
 50
0.0
 71
     0
 42
0.2
  3
AMGDT
  4

  0
ENDTAB
  0
TABLE
  2
VIEW
  5
6
330
0
100
AcDbSymbolTable
 70
     0
  0
ENDTAB
  0
TABLE
  2
UCS
  5
7
330
0
100
AcDbSymbolTable
 70
     0
  0
ENDTAB
  0
TABLE
  2
APPID
  5
9
330
0
100
AcDbSymbolTable
 70
    11
  0
APPID
  5
20C
330
9
100
AcDbSymbolTableRecord
100
AcDbRegAppTableRecord
  2
ACAD
 70
     0
  0
APPID
  5
8FA
330
9
100
AcDbSymbolTableRecord
100
AcDbRegAppTableRecord
  2
MCAD_NO_VIS
 70
     0
  0
APPID
  5
8FB
330
9
100
AcDbSymbolTableRecord
100
AcDbRegAppTableRecord
  2
ACAD_TEMP_GRAPHIC
 70
     0
  0
APPID
  5
92B
330
9
100
AcDbSymbolTableRecord
100
AcDbRegAppTableRecord
  2
AD_DRAW
 70
     0
  0
APPID
  5
92E
330
9
100
AcDbSymbolTableRecord
100
AcDbRegAppTableRecord
  2
ACATTRIBSERVICES
 70
     0
  0
APPID
  5
94E
330
9
100
AcDbSymbolTableRecord
100
AcDbRegAppTableRecord
  2
DESIGNERASSEMBLIES
 70
     0
  0
APPID
  5
954
330
9
100
AcDbSymbolTableRecord
100
AcDbRegAppTableRecord
  2
ACADM_DIM_EDIT
 70
     0
  0
APPID
  5
955
330
9
100
AcDbSymbolTableRecord
100
AcDbRegAppTableRecord
  2
AMDT_DM_ADJ
 70
     0
  0
APPID
  5
983
330
9
100
AcDbSymbolTableRecord
100
AcDbRegAppTableRecord
  2
ACAD_DSTYLE_DIMARC_LENGTH_SYMBOL
 70
     0
  0
APPID
  5
984
330
9
100
AcDbSymbolTableRecord
100
AcDbRegAppTableRecord
  2
ACAD_DSTYLE_DIMJOGGED_JOGANGLE_SYMBOL
 70
     0
  0
APPID
  5
9C2
330
9
100
AcDbSymbolTableRecord
100
AcDbRegAppTableRecord
  2
DCO15
 70
     0
  0
ENDTAB
  0
TABLE
  2
DIMSTYLE
  5
A
330
0
100
AcDbSymbolTable
 70
    12
100
AcDbDimStyleTable
 71
     0
  0
DIMSTYLE
105
241
330
A
100
AcDbSymbolTableRecord
100
AcDbDimStyleTableRecord
  2
STANDARD
 70
     0
 41
0.1875
 47
0.01
 48
0.01
 71
     1
 78
     4
140
0.15625
271
     3
272
     3
284
     4
340
11
341
20D
342
20D
343
20D
344
20D
  0
DIMSTYLE
105
242
330
A
100
AcDbSymbolTableRecord
100
AcDbDimStyleTableRecord
  2
DIMSTYLE_1
 70
     0
 41
0.1875
 47
0.02
 48
0.02
 78
     4
140
0.15625
144
2.0
271
     2
272
     2
284
     4
340
11
341
20D
342
20D
343
20D
344
20D
  0
DIMSTYLE
105
243
330
A
100
AcDbSymbolTableRecord
100
AcDbDimStyleTableRecord
  2
DIMSTYLE_2
 70
     0
 41
0.1875
 47
3.0
 48
3.0
 78
     4
140
0.15625
144
2.0
271
     1
272
     1
284
     4
340
11
341
20D
342
20D
343
20D
344
20D
  0
DIMSTYLE
105
244
330
A
100
AcDbSymbolTableRecord
100
AcDbDimStyleTableRecord
  2
DIMSTYLE_3
 70
     0
 41
0.1875
 47
0.02
 48
0.02
 78
     4
140
0.15625
144
2.0
271
     2
272
     2
284
     4
340
11
341
20D
342
20D
343
20D
344
20D
  0
DIMSTYLE
105
245
330
A
100
AcDbSymbolTableRecord
100
AcDbDimStyleTableRecord
  2
DIMSTYLE_4
 70
     0
 41
0.1875
 78
     4
140
0.15625
144
2.0
271
     0
272
     0
284
     4
340
11
341
20D
342
20D
343
20D
344
20D
  0
DIMSTYLE
105
246
330
A
100
AcDbSymbolTableRecord
100
AcDbDimStyleTableRecord
  2
DIMSTYLE_5
 70
     0
 41
0.1875
 47
0.02
 48
0.02
 78
     4
140
0.15625
144
2.0
271
     2
272
     2
284
     4
340
11
341
20D
342
20D
343
20D
344
20D
  0
DIMSTYLE
105
982
330
A
100
AcDbSymbolTableRecord
100
AcDbDimStyleTableRecord
  2
AM_ANSI
 70
     0
  4
mm
 41
0.1
 42
0.05
 43
0.5
 44
0.1
 47
0.1
 48
0.1
 78
     7
 79
     2
140
0.12
141
0.0
146
0.71
147
0.06
176
   256
177
   256
178
     2
274
     4
284
     7
340
11
371
    -1
372
    -1
1001
ACAD_DSTYLE_DIMARC_LENGTH_SYMBOL
1070
   379
1070
     1
1001
ACAD_DSTYLE_DIMJOGGED_JOGANGLE_SYMBOL
1070
   384
1040
0.7853981633974483
  0
DIMSTYLE
105
98B
330
A
100
AcDbSymbolTableRecord
100
AcDbDimStyleTableRecord
  2
AM_ANSI$3
 70
     0
  4
mm
 41
0.1
 42
0.05
 43
0.5
 44
0.1
 47
0.1
 48
0.1
 78
     7
 79
     2
140
0.12
141
0.0
146
0.71
147
0.06
176
   256
177
   256
178
     2
274
     4
284
     7
288
     1
289
     0
340
11
371
    -1
372
    -1
1001
ACAD_DSTYLE_DIMARC_LENGTH_SYMBOL
1070
   379
1070
     1
1001
ACAD_DSTYLE_DIMJOGGED_JOGANGLE_SYMBOL
1070
   384
1040
0.7853981633974483
  0
DIMSTYLE
105
98E
330
A
100
AcDbSymbolTableRecord
100
AcDbDimStyleTableRecord
  2
AM_ANSI$4
 70
     0
  4
mm
 41
0.1
 42
0.05
 43
0.5
 44
0.1
 47
0.1
 48
0.1
 78
     7
 79
     2
140
0.12
141
0.0
146
0.71
147
0.06
176
   256
177
   256
178
     2
274
     4
284
     7
288
     1
289
     0
340
11
371
    -1
372
    -1
1001
ACAD_DSTYLE_DIMARC_LENGTH_SYMBOL
1070
   379
1070
     1
1001
ACAD_DSTYLE_DIMJOGGED_JOGANGLE_SYMBOL
1070
   384
1040
0.7853981633974483
  0
DIMSTYLE
105
993
330
A
100
AcDbSymbolTableRecord
100
AcDbDimStyleTableRecord
  2
AM_ANSI$7
 70
     0
  4
mm
 41
0.1
 42
0.05
 43
0.5
 44
0.1
 47
0.1
 48
0.1
 78
     7
 79
     2
140
0.24
141
0.0
146
0.71
147
0.06
176
   256
177
   256
178
     2
274
     4
284
     7
340
11
371
    -1
372
    -1
1001
ACAD_DSTYLE_DIMARC_LENGTH_SYMBOL
1070
   379
1070
     1
1001
ACAD_DSTYLE_DIMJOGGED_JOGANGLE_SYMBOL
1070
   384
1040
0.7853981633974483
  0
DIMSTYLE
105
996
330
A
100
AcDbSymbolTableRecord
100
AcDbDimStyleTableRecord
  2
AM_ANSI$SF
 70
     0
  4
mm
 41
0.1
 42
0.05
 43
0.5
 44
0.1
 47
0.1
 48
0.1
 75
     1
 76
     1
 78
     7
 79
     2
140
0.12
141
0.0
146
0.71
147
0.06
176
   256
177
   256
178
     2
274
     4
284
     7
340
11
371
    -1
372
    -1
1001
ACAD_DSTYLE_DIMARC_LENGTH_SYMBOL
1070
   379
1070
     1
1001
ACAD_DSTYLE_DIMJOGGED_JOGANGLE_SYMBOL
1070
   384
1040
0.7853981633974483
  0
DIMSTYLE
105
99D
330
A
100
AcDbSymbolTableRecord
100
AcDbDimStyleTableRecord
  2
AM_ANSI$SH
 70
     0
  4
mm
 41
0.1
 42
0.05
 43
0.5
 44
0.1
 47
0.1
 48
0.1
 75
     1
 76
     1
 78
     7
 79
     2
140
0.12
141
0.0
146
0.71
147
0.06
173
     1
176
   256
177
   256
178
     2
274
     4
284
     7
340
11
343
997
371
    -1
372
    -1
1001
ACAD_DSTYLE_DIMARC_LENGTH_SYMBOL
1070
   379
1070
     1
1001
ACAD_DSTYLE_DIMJOGGED_JOGANGLE_SYMBOL
1070
   384
1040
0.7853981633974483
  0
ENDTAB
  0
TABLE
  2
BLOCK_RECORD
  5
1
330
0
100
AcDbSymbolTable
 70
    54
  0
BLOCK_RECORD
  5
1F
330
1
100
AcDbSymbolTableRecord
100
AcDbBlockTableRecord
  2
*MODEL_SPACE
340
22
  0
BLOCK_RECORD
  5
1B
330
1
100
AcDbSymbolTableRecord
100
AcDbBlockTableRecord
  2
*PAPER_SPACE
340
1E
  0
BLOCK_RECORD
  5
20E
330
1
100
AcDbSymbolTableRecord
100
AcDbBlockTableRecord
  2
KOHLER_BL0
340
0
  0
BLOCK_RECORD
  5
20F
330
1
100
AcDbSymbolTableRecord
100
AcDbBlockTableRecord
  2
C_ARROW_BL1
340
0
  0
BLOCK_RECORD
  5
210
330
1
100
AcDbSymbolTableRecord
100
AcDbBlockTableRecord
  2
C_ARROW_BL2
340
0
  0
BLOCK_RECORD
  5
211
330
1
100
AcDbSymbolTableRecord
100
AcDbBlockTableRecord
  2
C_ARROW_BL3
340
0
  0
BLOCK_RECORD
  5
212
330
1
100
AcDbSymbolTableRecord
100
AcDbBlockTableRecord
  2
C_ARROW_BL4
340
0
  0
BLOCK_RECORD
  5
237
330
1
100
AcDbSymbolTableRecord
100
AcDbBlockTableRecord
  2
DELTA_BL5
340
0
  0
BLOCK_RECORD
  5
238
330
1
100
AcDbSymbolTableRecord
100
AcDbBlockTableRecord
  2
GENERIC_STANDARD_BL6
340
0
  0
BLOCK_RECORD
  5
239
330
1
100
AcDbSymbolTableRecord
100
AcDbBlockTableRecord
  2
CHARACTERISTIC_BL7
340
0
  0
BLOCK_RECORD
  5
23A
330
1
100
AcDbSymbolTableRecord
100
AcDbBlockTableRecord
  2
CHARACTERISTIC_BL8
340
0
  0
BLOCK_RECORD
  5
23B
330
1
100
AcDbSymbolTableRecord
100
AcDbBlockTableRecord
  2
CHARACTERISTIC_BL9
340
0
  0
BLOCK_RECORD
  5
23C
330
1
100
AcDbSymbolTableRecord
100
AcDbBlockTableRecord
  2
DELTA_BL10
340
0
  0
BLOCK_RECORD
  5
23D
330
1
100
AcDbSymbolTableRecord
100
AcDbBlockTableRecord
  2
DELTA_BL11
340
0
  0
BLOCK_RECORD
  5
23E
330
1
100
AcDbSymbolTableRecord
100
AcDbBlockTableRecord
  2
DELTA_BL12
340
0
  0
BLOCK_RECORD
  5
23F
330
1
100
AcDbSymbolTableRecord
100
AcDbBlockTableRecord
  2
DELTA_BL13
340
0
  0
BLOCK_RECORD
  5
240
330
1
100
AcDbSymbolTableRecord
100
AcDbBlockTableRecord
  2
DELTA_BL14
340
0
  0
BLOCK_RECORD
  5
20D
330
1
100
AcDbSymbolTableRecord
100
AcDbBlockTableRecord
  2
_FILLED
340
0
102
{BLKREFS
331
2C4
331
2C5
331
2DD
331
2EF
331
2F0
331
2F9
331
2FA
331
300
331
30F
331
317
331
318
331
31E
331
32F
331
330
331
336
331
33B
331
343
331
344
331
34C
331
34D
331
355
331
356
331
35E
331
35F
331
368
331
369
331
371
331
372
331
37A
331
37B
331
381
331
389
331
38A
331
392
331
393
331
39B
331
39C
331
3AD
331
3AE
331
3B4
331
3BC
331
3BD
331
3C5
331
3C6
331
3CE
331
3CF
331
3D7
331
3D8
331
3E0
331
3E1
331
3E9
331
3EA
102
}
  0
BLOCK_RECORD
  5
997
330
1
100
AcDbSymbolTableRecord
100
AcDbBlockTableRecord
  2
GENAXEH
340
0
  0
ENDTAB
  0
ENDSEC
  0
SECTION
  2
BLOCKS
  0
BLOCK
  5
20
330
1F
100
AcDbEntity
  8
0
100
AcDbBlockBegin
  2
*MODEL_SPACE
 70
     0
 10
0.0
 20
0.0
 30
0.0
  3
*MODEL_SPACE
  1

  0
ENDBLK
  5
21
330
1F
100
AcDbEntity
  8
0
100
AcDbBlockEnd
  0
BLOCK
  5
1C
330
1B
100
AcDbEntity
 67
     1
  8
0
100
AcDbBlockBegin
  2
*PAPER_SPACE
 70
     0
 10
0.0
 20
0.0
 30
0.0
  3
*PAPER_SPACE
  1

  0
ENDBLK
  5
1D
330
1B
100
AcDbEntity
 67
     1
  8
0
100
AcDbBlockEnd
  0
BLOCK
  5
247
330
20E
100
AcDbEntity
  8
0
  6
Continuous
 62
     2
100
AcDbBlockBegin
  2
KOHLER_BL0
 70
     0
 10
30.2123715
 20
2.261645999999999
 30
0.0
  3
KOHLER_BL0
  1

  0
ARC
  5
248
330
20E
100
AcDbEntity
  8
0
  6
Continuous
 62
     2
100
AcDbCircle
 10
30.778184
 20
2.31711475
 30
0.0
 40
0.03065625
100
AcDbArc
 50
270.0
 51
90.0
  0
LINE
  5
249
330
20E
100
AcDbEntity
  8
0
  6
Continuous
 62
     2
100
AcDbLine
 10
29.528184
 20
2.121020999999999
 30
0.0
 11
29.528184
 21
2.402270999999999
 31
0.0
  0
LINE
  5
24A
330
20E
100
AcDbEntity
  8
0
  6
Continuous
 62
     2
100
AcDbLine
 10
29.528184
 20
2.402270999999999
 30
0.0
 11
29.595184
 21
2.402270999999999
 31
0.0
  0
LINE
  5
24B
330
20E
100
AcDbEntity
  8
0
  6
Continuous
 62
     2
100
AcDbLine
 10
29.528184
 20
2.121020999999999
 30
0.0
 11
29.595184
 21
2.121020999999999
 31
0.0
  0
LINE
  5
24C
330
20E
100
AcDbEntity
  8
0
  6
Continuous
 62
     2
100
AcDbLine
 10
29.778184
 20
2.402270999999999
 30
0.0
 11
29.653184
 21
2.277270999999999
 31
0.0
  0
LINE
  5
24D
330
20E
100
AcDbEntity
  8
0
  6
Continuous
 62
     2
100
AcDbLine
 10
29.653184
 20
2.277270999999999
 30
0.0
 11
29.778184
 21
2.121020999999999
 31
0.0
  0
CIRCLE
  5
24E
330
20E
100
AcDbEntity
  8
0
  6
Continuous
 62
     2
100
AcDbCircle
 10
29.887559
 20
2.261645999999999
 30
0.0
 40
0.073625
  0
LINE
  5
24F
330
20E
100
AcDbEntity
  8
0
  6
Continuous
 62
     2
100
AcDbLine
 10
29.6923821352
 20
2.121020999999999
 30
0.0
 11
29.778184
 21
2.121020999999999
 31
0.0
  0
CIRCLE
  5
250
330
20E
100
AcDbEntity
  8
0
  6
Continuous
 62
     2
100
AcDbCircle
 10
29.887559
 20
2.261645999999999
 30
0.0
 40
0.140625
  0
LINE
  5
251
330
20E
100
AcDbEntity
  8
0
  6
Continuous
 62
     2
100
AcDbLine
 10
29.595184
 20
2.121020999999999
 30
0.0
 11
29.595184
 21
2.242518668999999
 31
0.0
  0
LINE
  5
252
330
20E
100
AcDbEntity
  8
0
  6
Continuous
 62
     2
100
AcDbLine
 10
29.6834316913
 20
2.402270999999999
 30
0.0
 11
29.595184
 21
2.314023308699999
 31
0.0
  0
LINE
  5
253
330
20E
100
AcDbEntity
  8
0
  6
Continuous
 62
     2
100
AcDbLine
 10
29.595184
 20
2.242518668999999
 30
0.0
 11
29.6923821352
 21
2.121020999999999
 31
0.0
  0
LINE
  5
254
330
20E
100
AcDbEntity
  8
0
  6
Continuous
 62
     2
100
AcDbLine
 10
29.6834316913
 20
2.402270999999999
 30
0.0
 11
29.778184
 21
2.402270999999999
 31
0.0
  0
LINE
  5
255
330
20E
100
AcDbEntity
  8
0
  6
Continuous
 62
     2
100
AcDbLine
 10
29.595184
 20
2.402270999999999
 30
0.0
 11
29.595184
 21
2.314023308699999
 31
0.0
  0
LINE
  5
256
330
20E
100
AcDbEntity
  8
0
  6
Continuous
 62
     2
100
AcDbLine
 10
30.059434
 20
2.402270999999999
 30
0.0
 11
30.059434
 21
2.121020999999999
 31
0.0
  0
LINE
  5
257
330
20E
100
AcDbEntity
  8
0
  6
Continuous
 62
     2
100
AcDbLine
 10
30.126434
 20
2.121020999999999
 30
0.0
 11
30.126434
 21
2.243771
 31
0.0
  0
LINE
  5
258
330
20E
100
AcDbEntity
  8
0
  6
Continuous
 62
     2
100
AcDbLine
 10
30.126434
 20
2.310770999999999
 30
0.0
 11
30.126434
 21
2.402270999999999
 31
0.0
  0
LINE
  5
259
330
20E
100
AcDbEntity
  8
0
  6
Continuous
 62
     2
100
AcDbLine
 10
30.204559
 20
2.121020999999999
 30
0.0
 11
30.204559
 21
2.243771
 31
0.0
  0
LINE
  5
25A
330
20E
100
AcDbEntity
  8
0
  6
Continuous
 62
     2
100
AcDbLine
 10
30.204559
 20
2.310770999999999
 30
0.0
 11
30.204559
 21
2.402270999999999
 31
0.0
  0
LINE
  5
25B
330
20E
100
AcDbEntity
  8
0
  6
Continuous
 62
     2
100
AcDbLine
 10
30.271559
 20
2.402270999999999
 30
0.0
 11
30.271559
 21
2.121020999999999
 31
0.0
  0
LINE
  5
25C
330
20E
100
AcDbEntity
  8
0
  6
Continuous
 62
     2
100
AcDbLine
 10
30.126434
 20
2.310770999999999
 30
0.0
 11
30.204559
 21
2.310770999999999
 31
0.0
  0
LINE
  5
25D
330
20E
100
AcDbEntity
  8
0
  6
Continuous
 62
     2
100
AcDbLine
 10
30.126434
 20
2.243771
 30
0.0
 11
30.204559
 21
2.243771
 31
0.0
  0
LINE
  5
25E
330
20E
100
AcDbEntity
  8
0
  6
Continuous
 62
     2
100
AcDbLine
 10
30.204559
 20
2.121020999999999
 30
0.0
 11
30.271559
 21
2.121020999999999
 31
0.0
  0
LINE
  5
25F
330
20E
100
AcDbEntity
  8
0
  6
Continuous
 62
     2
100
AcDbLine
 10
30.059434
 20
2.121020999999999
 30
0.0
 11
30.126434
 21
2.121020999999999
 31
0.0
  0
LINE
  5
260
330
20E
100
AcDbEntity
  8
0
  6
Continuous
 62
     2
100
AcDbLine
 10
30.204559
 20
2.402270999999999
 30
0.0
 11
30.271559
 21
2.402270999999999
 31
0.0
  0
LINE
  5
261
330
20E
100
AcDbEntity
  8
0
  6
Continuous
 62
     2
100
AcDbLine
 10
30.059434
 20
2.402270999999999
 30
0.0
 11
30.126434
 21
2.402270999999999
 31
0.0
  0
LINE
  5
262
330
20E
100
AcDbEntity
  8
0
  6
Continuous
 62
     2
100
AcDbLine
 10
30.302809
 20
2.402270999999999
 30
0.0
 11
30.302809
 21
2.121020999999999
 31
0.0
  0
LINE
  5
263
330
20E
100
AcDbEntity
  8
0
  6
Continuous
 62
     2
100
AcDbLine
 10
30.459059
 20
2.188020999999999
 30
0.0
 11
30.459059
 21
2.121020999999999
 31
0.0
  0
LINE
  5
264
330
20E
100
AcDbEntity
  8
0
  6
Continuous
 62
     2
100
AcDbLine
 10
30.302809
 20
2.121020999999999
 30
0.0
 11
30.459059
 21
2.121020999999999
 31
0.0
  0
LINE
  5
265
330
20E
100
AcDbEntity
  8
0
  6
Continuous
 62
     2
100
AcDbLine
 10
30.369809
 20
2.188020999999999
 30
0.0
 11
30.369809
 21
2.402270999999999
 31
0.0
  0
LINE
  5
266
330
20E
100
AcDbEntity
  8
0
  6
Continuous
 62
     2
100
AcDbLine
 10
30.369809
 20
2.188020999999999
 30
0.0
 11
30.459059
 21
2.188020999999999
 31
0.0
  0
LINE
  5
267
330
20E
100
AcDbEntity
  8
0
  6
Continuous
 62
     2
100
AcDbLine
 10
30.302809
 20
2.402270999999999
 30
0.0
 11
30.369809
 21
2.402270999999999
 31
0.0
  0
LINE
  5
268
330
20E
100
AcDbEntity
  8
0
  6
Continuous
 62
     2
100
AcDbLine
 10
30.490309
 20
2.121020999999999
 30
0.0
 11
30.646559
 21
2.121020999999999
 31
0.0
  0
LINE
  5
269
330
20E
100
AcDbEntity
  8
0
  6
Continuous
 62
     2
100
AcDbLine
 10
30.646559
 20
2.188020999999999
 30
0.0
 11
30.646559
 21
2.121020999999999
 31
0.0
  0
LINE
  5
26A
330
20E
100
AcDbEntity
  8
0
  6
Continuous
 62
     2
100
AcDbLine
 10
30.557309
 20
2.188020999999999
 30
0.0
 11
30.646559
 21
2.188020999999999
 31
0.0
  0
LINE
  5
26B
330
20E
100
AcDbEntity
  8
0
  6
Continuous
 62
     2
100
AcDbLine
 10
30.557309
 20
2.2359585
 30
0.0
 11
30.557309
 21
2.188020999999999
 31
0.0
  0
LINE
  5
26C
330
20E
100
AcDbEntity
  8
0
  6
Continuous
 62
     2
100
AcDbLine
 10
30.557309
 20
2.335271
 30
0.0
 11
30.646559
 21
2.335271
 31
0.0
  0
LINE
  5
26D
330
20E
100
AcDbEntity
  8
0
  6
Continuous
 62
     2
100
AcDbLine
 10
30.490309
 20
2.402270999999999
 30
0.0
 11
30.490309
 21
2.121020999999999
 31
0.0
  0
LINE
  5
26E
330
20E
100
AcDbEntity
  8
0
  6
Continuous
 62
     2
100
AcDbLine
 10
30.646559
 20
2.335271
 30
0.0
 11
30.646559
 21
2.402270999999999
 31
0.0
  0
LINE
  5
26F
330
20E
100
AcDbEntity
  8
0
  6
Continuous
 62
     2
100
AcDbLine
 10
30.490309
 20
2.402270999999999
 30
0.0
 11
30.646559
 21
2.402270999999999
 31
0.0
  0
LINE
  5
270
330
20E
100
AcDbEntity
  8
0
  6
Continuous
 62
     2
100
AcDbLine
 10
30.557309
 20
2.287333499999999
 30
0.0
 11
30.646559
 21
2.287333499999999
 31
0.0
  0
LINE
  5
271
330
20E
100
AcDbEntity
  8
0
  6
Continuous
 62
     2
100
AcDbLine
 10
30.646559
 20
2.287333499999999
 30
0.0
 11
30.646559
 21
2.2359585
 31
0.0
  0
LINE
  5
272
330
20E
100
AcDbEntity
  8
0
  6
Continuous
 62
     2
100
AcDbLine
 10
30.557309
 20
2.2359585
 30
0.0
 11
30.646559
 21
2.2359585
 31
0.0
  0
LINE
  5
273
330
20E
100
AcDbEntity
  8
0
  6
Continuous
 62
     2
100
AcDbLine
 10
30.557309
 20
2.287333499999999
 30
0.0
 11
30.557309
 21
2.335271
 31
0.0
  0
LINE
  5
274
330
20E
100
AcDbEntity
  8
0
  6
Continuous
 62
     2
100
AcDbLine
 10
30.677809
 20
2.121020999999999
 30
0.0
 11
30.677809
 21
2.402270999999999
 31
0.0
  0
LINE
  5
275
330
20E
100
AcDbEntity
  8
0
  6
Continuous
 62
     2
100
AcDbLine
 10
30.744809
 20
2.230395999999999
 30
0.0
 11
30.744809
 21
2.121020999999999
 31
0.0
  0
ARC
  5
276
330
20E
100
AcDbEntity
  8
0
  6
Continuous
 62
     2
100
AcDbCircle
 10
30.7793715
 20
2.316333499999999
 30
0.0
 40
0.0859375
100
AcDbArc
 50
304.1679402531
 51
90.0
  0
LINE
  5
277
330
20E
100
AcDbEntity
  8
0
  6
Continuous
 62
     2
100
AcDbLine
 10
30.7793715
 20
2.402270999999999
 30
0.0
 11
30.677809
 21
2.402270999999999
 31
0.0
  0
LINE
  5
278
330
20E
100
AcDbEntity
  8
0
  6
Continuous
 62
     2
100
AcDbLine
 10
30.778184
 20
2.347770999999999
 30
0.0
 11
30.744809
 21
2.347770999999999
 31
0.0
  0
LINE
  5
279
330
20E
100
AcDbEntity
  8
0
  6
Continuous
 62
     2
100
AcDbLine
 10
30.8276357616
 20
2.2452292458
 30
0.0
 11
30.896559
 21
2.121020999999999
 31
0.0
  0
LINE
  5
27A
330
20E
100
AcDbEntity
  8
0
  6
Continuous
 62
     2
100
AcDbLine
 10
30.8199350526
 20
2.121020999999999
 30
0.0
 11
30.7592427922
 21
2.230395999999999
 31
0.0
  0
LINE
  5
27B
330
20E
100
AcDbEntity
  8
0
  6
Continuous
 62
     2
100
AcDbLine
 10
30.677809
 20
2.121020999999999
 30
0.0
 11
30.744809
 21
2.121020999999999
 31
0.0
  0
LINE
  5
27C
330
20E
100
AcDbEntity
  8
0
  6
Continuous
 62
     2
100
AcDbLine
 10
30.8199350526
 20
2.121020999999999
 30
0.0
 11
30.896559
 21
2.121020999999999
 31
0.0
  0
LINE
  5
27D
330
20E
100
AcDbEntity
  8
0
  6
Continuous
 62
     2
100
AcDbLine
 10
30.778184
 20
2.2864585
 30
0.0
 11
30.744809
 21
2.2864585
 31
0.0
  0
LINE
  5
27E
330
20E
100
AcDbEntity
  8
0
  6
Continuous
 62
     2
100
AcDbLine
 10
30.744809
 20
2.347770999999999
 30
0.0
 11
30.744809
 21
2.2864585
 31
0.0
  0
LINE
  5
27F
330
20E
100
AcDbEntity
  8
0
  6
Continuous
 62
     2
100
AcDbLine
 10
30.744809
 20
2.230395999999999
 30
0.0
 11
30.7592427922
 21
2.230395999999999
 31
0.0
  0
LWPOLYLINE
  5
280
330
20E
100
AcDbEntity
  8
0
  6
Continuous
 62
     2
100
AcDbPolyline
 90
       14
 70
     0
 43
0.0
 10
30.896559
 20
2.121020999999999
 10
30.8199350526
 20
2.121020999999999
 10
30.7592427922
 20
2.230395999999999
 10
30.744809
 20
2.230395999999999
 10
30.744809
 20
2.121020999999999
 10
30.677809
 20
2.121020999999999
 10
30.677809
 20
2.347770999999999
 10
30.744809
 20
2.347770999999999
 10
30.744809
 20
2.2864585
 10
30.778184
 20
2.2864585
 10
30.858650134
 20
2.2864585
 10
30.8497683179
 20
2.267043116199999
 10
30.8276357616
 20
2.2452292458
 10
30.896559
 20
2.121020999999999
  0
HATCH
  5
281
330
20E
100
AcDbEntity
  8
0
  6
Continuous
 62
     2
100
AcDbHatch
 10
0.0
 20
0.0
 30
0.0
210
0.0
220
0.0
230
1.0
  2
SOLID
 70
     1
 71
     1
 91
        1
 92
        1
 93
       13
 72
     1
 10
30.896559
 20
2.121020999999999
 11
30.8199350526
 21
2.121020999999999
 72
     1
 10
30.8199350526
 20
2.121020999999999
 11
30.7592427922
 21
2.230395999999999
 72
     1
 10
30.7592427922
 20
2.230395999999999
 11
30.744809
 21
2.230395999999999
 72
     1
 10
30.744809
 20
2.230395999999999
 11
30.744809
 21
2.121020999999999
 72
     1
 10
30.744809
 20
2.121020999999999
 11
30.677809
 21
2.121020999999999
 72
     1
 10
30.677809
 20
2.121020999999999
 11
30.677809
 21
2.347770999999999
 72
     1
 10
30.677809
 20
2.347770999999999
 11
30.744809
 21
2.347770999999999
 72
     1
 10
30.744809
 20
2.347770999999999
 11
30.744809
 21
2.2864585
 72
     1
 10
30.744809
 20
2.2864585
 11
30.778184
 21
2.2864585
 72
     1
 10
30.778184
 20
2.2864585
 11
30.858650134
 21
2.2864585
 72
     1
 10
30.858650134
 20
2.2864585
 11
30.8497683179
 21
2.267043116199999
 72
     1
 10
30.8497683179
 20
2.267043116199999
 11
30.8276357616
 21
2.2452292458
 72
     1
 10
30.8276357616
 20
2.2452292458
 11
30.896559
 21
2.121020999999999
 97
        1
330
280
 75
     0
 76
     1
 98
        1
 10
0.0
 20
0.0
450
        0
451
        0
460
0.0
461
0.0
452
        0
462
0.0
453
        0
470

  0
LWPOLYLINE
  5
282
330
20E
100
AcDbEntity
  8
0
  6
Continuous
 62
     2
100
AcDbPolyline
 90
       18
 70
     0
 43
0.0
 10
30.677809
 20
2.347770999999999
 10
30.677809
 20
2.402270999999999
 10
30.7793715
 20
2.402270999999999
 10
30.8099349823
 20
2.396652410999999
 10
30.836501987
 20
2.3805313299
 10
30.8555986155
 20
2.356015747599999
 10
30.8647277946
 20
2.326311319
 10
30.8626957941
 20
2.295302191799999
 10
30.858650134
 20
2.2864585
 10
30.778184
 20
2.2864585
 10
30.793512125
 20
2.290565658699999
 10
30.8047330913
 20
2.301786625
 10
30.80884025
 20
2.31711475
 10
30.8047330913
 20
2.332442874999999
 10
30.793512125
 20
2.3436638413
 10
30.778184
 20
2.347770999999999
 10
30.744809
 20
2.347770999999999
 10
30.677809
 20
2.347770999999999
  0
HATCH
  5
283
330
20E
100
AcDbEntity
  8
0
  6
Continuous
 62
     2
100
AcDbHatch
 10
0.0
 20
0.0
 30
0.0
210
0.0
220
0.0
230
1.0
  2
SOLID
 70
     1
 71
     1
 91
        1
 92
        1
 93
       17
 72
     1
 10
30.677809
 20
2.347770999999999
 11
30.677809
 21
2.402270999999999
 72
     1
 10
30.677809
 20
2.402270999999999
 11
30.7793715
 21
2.402270999999999
 72
     1
 10
30.7793715
 20
2.402270999999999
 11
30.8099349823
 21
2.396652410999999
 72
     1
 10
30.8099349823
 20
2.396652410999999
 11
30.836501987
 21
2.3805313299
 72
     1
 10
30.836501987
 20
2.3805313299
 11
30.8555986155
 21
2.356015747599999
 72
     1
 10
30.8555986155
 20
2.356015747599999
 11
30.8647277946
 21
2.326311319
 72
     1
 10
30.8647277946
 20
2.326311319
 11
30.8626957941
 21
2.295302191799999
 72
     1
 10
30.8626957941
 20
2.295302191799999
 11
30.858650134
 21
2.2864585
 72
     1
 10
30.858650134
 20
2.2864585
 11
30.778184
 21
2.2864585
 72
     1
 10
30.778184
 20
2.2864585
 11
30.793512125
 21
2.290565658699999
 72
     1
 10
30.793512125
 20
2.290565658699999
 11
30.8047330913
 21
2.301786625
 72
     1
 10
30.8047330913
 20
2.301786625
 11
30.80884025
 21
2.31711475
 72
     1
 10
30.80884025
 20
2.31711475
 11
30.8047330913
 21
2.332442874999999
 72
     1
 10
30.8047330913
 20
2.332442874999999
 11
30.793512125
 21
2.3436638413
 72
     1
 10
30.793512125
 20
2.3436638413
 11
30.778184
 21
2.347770999999999
 72
     1
 10
30.778184
 20
2.347770999999999
 11
30.744809
 21
2.347770999999999
 72
     1
 10
30.744809
 20
2.347770999999999
 11
30.677809
 21
2.347770999999999
 97
        1
330
282
 75
     0
 76
     1
 98
        1
 10
0.0
 20
0.0
450
        0
451
        0
460
0.0
461
0.0
452
        0
462
0.0
453
        0
470

  0
LWPOLYLINE
  5
284
330
20E
100
AcDbEntity
  8
0
  6
Continuous
 62
     2
100
AcDbPolyline
 90
       12
 70
     0
 43
0.0
 10
29.595184
 20
2.121020999999999
 10
29.528184
 20
2.121020999999999
 10
29.528184
 20
2.402270999999999
 10
29.595184
 20
2.402270999999999
 10
29.595184
 20
2.314023308699999
 10
29.6834316913
 20
2.402270999999999
 10
29.778184
 20
2.402270999999999
 10
29.653184
 20
2.277270999999999
 10
29.778184
 20
2.121020999999999
 10
29.6923821352
 20
2.121020999999999
 10
29.595184
 20
2.242518668999999
 10
29.595184
 20
2.121020999999999
  0
HATCH
  5
285
330
20E
100
AcDbEntity
  8
0
  6
Continuous
 62
     2
100
AcDbHatch
 10
0.0
 20
0.0
 30
0.0
210
0.0
220
0.0
230
1.0
  2
SOLID
 70
     1
 71
     1
 91
        1
 92
        1
 93
       11
 72
     1
 10
29.595184
 20
2.121020999999999
 11
29.528184
 21
2.121020999999999
 72
     1
 10
29.528184
 20
2.121020999999999
 11
29.528184
 21
2.402270999999999
 72
     1
 10
29.528184
 20
2.402270999999999
 11
29.595184
 21
2.402270999999999
 72
     1
 10
29.595184
 20
2.402270999999999
 11
29.595184
 21
2.314023308699999
 72
     1
 10
29.595184
 20
2.314023308699999
 11
29.6834316913
 21
2.402270999999999
 72
     1
 10
29.6834316913
 20
2.402270999999999
 11
29.778184
 21
2.402270999999999
 72
     1
 10
29.778184
 20
2.402270999999999
 11
29.653184
 21
2.277270999999999
 72
     1
 10
29.653184
 20
2.277270999999999
 11
29.778184
 21
2.121020999999999
 72
     1
 10
29.778184
 20
2.121020999999999
 11
29.6923821352
 21
2.121020999999999
 72
     1
 10
29.6923821352
 20
2.121020999999999
 11
29.595184
 21
2.242518668999999
 72
     1
 10
29.595184
 20
2.242518668999999
 11
29.595184
 21
2.121020999999999
 97
        1
330
284
 75
     0
 76
     1
 98
        1
 10
0.0
 20
0.0
450
        0
451
        0
460
0.0
461
0.0
452
        0
462
0.0
453
        0
470

  0
LWPOLYLINE
  5
286
330
20E
100
AcDbEntity
  8
0
  6
Continuous
 62
     2
100
AcDbPolyline
 90
       23
 70
     0
 43
0.0
 10
29.887559
 20
2.121020999999999
 10
29.8441034852
 20
2.127903677399999
 10
29.8049016989
 20
2.1478779852
 10
29.7737909852
 20
2.1789886989
 10
29.7538166774
 20
2.2181904852
 10
29.746934
 20
2.261645999999999
 10
29.7538166774
 20
2.3051015148
 10
29.7690287706
 20
2.3349569287
 10
29.894352258
 20
2.3349569287
 10
29.8674105624
 20
2.332460413
 10
29.8431900249
 20
2.320400018399999
 10
29.8249617634
 20
2.300404567999999
 10
29.8151876055
 20
2.275174558199999
 10
29.8151876055
 20
2.248117441799999
 10
29.8249617634
 20
2.222887431999999
 10
29.8431900249
 20
2.2028919816
 10
29.8674105624
 20
2.190831586999999
 10
29.894352258
 20
2.1883350713
 10
30.0060892294
 20
2.1883350713
 10
30.0013270148
 20
2.1789886989
 10
29.9702163011
 20
2.1478779852
 10
29.9310145148
 20
2.127903677399999
 10
29.887559
 20
2.121020999999999
  0
HATCH
  5
287
330
20E
100
AcDbEntity
  8
0
  6
Continuous
 62
     2
100
AcDbHatch
 10
0.0
 20
0.0
 30
0.0
210
0.0
220
0.0
230
1.0
  2
SOLID
 70
     1
 71
     1
 91
        1
 92
        1
 93
       22
 72
     1
 10
29.887559
 20
2.121020999999999
 11
29.8441034852
 21
2.127903677399999
 72
     1
 10
29.8441034852
 20
2.127903677399999
 11
29.8049016989
 21
2.1478779852
 72
     1
 10
29.8049016989
 20
2.1478779852
 11
29.7737909852
 21
2.1789886989
 72
     1
 10
29.7737909852
 20
2.1789886989
 11
29.7538166774
 21
2.2181904852
 72
     1
 10
29.7538166774
 20
2.2181904852
 11
29.746934
 21
2.261645999999999
 72
     1
 10
29.746934
 20
2.261645999999999
 11
29.7538166774
 21
2.3051015148
 72
     1
 10
29.7538166774
 20
2.3051015148
 11
29.7690287706
 21
2.3349569287
 72
     1
 10
29.7690287706
 20
2.3349569287
 11
29.894352258
 21
2.3349569287
 72
     1
 10
29.894352258
 20
2.3349569287
 11
29.8674105624
 21
2.332460413
 72
     1
 10
29.8674105624
 20
2.332460413
 11
29.8431900249
 21
2.320400018399999
 72
     1
 10
29.8431900249
 20
2.320400018399999
 11
29.8249617634
 21
2.300404567999999
 72
     1
 10
29.8249617634
 20
2.300404567999999
 11
29.8151876055
 21
2.275174558199999
 72
     1
 10
29.8151876055
 20
2.275174558199999
 11
29.8151876055
 21
2.248117441799999
 72
     1
 10
29.8151876055
 20
2.248117441799999
 11
29.8249617634
 21
2.222887431999999
 72
     1
 10
29.8249617634
 20
2.222887431999999
 11
29.8431900249
 21
2.2028919816
 72
     1
 10
29.8431900249
 20
2.2028919816
 11
29.8674105624
 21
2.190831586999999
 72
     1
 10
29.8674105624
 20
2.190831586999999
 11
29.894352258
 21
2.1883350713
 72
     1
 10
29.894352258
 20
2.1883350713
 11
30.0060892294
 21
2.1883350713
 72
     1
 10
30.0060892294
 20
2.1883350713
 11
30.0013270148
 21
2.1789886989
 72
     1
 10
30.0013270148
 20
2.1789886989
 11
29.9702163011
 21
2.1478779852
 72
     1
 10
29.9702163011
 20
2.1478779852
 11
29.9310145148
 21
2.127903677399999
 72
     1
 10
29.9310145148
 20
2.127903677399999
 11
29.887559
 21
2.121020999999999
 97
        1
330
286
 75
     0
 76
     1
 98
        1
 10
0.0
 20
0.0
450
        0
451
        0
460
0.0
461
0.0
452
        0
462
0.0
453
        0
470

  0
LWPOLYLINE
  5
288
330
20E
100
AcDbEntity
  8
0
  6
Continuous
 62
     2
100
AcDbPolyline
 90
       22
 70
     0
 43
0.0
 10
29.7690287706
 20
2.3349569287
 10
29.7737909852
 20
2.3443033011
 10
29.8049016989
 20
2.3754140148
 10
29.8441034852
 20
2.3953883226
 10
29.887559
 20
2.402270999999999
 10
29.9310145148
 20
2.3953883226
 10
29.9702163011
 20
2.3754140148
 10
30.0013270148
 20
2.3443033011
 10
30.0213013226
 20
2.3051015148
 10
30.028184
 20
2.261645999999999
 10
30.0213013226
 20
2.2181904852
 10
30.0060892294
 20
2.1883350713
 10
29.894352258
 20
2.1883350713
 10
29.9203764864
 20
2.195739602699999
 10
29.9419685315
 20
2.2120451582
 10
29.9562122679
 20
2.235049582299999
 10
29.961184
 20
2.261645999999999
 10
29.9562122679
 20
2.288242417699999
 10
29.9419685315
 20
2.3112468418
 10
29.9203764864
 20
2.327552397299999
 10
29.894352258
 20
2.3349569287
 10
29.7690287706
 20
2.3349569287
  0
HATCH
  5
289
330
20E
100
AcDbEntity
  8
0
  6
Continuous
 62
     2
100
AcDbHatch
 10
0.0
 20
0.0
 30
0.0
210
0.0
220
0.0
230
1.0
  2
SOLID
 70
     1
 71
     1
 91
        1
 92
        1
 93
       21
 72
     1
 10
29.7690287706
 20
2.3349569287
 11
29.7737909852
 21
2.3443033011
 72
     1
 10
29.7737909852
 20
2.3443033011
 11
29.8049016989
 21
2.3754140148
 72
     1
 10
29.8049016989
 20
2.3754140148
 11
29.8441034852
 21
2.3953883226
 72
     1
 10
29.8441034852
 20
2.3953883226
 11
29.887559
 21
2.402270999999999
 72
     1
 10
29.887559
 20
2.402270999999999
 11
29.9310145148
 21
2.3953883226
 72
     1
 10
29.9310145148
 20
2.3953883226
 11
29.9702163011
 21
2.3754140148
 72
     1
 10
29.9702163011
 20
2.3754140148
 11
30.0013270148
 21
2.3443033011
 72
     1
 10
30.0013270148
 20
2.3443033011
 11
30.0213013226
 21
2.3051015148
 72
     1
 10
30.0213013226
 20
2.3051015148
 11
30.028184
 21
2.261645999999999
 72
     1
 10
30.028184
 20
2.261645999999999
 11
30.0213013226
 21
2.2181904852
 72
     1
 10
30.0213013226
 20
2.2181904852
 11
30.0060892294
 21
2.1883350713
 72
     1
 10
30.0060892294
 20
2.1883350713
 11
29.894352258
 21
2.1883350713
 72
     1
 10
29.894352258
 20
2.1883350713
 11
29.9203764864
 21
2.195739602699999
 72
     1
 10
29.9203764864
 20
2.195739602699999
 11
29.9419685315
 21
2.2120451582
 72
     1
 10
29.9419685315
 20
2.2120451582
 11
29.9562122679
 21
2.235049582299999
 72
     1
 10
29.9562122679
 20
2.235049582299999
 11
29.961184
 21
2.261645999999999
 72
     1
 10
29.961184
 20
2.261645999999999
 11
29.9562122679
 21
2.288242417699999
 72
     1
 10
29.9562122679
 20
2.288242417699999
 11
29.9419685315
 21
2.3112468418
 72
     1
 10
29.9419685315
 20
2.3112468418
 11
29.9203764864
 21
2.327552397299999
 72
     1
 10
29.9203764864
 20
2.327552397299999
 11
29.894352258
 21
2.3349569287
 72
     1
 10
29.894352258
 20
2.3349569287
 11
29.7690287706
 21
2.3349569287
 97
        1
330
288
 75
     0
 76
     1
 98
        1
 10
0.0
 20
0.0
450
        0
451
        0
460
0.0
461
0.0
452
        0
462
0.0
453
        0
470

  0
LWPOLYLINE
  5
28A
330
20E
100
AcDbEntity
  8
0
  6
Continuous
 62
     2
100
AcDbPolyline
 90
       13
 70
     0
 43
0.0
 10
30.126434
 20
2.121020999999999
 10
30.059434
 20
2.121020999999999
 10
30.059434
 20
2.402270999999999
 10
30.126434
 20
2.402270999999999
 10
30.126434
 20
2.310770999999999
 10
30.204559
 20
2.310770999999999
 10
30.204559
 20
2.402270999999999
 10
30.271559
 20
2.402270999999999
 10
30.271559
 20
2.121020999999999
 10
30.204559
 20
2.121020999999999
 10
30.204559
 20
2.243771
 10
30.126434
 20
2.243771
 10
30.126434
 20
2.121020999999999
  0
HATCH
  5
28B
330
20E
100
AcDbEntity
  8
0
  6
Continuous
 62
     2
100
AcDbHatch
 10
0.0
 20
0.0
 30
0.0
210
0.0
220
0.0
230
1.0
  2
SOLID
 70
     1
 71
     1
 91
        1
 92
        1
 93
       12
 72
     1
 10
30.126434
 20
2.121020999999999
 11
30.059434
 21
2.121020999999999
 72
     1
 10
30.059434
 20
2.121020999999999
 11
30.059434
 21
2.402270999999999
 72
     1
 10
30.059434
 20
2.402270999999999
 11
30.126434
 21
2.402270999999999
 72
     1
 10
30.126434
 20
2.402270999999999
 11
30.126434
 21
2.310770999999999
 72
     1
 10
30.126434
 20
2.310770999999999
 11
30.204559
 21
2.310770999999999
 72
     1
 10
30.204559
 20
2.310770999999999
 11
30.204559
 21
2.402270999999999
 72
     1
 10
30.204559
 20
2.402270999999999
 11
30.271559
 21
2.402270999999999
 72
     1
 10
30.271559
 20
2.402270999999999
 11
30.271559
 21
2.121020999999999
 72
     1
 10
30.271559
 20
2.121020999999999
 11
30.204559
 21
2.121020999999999
 72
     1
 10
30.204559
 20
2.121020999999999
 11
30.204559
 21
2.243771
 72
     1
 10
30.204559
 20
2.243771
 11
30.126434
 21
2.243771
 72
     1
 10
30.126434
 20
2.243771
 11
30.126434
 21
2.121020999999999
 97
        1
330
28A
 75
     0
 76
     1
 98
        1
 10
0.0
 20
0.0
450
        0
451
        0
460
0.0
461
0.0
452
        0
462
0.0
453
        0
470

  0
LWPOLYLINE
  5
28C
330
20E
100
AcDbEntity
  8
0
  6
Continuous
 62
     2
100
AcDbPolyline
 90
        7
 70
     0
 43
0.0
 10
30.459059
 20
2.121020999999999
 10
30.302809
 20
2.121020999999999
 10
30.302809
 20
2.402270999999999
 10
30.369809
 20
2.402270999999999
 10
30.369809
 20
2.188020999999999
 10
30.459059
 20
2.188020999999999
 10
30.459059
 20
2.121020999999999
  0
HATCH
  5
28D
330
20E
100
AcDbEntity
  8
0
  6
Continuous
 62
     2
100
AcDbHatch
 10
0.0
 20
0.0
 30
0.0
210
0.0
220
0.0
230
1.0
  2
SOLID
 70
     1
 71
     1
 91
        1
 92
        1
 93
        6
 72
     1
 10
30.459059
 20
2.121020999999999
 11
30.302809
 21
2.121020999999999
 72
     1
 10
30.302809
 20
2.121020999999999
 11
30.302809
 21
2.402270999999999
 72
     1
 10
30.302809
 20
2.402270999999999
 11
30.369809
 21
2.402270999999999
 72
     1
 10
30.369809
 20
2.402270999999999
 11
30.369809
 21
2.188020999999999
 72
     1
 10
30.369809
 20
2.188020999999999
 11
30.459059
 21
2.188020999999999
 72
     1
 10
30.459059
 20
2.188020999999999
 11
30.459059
 21
2.121020999999999
 97
        1
330
28C
 75
     0
 76
     1
 98
        1
 10
0.0
 20
0.0
450
        0
451
        0
460
0.0
461
0.0
452
        0
462
0.0
453
        0
470

  0
LWPOLYLINE
  5
28E
330
20E
100
AcDbEntity
  8
0
  6
Continuous
 62
     2
100
AcDbPolyline
 90
       13
 70
     0
 43
0.0
 10
30.646559
 20
2.121020999999999
 10
30.490309
 20
2.121020999999999
 10
30.490309
 20
2.402270999999999
 10
30.646559
 20
2.402270999999999
 10
30.646559
 20
2.335271
 10
30.557309
 20
2.335271
 10
30.557309
 20
2.287333499999999
 10
30.646559
 20
2.287333499999999
 10
30.646559
 20
2.2359585
 10
30.557309
 20
2.2359585
 10
30.557309
 20
2.188020999999999
 10
30.646559
 20
2.188020999999999
 10
30.646559
 20
2.121020999999999
  0
HATCH
  5
28F
330
20E
100
AcDbEntity
  8
0
  6
Continuous
 62
     2
100
AcDbHatch
 10
0.0
 20
0.0
 30
0.0
210
0.0
220
0.0
230
1.0
  2
SOLID
 70
     1
 71
     1
 91
        1
 92
        1
 93
       12
 72
     1
 10
30.646559
 20
2.121020999999999
 11
30.490309
 21
2.121020999999999
 72
     1
 10
30.490309
 20
2.121020999999999
 11
30.490309
 21
2.402270999999999
 72
     1
 10
30.490309
 20
2.402270999999999
 11
30.646559
 21
2.402270999999999
 72
     1
 10
30.646559
 20
2.402270999999999
 11
30.646559
 21
2.335271
 72
     1
 10
30.646559
 20
2.335271
 11
30.557309
 21
2.335271
 72
     1
 10
30.557309
 20
2.335271
 11
30.557309
 21
2.287333499999999
 72
     1
 10
30.557309
 20
2.287333499999999
 11
30.646559
 21
2.287333499999999
 72
     1
 10
30.646559
 20
2.287333499999999
 11
30.646559
 21
2.2359585
 72
     1
 10
30.646559
 20
2.2359585
 11
30.557309
 21
2.2359585
 72
     1
 10
30.557309
 20
2.2359585
 11
30.557309
 21
2.188020999999999
 72
     1
 10
30.557309
 20
2.188020999999999
 11
30.646559
 21
2.188020999999999
 72
     1
 10
30.646559
 20
2.188020999999999
 11
30.646559
 21
2.121020999999999
 97
        1
330
28E
 75
     0
 76
     1
 98
        1
 10
0.0
 20
0.0
450
        0
451
        0
460
0.0
461
0.0
452
        0
462
0.0
453
        0
470

  0
ENDBLK
  5
290
330
20E
100
AcDbEntity
  8
0
  6
ByBlock
 62
     0
100
AcDbBlockEnd
  0
BLOCK
  5
291
330
20F
100
AcDbEntity
  8
DEFAULT_2
  6
HIDDEN
 62
     8
100
AcDbBlockBegin
  2
C_ARROW_BL1
 70
     0
 10
17.0
 20
21.775
 30
0.0
  3
C_ARROW_BL1
  1

  0
LINE
  5
292
330
20F
100
AcDbEntity
  8
DEFAULT_2
  6
HIDDEN
 62
     8
100
AcDbLine
 10
17.0
 20
21.5875
 30
0.0
 11
17.09375
 21
21.775
 31
0.0
  0
LINE
  5
293
330
20F
100
AcDbEntity
  8
DEFAULT_2
  6
HIDDEN
 62
     8
100
AcDbLine
 10
17.0
 20
21.5875
 30
0.0
 11
16.90625
 21
21.775
 31
0.0
  0
LINE
  5
294
330
20F
100
AcDbEntity
  8
DEFAULT_2
  6
HIDDEN
 62
     8
100
AcDbLine
 10
16.9765625
 20
21.775
 30
0.0
 11
16.90625
 21
21.775
 31
0.0
  0
LINE
  5
295
330
20F
100
AcDbEntity
  8
DEFAULT_2
  6
HIDDEN
 62
     8
100
AcDbLine
 10
16.9765625
 20
21.9625
 30
0.0
 11
16.9765625
 21
21.775
 31
0.0
  0
LINE
  5
296
330
20F
100
AcDbEntity
  8
DEFAULT_2
  6
HIDDEN
 62
     8
100
AcDbLine
 10
16.9765625
 20
21.9625
 30
0.0
 11
17.0234375
 21
21.9625
 31
0.0
  0
LINE
  5
297
330
20F
100
AcDbEntity
  8
DEFAULT_2
  6
HIDDEN
 62
     8
100
AcDbLine
 10
17.0234375
 20
21.775
 30
0.0
 11
17.0234375
 21
21.9625
 31
0.0
  0
LINE
  5
298
330
20F
100
AcDbEntity
  8
DEFAULT_2
  6
HIDDEN
 62
     8
100
AcDbLine
 10
17.09375
 20
21.775
 30
0.0
 11
17.0234375
 21
21.775
 31
0.0
  0
LWPOLYLINE
  5
299
330
20F
100
AcDbEntity
  8
DEFAULT_2
  6
HIDDEN
 62
     8
100
AcDbPolyline
 90
        8
 70
     0
 43
0.0
 10
17.0
 20
21.5875
 10
16.90625
 20
21.775
 10
16.9765625
 20
21.775
 10
16.9765625
 20
21.9625
 10
17.0234375
 20
21.9625
 10
17.0234375
 20
21.775
 10
17.09375
 20
21.775
 10
17.0
 20
21.5875
  0
HATCH
  5
29A
330
20F
100
AcDbEntity
  8
DEFAULT_2
  6
HIDDEN
 62
     8
100
AcDbHatch
 10
0.0
 20
0.0
 30
0.0
210
0.0
220
0.0
230
1.0
  2
SOLID
 70
     1
 71
     1
 91
        1
 92
        1
 93
        7
 72
     1
 10
17.0
 20
21.5875
 11
16.90625
 21
21.775
 72
     1
 10
16.90625
 20
21.775
 11
16.9765625
 21
21.775
 72
     1
 10
16.9765625
 20
21.775
 11
16.9765625
 21
21.9625
 72
     1
 10
16.9765625
 20
21.9625
 11
17.0234375
 21
21.9625
 72
     1
 10
17.0234375
 20
21.9625
 11
17.0234375
 21
21.775
 72
     1
 10
17.0234375
 20
21.775
 11
17.09375
 21
21.775
 72
     1
 10
17.09375
 20
21.775
 11
17.0
 21
21.5875
 97
        1
330
299
 75
     0
 76
     1
 98
        1
 10
0.0
 20
0.0
450
        0
451
        0
460
0.0
461
0.0
452
        0
462
0.0
453
        0
470

  0
ENDBLK
  5
29B
330
20F
100
AcDbEntity
  8
0
  6
ByBlock
 62
     0
100
AcDbBlockEnd
  0
BLOCK
  5
29C
330
210
100
AcDbEntity
  8
DEFAULT_2
  6
HIDDEN
 62
     8
100
AcDbBlockBegin
  2
C_ARROW_BL2
 70
     0
 10
0.3375
 20
11.0
 30
0.0
  3
C_ARROW_BL2
  1

  0
LINE
  5
29D
330
210
100
AcDbEntity
  8
DEFAULT_2
  6
HIDDEN
 62
     8
100
AcDbLine
 10
0.525
 20
11.0
 30
0.0
 11
0.3375
 21
11.09375
 31
0.0
  0
LINE
  5
29E
330
210
100
AcDbEntity
  8
DEFAULT_2
  6
HIDDEN
 62
     8
100
AcDbLine
 10
0.525
 20
11.0
 30
0.0
 11
0.3375
 21
10.90625
 31
0.0
  0
LINE
  5
29F
330
210
100
AcDbEntity
  8
DEFAULT_2
  6
HIDDEN
 62
     8
100
AcDbLine
 10
0.3375
 20
10.9765625
 30
0.0
 11
0.3375
 21
10.90625
 31
0.0
  0
LINE
  5
2A0
330
210
100
AcDbEntity
  8
DEFAULT_2
  6
HIDDEN
 62
     8
100
AcDbLine
 10
0.15
 20
10.9765625
 30
0.0
 11
0.3375
 21
10.9765625
 31
0.0
  0
LINE
  5
2A1
330
210
100
AcDbEntity
  8
DEFAULT_2
  6
HIDDEN
 62
     8
100
AcDbLine
 10
0.15
 20
10.9765625
 30
0.0
 11
0.15
 21
11.0234375
 31
0.0
  0
LINE
  5
2A2
330
210
100
AcDbEntity
  8
DEFAULT_2
  6
HIDDEN
 62
     8
100
AcDbLine
 10
0.3375
 20
11.0234375
 30
0.0
 11
0.15
 21
11.0234375
 31
0.0
  0
LINE
  5
2A3
330
210
100
AcDbEntity
  8
DEFAULT_2
  6
HIDDEN
 62
     8
100
AcDbLine
 10
0.3375
 20
11.09375
 30
0.0
 11
0.3375
 21
11.0234375
 31
0.0
  0
LWPOLYLINE
  5
2A4
330
210
100
AcDbEntity
  8
DEFAULT_2
  6
HIDDEN
 62
     8
100
AcDbPolyline
 90
        8
 70
     0
 43
0.0
 10
0.525
 20
11.0
 10
0.3375
 20
10.90625
 10
0.3375
 20
10.9765625
 10
0.15
 20
10.9765625
 10
0.15
 20
11.0234375
 10
0.3375
 20
11.0234375
 10
0.3375
 20
11.09375
 10
0.525
 20
11.0
  0
HATCH
  5
2A5
330
210
100
AcDbEntity
  8
DEFAULT_2
  6
HIDDEN
 62
     8
100
AcDbHatch
 10
0.0
 20
0.0
 30
0.0
210
0.0
220
0.0
230
1.0
  2
SOLID
 70
     1
 71
     1
 91
        1
 92
        1
 93
        7
 72
     1
 10
0.525
 20
11.0
 11
0.3375
 21
10.90625
 72
     1
 10
0.3375
 20
10.90625
 11
0.3375
 21
10.9765625
 72
     1
 10
0.3375
 20
10.9765625
 11
0.15
 21
10.9765625
 72
     1
 10
0.15
 20
10.9765625
 11
0.15
 21
11.0234375
 72
     1
 10
0.15
 20
11.0234375
 11
0.3375
 21
11.0234375
 72
     1
 10
0.3375
 20
11.0234375
 11
0.3375
 21
11.09375
 72
     1
 10
0.3375
 20
11.09375
 11
0.525
 21
11.0
 97
        1
330
2A4
 75
     0
 76
     1
 98
        1
 10
0.0
 20
0.0
450
        0
451
        0
460
0.0
461
0.0
452
        0
462
0.0
453
        0
470

  0
ENDBLK
  5
2A6
330
210
100
AcDbEntity
  8
0
  6
ByBlock
 62
     0
100
AcDbBlockEnd
  0
BLOCK
  5
2A7
330
211
100
AcDbEntity
  8
DEFAULT_2
  6
HIDDEN
 62
     8
100
AcDbBlockBegin
  2
C_ARROW_BL3
 70
     0
 10
17.0
 20
0.4
 30
0.0
  3
C_ARROW_BL3
  1

  0
LINE
  5
2A8
330
211
100
AcDbEntity
  8
DEFAULT_2
  6
HIDDEN
 62
     8
100
AcDbLine
 10
17.0
 20
0.5875
 30
0.0
 11
16.90625
 21
0.4
 31
0.0
  0
LINE
  5
2A9
330
211
100
AcDbEntity
  8
DEFAULT_2
  6
HIDDEN
 62
     8
100
AcDbLine
 10
17.0
 20
0.5875
 30
0.0
 11
17.09375
 21
0.4
 31
0.0
  0
LINE
  5
2AA
330
211
100
AcDbEntity
  8
DEFAULT_2
  6
HIDDEN
 62
     8
100
AcDbLine
 10
17.0234375
 20
0.4
 30
0.0
 11
17.09375
 21
0.4
 31
0.0
  0
LINE
  5
2AB
330
211
100
AcDbEntity
  8
DEFAULT_2
  6
HIDDEN
 62
     8
100
AcDbLine
 10
17.0234375
 20
0.2125
 30
0.0
 11
17.0234375
 21
0.4
 31
0.0
  0
LINE
  5
2AC
330
211
100
AcDbEntity
  8
DEFAULT_2
  6
HIDDEN
 62
     8
100
AcDbLine
 10
17.0234375
 20
0.2125
 30
0.0
 11
16.9765625
 21
0.2125
 31
0.0
  0
LINE
  5
2AD
330
211
100
AcDbEntity
  8
DEFAULT_2
  6
HIDDEN
 62
     8
100
AcDbLine
 10
16.9765625
 20
0.4
 30
0.0
 11
16.9765625
 21
0.2125
 31
0.0
  0
LINE
  5
2AE
330
211
100
AcDbEntity
  8
DEFAULT_2
  6
HIDDEN
 62
     8
100
AcDbLine
 10
16.90625
 20
0.4
 30
0.0
 11
16.9765625
 21
0.4
 31
0.0
  0
LWPOLYLINE
  5
2AF
330
211
100
AcDbEntity
  8
DEFAULT_2
  6
HIDDEN
 62
     8
100
AcDbPolyline
 90
        8
 70
     0
 43
0.0
 10
17.0
 20
0.5875
 10
17.09375
 20
0.4
 10
17.0234375
 20
0.4
 10
17.0234375
 20
0.2125
 10
16.9765625
 20
0.2125
 10
16.9765625
 20
0.4
 10
16.90625
 20
0.4
 10
17.0
 20
0.5875
  0
HATCH
  5
2B0
330
211
100
AcDbEntity
  8
DEFAULT_2
  6
HIDDEN
 62
     8
100
AcDbHatch
 10
0.0
 20
0.0
 30
0.0
210
0.0
220
0.0
230
1.0
  2
SOLID
 70
     1
 71
     1
 91
        1
 92
        1
 93
        7
 72
     1
 10
17.0
 20
0.5875
 11
17.09375
 21
0.4
 72
     1
 10
17.09375
 20
0.4
 11
17.0234375
 21
0.4
 72
     1
 10
17.0234375
 20
0.4
 11
17.0234375
 21
0.2125
 72
     1
 10
17.0234375
 20
0.2125
 11
16.9765625
 21
0.2125
 72
     1
 10
16.9765625
 20
0.2125
 11
16.9765625
 21
0.4
 72
     1
 10
16.9765625
 20
0.4
 11
16.90625
 21
0.4
 72
     1
 10
16.90625
 20
0.4
 11
17.0
 21
0.5875
 97
        1
330
2AF
 75
     0
 76
     1
 98
        1
 10
0.0
 20
0.0
450
        0
451
        0
460
0.0
461
0.0
452
        0
462
0.0
453
        0
470

  0
ENDBLK
  5
2B1
330
211
100
AcDbEntity
  8
0
  6
ByBlock
 62
     0
100
AcDbBlockEnd
  0
BLOCK
  5
2B2
330
212
100
AcDbEntity
  8
DEFAULT_2
  6
HIDDEN
 62
     8
100
AcDbBlockBegin
  2
C_ARROW_BL4
 70
     0
 10
33.7125
 20
11.0
 30
0.0
  3
C_ARROW_BL4
  1

  0
LINE
  5
2B3
330
212
100
AcDbEntity
  8
DEFAULT_2
  6
HIDDEN
 62
     8
100
AcDbLine
 10
33.525
 20
11.0
 30
0.0
 11
33.7125
 21
10.90625
 31
0.0
  0
LINE
  5
2B4
330
212
100
AcDbEntity
  8
DEFAULT_2
  6
HIDDEN
 62
     8
100
AcDbLine
 10
33.525
 20
11.0
 30
0.0
 11
33.7125
 21
11.09375
 31
0.0
  0
LINE
  5
2B5
330
212
100
AcDbEntity
  8
DEFAULT_2
  6
HIDDEN
 62
     8
100
AcDbLine
 10
33.7125
 20
11.0234375
 30
0.0
 11
33.7125
 21
11.09375
 31
0.0
  0
LINE
  5
2B6
330
212
100
AcDbEntity
  8
DEFAULT_2
  6
HIDDEN
 62
     8
100
AcDbLine
 10
33.9
 20
11.0234375
 30
0.0
 11
33.7125
 21
11.0234375
 31
0.0
  0
LINE
  5
2B7
330
212
100
AcDbEntity
  8
DEFAULT_2
  6
HIDDEN
 62
     8
100
AcDbLine
 10
33.9
 20
11.0234375
 30
0.0
 11
33.9
 21
10.9765625
 31
0.0
  0
LINE
  5
2B8
330
212
100
AcDbEntity
  8
DEFAULT_2
  6
HIDDEN
 62
     8
100
AcDbLine
 10
33.7125
 20
10.9765625
 30
0.0
 11
33.9
 21
10.9765625
 31
0.0
  0
LINE
  5
2B9
330
212
100
AcDbEntity
  8
DEFAULT_2
  6
HIDDEN
 62
     8
100
AcDbLine
 10
33.7125
 20
10.90625
 30
0.0
 11
33.7125
 21
10.9765625
 31
0.0
  0
LWPOLYLINE
  5
2BA
330
212
100
AcDbEntity
  8
DEFAULT_2
  6
HIDDEN
 62
     8
100
AcDbPolyline
 90
        8
 70
     0
 43
0.0
 10
33.525
 20
11.0
 10
33.7125
 20
11.09375
 10
33.7125
 20
11.0234375
 10
33.9
 20
11.0234375
 10
33.9
 20
10.9765625
 10
33.7125
 20
10.9765625
 10
33.7125
 20
10.90625
 10
33.525
 20
11.0
  0
HATCH
  5
2BB
330
212
100
AcDbEntity
  8
DEFAULT_2
  6
HIDDEN
 62
     8
100
AcDbHatch
 10
0.0
 20
0.0
 30
0.0
210
0.0
220
0.0
230
1.0
  2
SOLID
 70
     1
 71
     1
 91
        1
 92
        1
 93
        7
 72
     1
 10
33.525
 20
11.0
 11
33.7125
 21
11.09375
 72
     1
 10
33.7125
 20
11.09375
 11
33.7125
 21
11.0234375
 72
     1
 10
33.7125
 20
11.0234375
 11
33.9
 21
11.0234375
 72
     1
 10
33.9
 20
11.0234375
 11
33.9
 21
10.9765625
 72
     1
 10
33.9
 20
10.9765625
 11
33.7125
 21
10.9765625
 72
     1
 10
33.7125
 20
10.9765625
 11
33.7125
 21
10.90625
 72
     1
 10
33.7125
 20
10.90625
 11
33.525
 21
11.0
 97
        1
330
2BA
 75
     0
 76
     1
 98
        1
 10
0.0
 20
0.0
450
        0
451
        0
460
0.0
461
0.0
452
        0
462
0.0
453
        0
470

  0
ENDBLK
  5
2BC
330
212
100
AcDbEntity
  8
0
  6
ByBlock
 62
     0
100
AcDbBlockEnd
  0
BLOCK
  5
3EC
330
237
100
AcDbEntity
  8
___SYMBOL
  6
Continuous
 62
     2
100
AcDbBlockBegin
  2
DELTA_BL5
 70
     0
 10
28.2267965007
 20
2.342957586599999
 30
0.0
  3
DELTA_BL5
  1

  0
TEXT
  5
3ED
330
237
100
AcDbEntity
  8
___SYMBOL
  6
Continuous
 62
     2
100
AcDbText
 10
28.1583483255
 20
2.209829176399999
 30
0.0
 40
0.15625
  1
B
 41
0.8
100
AcDbText
  0
LINE
  5
3EE
330
237
100
AcDbEntity
  8
___SYMBOL
  6
Continuous
 62
     7
100
AcDbLine
 10
28.4515680123
 20
2.167215554899999
 30
0.0
 11
28.0020249892
 21
2.167215554899999
 31
0.0
  0
LINE
  5
3EF
330
237
100
AcDbEntity
  8
___SYMBOL
  6
Continuous
 62
     7
100
AcDbLine
 10
28.0020249892
 20
2.167215554899999
 30
0.0
 11
28.2172453034
 21
2.518699618299999
 31
0.0
  0
LINE
  5
3F0
330
237
100
AcDbEntity
  8
___SYMBOL
  6
Continuous
 62
     7
100
AcDbLine
 10
28.2172453034
 20
2.518699618299999
 30
0.0
 11
28.4515680123
 21
2.167215554899999
 31
0.0
  0
ENDBLK
  5
3F1
330
237
100
AcDbEntity
  8
0
  6
ByBlock
 62
     0
100
AcDbBlockEnd
  0
BLOCK
  5
3F2
330
238
100
AcDbEntity
  8
___SYMBOL
  6
Continuous
 62
     2
100
AcDbBlockBegin
  2
GENERIC_STANDARD_BL6
 70
     0
 10
13.1792791085
 20
2.393631148299999
 30
0.0
  3
GENERIC_STANDARD_BL6
  1

  0
TEXT
  5
3F3
330
238
100
AcDbEntity
  8
___SYMBOL
  6
Continuous
 62
     2
100
AcDbText
 10
11.8969457589
 20
3.808248720299999
 30
0.0
 40
0.1562499832
  1
APPLICABLE STANDARDS:
 41
0.7182539683
  7
TEXTSTYLE_2
100
AcDbText
  0
TEXT
  5
3F4
330
238
100
AcDbEntity
  8
___SYMBOL
  6
Continuous
 62
     2
100
AcDbText
 10
12.063881752
 20
2.988146698099999
 30
0.0
 40
0.1562499832
  1
B
 41
0.8
100
AcDbText
  0
TEXT
  5
3F5
330
238
100
AcDbEntity
  8
___SYMBOL
  6
Continuous
 62
     2
100
AcDbText
 10
12.063881752
 20
1.742128808599999
 30
0.0
 40
0.1562499832
  1
E
 41
0.8
100
AcDbText
  0
TEXT
  5
3F6
330
238
100
AcDbEntity
  8
___SYMBOL
  6
Continuous
 62
     2
100
AcDbText
 10
12.063881752
 20
2.568474679299999
 30
0.0
 40
0.1562499832
  1
C
 41
0.8
100
AcDbText
  0
TEXT
  5
3F7
330
238
100
AcDbEntity
  8
___SYMBOL
  6
Continuous
 62
     2
100
AcDbText
 10
12.0569853541
 20
3.392778446799999
 30
0.0
 40
0.1562499832
  1
A
 41
0.8
100
AcDbText
  0
TEXT
  5
3F8
330
238
100
AcDbEntity
  8
___SYMBOL
  6
Continuous
 62
     2
100
AcDbText
 10
12.063881752
 20
2.1567100995
 30
0.0
 40
0.1562499832
  1
D
 41
0.8
100
AcDbText
  0
TEXT
  5
3F9
330
238
100
AcDbEntity
  8
___SYMBOL
  6
Continuous
 62
     2
100
AcDbText
 10
12.4616126726
 20
3.416859105699999
 30
0.0
 40
0.1562499832
  1
H040.001
 41
0.8
100
AcDbText
  0
TEXT
  5
3FA
330
238
100
AcDbEntity
  8
___SYMBOL
  6
Continuous
 62
     2
100
AcDbText
 10
12.4615106796
 20
2.9987755255
 30
0.0
 40
0.1562499832
  1
H040.001.5.4
 41
0.8
100
AcDbText
  0
TEXT
  5
3FB
330
238
100
AcDbEntity
  8
___SYMBOL
  6
Continuous
 62
     2
100
AcDbText
 10
12.4569531781
 20
2.5794407963
 30
0.0
 40
0.1562499832
  1
H040.001.1C.4
 41
0.8
100
AcDbText
  0
TEXT
  5
3FC
330
238
100
AcDbEntity
  8
___SYMBOL
  6
Continuous
 62
     2
100
AcDbText
 10
12.4642103705
 20
2.173013851999999
 30
0.0
 40
0.1562499832
  1
G300.050.3.4.2
 41
0.8
100
AcDbText
  0
TEXT
  5
3FD
330
238
100
AcDbEntity
  8
___SYMBOL
  6
Continuous
 62
     2
100
AcDbText
 10
12.4599876699
 20
1.730179660099999
 30
0.0
 40
0.1562499832
  1
G300.015.3.3.1
 41
0.8
100
AcDbText
  0
LINE
  5
3FE
330
238
100
AcDbEntity
  8
___SYMBOL
  6
Continuous
 62
     7
100
AcDbLine
 10
12.3495092074
 20
2.9211875455
 30
0.0
 11
11.8999662325
 21
2.9211875455
 31
0.0
  0
LINE
  5
3FF
330
238
100
AcDbEntity
  8
___SYMBOL
  6
Continuous
 62
     7
100
AcDbLine
 10
11.8999662325
 20
2.9211875455
 30
0.0
 11
12.1151865236
 21
3.2726715712
 31
0.0
  0
LINE
  5
400
330
238
100
AcDbEntity
  8
___SYMBOL
  6
Continuous
 62
     7
100
AcDbLine
 10
12.1151865236
 20
3.2726715712
 30
0.0
 11
12.3495092074
 21
2.9211875455
 31
0.0
  0
LINE
  5
401
330
238
100
AcDbEntity
  8
___SYMBOL
  6
Continuous
 62
     7
100
AcDbLine
 10
12.3495092074
 20
1.675169656
 30
0.0
 11
11.8999662325
 21
1.675169656
 31
0.0
  0
LINE
  5
402
330
238
100
AcDbEntity
  8
___SYMBOL
  6
Continuous
 62
     7
100
AcDbLine
 10
11.8999662325
 20
1.675169656
 30
0.0
 11
12.1151865236
 21
2.0266536817
 31
0.0
  0
LINE
  5
403
330
238
100
AcDbEntity
  8
___SYMBOL
  6
Continuous
 62
     7
100
AcDbLine
 10
12.1151865236
 20
2.0266536817
 30
0.0
 11
12.3495092074
 21
1.675169656
 31
0.0
  0
LINE
  5
404
330
238
100
AcDbEntity
  8
___SYMBOL
  6
Continuous
 62
     7
100
AcDbLine
 10
12.3495092074
 20
2.501515526699999
 30
0.0
 11
11.8999662325
 21
2.501515526699999
 31
0.0
  0
LINE
  5
405
330
238
100
AcDbEntity
  8
___SYMBOL
  6
Continuous
 62
     7
100
AcDbLine
 10
11.8999662325
 20
2.501515526699999
 30
0.0
 11
12.1151865236
 21
2.8529995524
 31
0.0
  0
LINE
  5
406
330
238
100
AcDbEntity
  8
___SYMBOL
  6
Continuous
 62
     7
100
AcDbLine
 10
12.1151865236
 20
2.8529995524
 30
0.0
 11
12.3495092074
 21
2.501515526699999
 31
0.0
  0
LINE
  5
407
330
238
100
AcDbEntity
  8
___SYMBOL
  6
Continuous
 62
     7
100
AcDbLine
 10
12.3495092074
 20
2.089750959799999
 30
0.0
 11
11.8999662325
 21
2.089750959799999
 31
0.0
  0
LINE
  5
408
330
238
100
AcDbEntity
  8
___SYMBOL
  6
Continuous
 62
     7
100
AcDbLine
 10
11.8999662325
 20
2.089750959799999
 30
0.0
 11
12.1151865236
 21
2.441234985499999
 31
0.0
  0
LINE
  5
409
330
238
100
AcDbEntity
  8
___SYMBOL
  6
Continuous
 62
     7
100
AcDbLine
 10
12.1151865236
 20
2.441234985499999
 30
0.0
 11
12.3495092074
 21
2.089750959799999
 31
0.0
  0
TEXT
  5
40A
330
238
100
AcDbEntity
  8
___SYMBOL
  6
Continuous
 62
     2
100
AcDbText
 10
12.063881752
 20
0.8897227455999999
 30
0.0
 40
0.1562499832
  1
G
 41
0.8
100
AcDbText
  0
TEXT
  5
40B
330
238
100
AcDbEntity
  8
___SYMBOL
  6
Continuous
 62
     2
100
AcDbText
 10
12.0569853541
 20
1.2943544944
 30
0.0
 40
0.1562499832
  1
F
 41
0.8
100
AcDbText
  0
TEXT
  5
40C
330
238
100
AcDbEntity
  8
___SYMBOL
  6
Continuous
 62
     2
100
AcDbText
 10
12.4616126726
 20
1.3184351532
 30
0.0
 40
0.1562499832
  1
G300.015.1.1.3.4
 41
0.8
100
AcDbText
  0
TEXT
  5
40D
330
238
100
AcDbEntity
  8
___SYMBOL
  6
Continuous
 62
     2
100
AcDbText
 10
12.4615106796
 20
0.9003515731
 30
0.0
 40
0.1562499832
  1
G300.015.1.1.4
 41
0.8
100
AcDbText
  0
LINE
  5
40E
330
238
100
AcDbEntity
  8
___SYMBOL
  6
Continuous
 62
     7
100
AcDbLine
 10
12.3495092074
 20
0.8227635929999999
 30
0.0
 11
11.8999662325
 21
0.8227635929999999
 31
0.0
  0
LINE
  5
40F
330
238
100
AcDbEntity
  8
___SYMBOL
  6
Continuous
 62
     7
100
AcDbLine
 10
11.8999662325
 20
0.8227635929999999
 30
0.0
 11
12.1151865236
 21
1.174247618699999
 31
0.0
  0
LINE
  5
410
330
238
100
AcDbEntity
  8
___SYMBOL
  6
Continuous
 62
     7
100
AcDbLine
 10
12.1151865236
 20
1.174247618699999
 30
0.0
 11
12.3495092074
 21
0.8227635929999999
 31
0.0
  0
LINE
  5
411
330
238
100
AcDbEntity
  8
___SYMBOL
  6
Continuous
 62
     7
100
AcDbLine
 10
12.3495092074
 20
1.2388298568
 30
0.0
 11
11.8999662325
 21
1.2388298568
 31
0.0
  0
LINE
  5
412
330
238
100
AcDbEntity
  8
___SYMBOL
  6
Continuous
 62
     7
100
AcDbLine
 10
11.8999662325
 20
1.2388298568
 30
0.0
 11
12.1151865236
 21
1.5903138825
 31
0.0
  0
LINE
  5
413
330
238
100
AcDbEntity
  8
___SYMBOL
  6
Continuous
 62
     7
100
AcDbLine
 10
12.1151865236
 20
1.5903138825
 30
0.0
 11
12.3495092074
 21
1.2388298568
 31
0.0
  0
ENDBLK
  5
414
330
238
100
AcDbEntity
  8
0
  6
ByBlock
 62
     0
100
AcDbBlockEnd
  0
BLOCK
  5
415
330
239
100
AcDbEntity
  8
___SYMBOL
  6
Continuous
 62
     2
100
AcDbBlockBegin
  2
CHARACTERISTIC_BL7
 70
     0
 10
1.554474074899999
 20
15.7577461901
 30
0.0
  3
CHARACTERISTIC_BL7
  1

  0
TEXT
  5
416
330
239
100
AcDbEntity
  8
___SYMBOL
  6
Continuous
 62
     2
100
AcDbText
 10
1.4891687399
 20
15.818899803
 30
0.0
 40
0.15625
  1
1
 41
0.8
100
AcDbText
  0
LINE
  5
417
330
239
100
AcDbEntity
  8
___SYMBOL
  6
Continuous
 62
     7
100
AcDbLine
 10
1.419473989299999
 20
16.0277463614
 30
0.0
 11
1.419473989299999
 21
15.4877460188
 31
0.0
  0
LINE
  5
418
330
239
100
AcDbEntity
  8
___SYMBOL
  6
Continuous
 62
     7
100
AcDbLine
 10
1.419473989299999
 20
15.4877460188
 30
0.0
 11
1.6894741606
 21
15.4877460188
 31
0.0
  0
LINE
  5
419
330
239
100
AcDbEntity
  8
___SYMBOL
  6
Continuous
 62
     7
100
AcDbLine
 10
1.419473989299999
 20
15.7577461901
 30
0.0
 11
1.6894741606
 21
15.7577461901
 31
0.0
  0
LINE
  5
41A
330
239
100
AcDbEntity
  8
___SYMBOL
  6
Continuous
 62
     7
100
AcDbLine
 10
1.419473989299999
 20
16.0277463614
 30
0.0
 11
1.6894741606
 21
16.0277463614
 31
0.0
  0
LINE
  5
41B
330
239
100
AcDbEntity
  8
___SYMBOL
  6
Continuous
 62
     7
100
AcDbLine
 10
1.6894741606
 20
15.4877460188
 30
0.0
 11
1.6894741606
 21
16.0277463614
 31
0.0
  0
ENDBLK
  5
41C
330
239
100
AcDbEntity
  8
0
  6
ByBlock
 62
     0
100
AcDbBlockEnd
  0
BLOCK
  5
41D
330
23A
100
AcDbEntity
  8
___SYMBOL
  6
Continuous
 62
     2
100
AcDbBlockBegin
  2
CHARACTERISTIC_BL8
 70
     0
 10
11.9414734154
 20
11.3023407882
 30
0.0
  3
CHARACTERISTIC_BL8
  1

  0
TEXT
  5
41E
330
23A
100
AcDbEntity
  8
___SYMBOL
  6
Continuous
 62
     2
100
AcDbText
 10
11.8761680804
 20
11.3634944011
 30
0.0
 40
0.15625
  1
2
 41
0.8
100
AcDbText
  0
LINE
  5
41F
330
23A
100
AcDbEntity
  8
___SYMBOL
  6
Continuous
 62
     7
100
AcDbLine
 10
11.8064733298
 20
11.5723409595
 30
0.0
 11
11.8064733298
 21
11.032340617
 31
0.0
  0
LINE
  5
420
330
23A
100
AcDbEntity
  8
___SYMBOL
  6
Continuous
 62
     7
100
AcDbLine
 10
11.8064733298
 20
11.032340617
 30
0.0
 11
12.076473501
 21
11.032340617
 31
0.0
  0
LINE
  5
421
330
23A
100
AcDbEntity
  8
___SYMBOL
  6
Continuous
 62
     7
100
AcDbLine
 10
11.8064733298
 20
11.3023407882
 30
0.0
 11
12.076473501
 21
11.3023407882
 31
0.0
  0
LINE
  5
422
330
23A
100
AcDbEntity
  8
___SYMBOL
  6
Continuous
 62
     7
100
AcDbLine
 10
11.8064733298
 20
11.5723409595
 30
0.0
 11
12.076473501
 21
11.5723409595
 31
0.0
  0
LINE
  5
423
330
23A
100
AcDbEntity
  8
___SYMBOL
  6
Continuous
 62
     7
100
AcDbLine
 10
12.076473501
 20
11.032340617
 30
0.0
 11
12.076473501
 21
11.5723409595
 31
0.0
  0
ENDBLK
  5
424
330
23A
100
AcDbEntity
  8
0
  6
ByBlock
 62
     0
100
AcDbBlockEnd
  0
BLOCK
  5
425
330
23B
100
AcDbEntity
  8
___SYMBOL
  6
Continuous
 62
     2
100
AcDbBlockBegin
  2
CHARACTERISTIC_BL9
 70
     0
 10
16.3971516993
 20
4.3258524954
 30
0.0
  3
CHARACTERISTIC_BL9
  1

  0
TEXT
  5
426
330
23B
100
AcDbEntity
  8
___SYMBOL
  6
Continuous
 62
     2
100
AcDbText
 10
16.3318463643
 20
4.387006108199999
 30
0.0
 40
0.15625
  1
2
 41
0.8
100
AcDbText
  0
LINE
  5
427
330
23B
100
AcDbEntity
  8
___SYMBOL
  6
Continuous
 62
     7
100
AcDbLine
 10
16.2621516137
 20
4.595852666599999
 30
0.0
 11
16.2621516137
 21
4.055852324099999
 31
0.0
  0
LINE
  5
428
330
23B
100
AcDbEntity
  8
___SYMBOL
  6
Continuous
 62
     7
100
AcDbLine
 10
16.2621516137
 20
4.055852324099999
 30
0.0
 11
16.5321517849
 21
4.055852324099999
 31
0.0
  0
LINE
  5
429
330
23B
100
AcDbEntity
  8
___SYMBOL
  6
Continuous
 62
     7
100
AcDbLine
 10
16.2621516137
 20
4.3258524954
 30
0.0
 11
16.5321517849
 21
4.3258524954
 31
0.0
  0
LINE
  5
42A
330
23B
100
AcDbEntity
  8
___SYMBOL
  6
Continuous
 62
     7
100
AcDbLine
 10
16.2621516137
 20
4.595852666599999
 30
0.0
 11
16.5321517849
 21
4.595852666599999
 31
0.0
  0
LINE
  5
42B
330
23B
100
AcDbEntity
  8
___SYMBOL
  6
Continuous
 62
     7
100
AcDbLine
 10
16.5321517849
 20
4.055852324099999
 30
0.0
 11
16.5321517849
 21
4.595852666599999
 31
0.0
  0
ENDBLK
  5
42C
330
23B
100
AcDbEntity
  8
0
  6
ByBlock
 62
     0
100
AcDbBlockEnd
  0
BLOCK
  5
42D
330
23C
100
AcDbEntity
  8
___SYMBOL
  6
Continuous
 62
     2
100
AcDbBlockBegin
  2
DELTA_BL10
 70
     0
 10
4.658096399199999
 20
8.3690770849
 30
0.0
  3
DELTA_BL10
  1

  0
TEXT
  5
42E
330
23C
100
AcDbEntity
  8
___SYMBOL
  6
Continuous
 62
     2
100
AcDbText
 10
4.589648224
 20
8.235948674699999
 30
0.0
 40
0.15625
  1
D
 41
0.8
100
AcDbText
  0
LINE
  5
42F
330
23C
100
AcDbEntity
  8
___SYMBOL
  6
Continuous
 62
     7
100
AcDbLine
 10
4.882867910699999
 20
8.1933350532
 30
0.0
 11
4.4333248876
 21
8.1933350532
 31
0.0
  0
LINE
  5
430
330
23C
100
AcDbEntity
  8
___SYMBOL
  6
Continuous
 62
     7
100
AcDbLine
 10
4.4333248876
 20
8.1933350532
 30
0.0
 11
4.6485452018
 21
8.544819116599999
 31
0.0
  0
LINE
  5
431
330
23C
100
AcDbEntity
  8
___SYMBOL
  6
Continuous
 62
     7
100
AcDbLine
 10
4.6485452018
 20
8.544819116599999
 30
0.0
 11
4.882867910699999
 21
8.1933350532
 31
0.0
  0
ENDBLK
  5
432
330
23C
100
AcDbEntity
  8
0
  6
ByBlock
 62
     0
100
AcDbBlockEnd
  0
BLOCK
  5
433
330
23D
100
AcDbEntity
  8
___SYMBOL
  6
Continuous
 62
     2
100
AcDbBlockBegin
  2
DELTA_BL11
 70
     0
 10
23.7297584028
 20
16.2345410363
 30
0.0
  3
DELTA_BL11
  1

  0
LINE
  5
434
330
23D
100
AcDbEntity
  8
___SYMBOL
  6
Continuous
 62
     2
100
AcDbLine
 10
24.2231948349
 20
15.8766735204
 30
0.0
 11
23.5575283508
 21
16.4334345586
 31
0.0
  0
LINE
  5
435
330
23D
100
AcDbEntity
  8
___SYMBOL
  6
Continuous
 62
     2
100
AcDbLine
 10
23.5575283508
 20
16.4334345586
 30
0.0
 11
23.5575249474
 21
16.4334345586
 31
0.0
  0
SOLID
  5
436
330
23D
100
AcDbEntity
  8
___SYMBOL
  6
Continuous
 62
     2
100
AcDbTrace
 10
24.0593211776
 20
15.9729971256
 30
0.0
 11
24.2231948349
 21
15.8766735204
 31
0.0
 12
24.0994193013
 22
16.0209386574
 32
0.0
 13
24.0994193013
 23
16.0209386574
 33
0.0
  0
TEXT
  5
437
330
23D
100
AcDbEntity
  8
___SYMBOL
  6
Continuous
 62
     2
100
AcDbText
 10
23.3926453071
 20
16.2835381104
 30
0.0
 40
0.15625
  1
E
 41
0.8
100
AcDbText
  0
LINE
  5
438
330
23D
100
AcDbEntity
  8
___SYMBOL
  6
Continuous
 62
     7
100
AcDbLine
 10
23.6858649939
 20
16.2409244889
 30
0.0
 11
23.2363219707
 21
16.2409244889
 31
0.0
  0
LINE
  5
439
330
23D
100
AcDbEntity
  8
___SYMBOL
  6
Continuous
 62
     7
100
AcDbLine
 10
23.2363219707
 20
16.2409244889
 30
0.0
 11
23.4515422849
 21
16.5924085523
 31
0.0
  0
LINE
  5
43A
330
23D
100
AcDbEntity
  8
___SYMBOL
  6
Continuous
 62
     7
100
AcDbLine
 10
23.4515422849
 20
16.5924085523
 30
0.0
 11
23.6858649939
 21
16.2409244889
 31
0.0
  0
ENDBLK
  5
43B
330
23D
100
AcDbEntity
  8
0
  6
ByBlock
 62
     0
100
AcDbBlockEnd
  0
BLOCK
  5
43C
330
23E
100
AcDbEntity
  8
___SYMBOL
  6
Continuous
 62
     2
100
AcDbBlockBegin
  2
DELTA_BL12
 70
     0
 10
24.8423455995
 20
14.7036955017
 30
0.0
  3
DELTA_BL12
  1

  0
LINE
  5
43D
330
23E
100
AcDbEntity
  8
___SYMBOL
  6
Continuous
 62
     2
100
AcDbLine
 10
25.2231948349
 20
14.5177672012
 30
0.0
 11
24.7827027441
 21
14.7306498086
 31
0.0
  0
LINE
  5
43E
330
23E
100
AcDbEntity
  8
___SYMBOL
  6
Continuous
 62
     2
100
AcDbLine
 10
24.7827027441
 20
14.7306498086
 30
0.0
 11
24.7826993407
 21
14.7306498086
 31
0.0
  0
SOLID
  5
43F
330
23E
100
AcDbEntity
  8
___SYMBOL
  6
Continuous
 62
     2
100
AcDbTrace
 10
25.040778231
 20
14.5712180673
 30
0.0
 11
25.2231948349
 21
14.5177672012
 31
0.0
 12
25.067974004
 22
14.6274909731
 32
0.0
 13
25.067974004
 23
14.6274909731
 33
0.0
  0
TEXT
  5
440
330
23E
100
AcDbEntity
  8
___SYMBOL
  6
Continuous
 62
     2
100
AcDbText
 10
24.6178197004
 20
14.5807533603
 30
0.0
 40
0.15625
  1
F
 41
0.8
100
AcDbText
  0
LINE
  5
441
330
23E
100
AcDbEntity
  8
___SYMBOL
  6
Continuous
 62
     7
100
AcDbLine
 10
24.9110393872
 20
14.5381397389
 30
0.0
 11
24.4614963641
 21
14.5381397389
 31
0.0
  0
LINE
  5
442
330
23E
100
AcDbEntity
  8
___SYMBOL
  6
Continuous
 62
     7
100
AcDbLine
 10
24.4614963641
 20
14.5381397389
 30
0.0
 11
24.6767166783
 21
14.8896238023
 31
0.0
  0
LINE
  5
443
330
23E
100
AcDbEntity
  8
___SYMBOL
  6
Continuous
 62
     7
100
AcDbLine
 10
24.6767166783
 20
14.8896238023
 30
0.0
 11
24.9110393872
 21
14.5381397389
 31
0.0
  0
ENDBLK
  5
444
330
23E
100
AcDbEntity
  8
0
  6
ByBlock
 62
     0
100
AcDbBlockEnd
  0
BLOCK
  5
445
330
23F
100
AcDbEntity
  8
___SYMBOL
  6
Continuous
 62
     2
100
AcDbBlockBegin
  2
DELTA_BL13
 70
     0
 10
24.7489000949
 20
13.9649502534
 30
0.0
  3
DELTA_BL13
  1

  0
LINE
  5
446
330
23F
100
AcDbEntity
  8
___SYMBOL
  6
Continuous
 62
     2
100
AcDbLine
 10
25.2231948349
 20
14.2846844783
 30
0.0
 11
24.595811735
 21
13.8377260982
 31
0.0
  0
LINE
  5
447
330
23F
100
AcDbEntity
  8
___SYMBOL
  6
Continuous
 62
     2
100
AcDbLine
 10
24.595811735
 20
13.8377260982
 30
0.0
 11
24.5958083316
 21
13.8377260982
 31
0.0
  0
SOLID
  5
448
330
23F
100
AcDbEntity
  8
___SYMBOL
  6
Continuous
 62
     2
100
AcDbTrace
 10
25.0886171384
 20
14.1504397164
 30
0.0
 11
25.2231948349
 21
14.2846844783
 31
0.0
 12
25.0523527668
 22
14.2013430105
 32
0.0
 13
25.0523527668
 23
14.2013430105
 33
0.0
  0
TEXT
  5
449
330
23F
100
AcDbEntity
  8
___SYMBOL
  6
Continuous
 62
     2
100
AcDbText
 10
24.4309286913
 20
13.6878296499
 30
0.0
 40
0.15625
  1
G
 41
0.8
100
AcDbText
  0
LINE
  5
44A
330
23F
100
AcDbEntity
  8
___SYMBOL
  6
Continuous
 62
     7
100
AcDbLine
 10
24.724148378
 20
13.6452160285
 30
0.0
 11
24.2746053549
 21
13.6452160285
 31
0.0
  0
LINE
  5
44B
330
23F
100
AcDbEntity
  8
___SYMBOL
  6
Continuous
 62
     7
100
AcDbLine
 10
24.2746053549
 20
13.6452160285
 30
0.0
 11
24.4898256691
 21
13.9967000919
 31
0.0
  0
LINE
  5
44C
330
23F
100
AcDbEntity
  8
___SYMBOL
  6
Continuous
 62
     7
100
AcDbLine
 10
24.4898256691
 20
13.9967000919
 30
0.0
 11
24.724148378
 21
13.6452160285
 31
0.0
  0
ENDBLK
  5
44D
330
23F
100
AcDbEntity
  8
0
  6
ByBlock
 62
     0
100
AcDbBlockEnd
  0
BLOCK
  5
44E
330
240
100
AcDbEntity
  8
___SYMBOL
  6
Continuous
 62
     2
100
AcDbBlockBegin
  2
DELTA_BL14
 70
     0
 10
28.6162713473
 20
14.0885021988
 30
0.0
  3
DELTA_BL14
  1

  0
LINE
  5
44F
330
240
100
AcDbEntity
  8
___SYMBOL
  6
Continuous
 62
     2
100
AcDbLine
 10
28.2221132359
 20
14.4031194597
 30
0.0
 11
28.6762654348
 21
13.9623201043
 31
0.0
  0
LINE
  5
450
330
240
100
AcDbEntity
  8
___SYMBOL
  6
Continuous
 62
     2
100
AcDbLine
 10
28.6762654348
 20
13.9623201043
 30
0.0
 11
28.6762688382
 21
13.9623201043
 31
0.0
  0
SOLID
  5
451
330
240
100
AcDbEntity
  8
___SYMBOL
  6
Continuous
 62
     2
100
AcDbTrace
 10
28.3784239101
 20
14.2949539124
 30
0.0
 11
28.2221132359
 21
14.4031194597
 31
0.0
 12
28.3348939665
 22
14.2501053449
 32
0.0
 13
28.3348939665
 23
14.2501053449
 33
0.0
  0
TEXT
  5
452
330
240
100
AcDbEntity
  8
___SYMBOL
  6
Continuous
 62
     2
100
AcDbText
 10
28.7172097719
 20
13.8164985594
 30
0.0
 40
0.15625
  1
C
 41
0.8
100
AcDbText
  0
LINE
  5
453
330
240
100
AcDbEntity
  8
___SYMBOL
  6
Continuous
 62
     7
100
AcDbLine
 10
29.0104294587
 20
13.7738849379
 30
0.0
 11
28.5608864356
 21
13.7738849379
 31
0.0
  0
LINE
  5
454
330
240
100
AcDbEntity
  8
___SYMBOL
  6
Continuous
 62
     7
100
AcDbLine
 10
28.5608864356
 20
13.7738849379
 30
0.0
 11
28.7761067498
 21
14.1253690013
 31
0.0
  0
LINE
  5
455
330
240
100
AcDbEntity
  8
___SYMBOL
  6
Continuous
 62
     7
100
AcDbLine
 10
28.7761067498
 20
14.1253690013
 30
0.0
 11
29.0104294587
 21
13.7738849379
 31
0.0
  0
ENDBLK
  5
456
330
240
100
AcDbEntity
  8
0
  6
ByBlock
 62
     0
100
AcDbBlockEnd
  0
BLOCK
  5
457
330
20D
100
AcDbEntity
  8
0
100
AcDbBlockBegin
  2
_FILLED
 70
     0
 10
0.0
 20
0.0
 30
0.0
  3
_FILLED
  1

  0
SOLID
  5
458
330
20D
100
AcDbEntity
  8
0
  6
ByBlock
 62
     0
100
AcDbTrace
 10
0.0
 20
0.0
 30
0.0
 11
-1.0
 21
0.1666666667
 31
0.0
 12
-1.0
 22
-0.1666666667
 32
0.0
 13
-1.0
 23
-0.1666666667
 33
0.0
  0
ENDBLK
  5
459
330
20D
100
AcDbEntity
  8
0
  6
ByBlock
 62
     0
100
AcDbBlockEnd
  0
BLOCK
  5
999
330
997
100
AcDbEntity
  8
0
370
     0
100
AcDbBlockBegin
  2
GENAXEH
 70
     0
 10
0.0
 20
0.0
 30
0.0
  3
GENAXEH
  1

  0
LINE
  5
998
330
997
100
AcDbEntity
  8
0
100
AcDbLine
 10
-1.0
 20
0.0
 30
0.0
 11
1.0
 21
0.0
 31
0.0
  0
ENDBLK
  5
99A
330
997
100
AcDbEntity
  8
0
370
     0
100
AcDbBlockEnd
  0
ENDSEC
  0
SECTION
  2
ENTITIES
  0
LINE
  5
59E
330
1F
100
AcDbEntity
  8
0
  6
Continuous
 62
     7
100
AcDbLine
 10
5.255261134
 20
19.3213994564
 30
0.0
 11
5.255580576699999
 21
19.3204044659
 31
0.0
  0
LINE
  5
5A3
330
1F
100
AcDbEntity
  8
0
  6
Continuous
 62
     7
100
AcDbLine
 10
10.8202999328
 20
19.3213994564
 30
0.0
 11
10.8199804902
 21
19.3204044659
 31
0.0
  0
LINE
  5
5A7
330
1F
100
AcDbEntity
  8
0
  6
Continuous
 62
     7
100
AcDbLine
 10
4.2102224774
 20
17.5566761468
 30
0.0
 11
11.8653385895
 21
17.5566761468
 31
0.0
  0
LWPOLYLINE
  5
5A9
330
1F
100
AcDbEntity
  8
0
  6
Continuous
 62
     7
100
AcDbPolyline
 90
       13
 70
     0
 43
0.0
 10
5.371358451199999
 20
19.6257000027
 10
5.3669831271
 20
19.6256613772
 10
5.351696269699999
 20
19.6249254548
 10
5.336484384
 20
19.6232567174
 10
5.3214103321
 20
19.6206601718
 10
5.306528932199999
 20
19.6171483569
 10
5.2918926504
 20
19.6127346413
 10
5.277555325699999
 20
19.6074344742
 10
5.263568497999999
 20
19.6012685247
 10
5.2499813678
 20
19.5942573243
 10
5.2368451132
 20
19.5864248391
 10
5.2242133194
 20
19.5778062439
 10
5.219989843299999
 20
19.5746631124
  0
LINE
  5
5AB
330
1F
100
AcDbEntity
  8
0
  6
Continuous
 62
     7
100
AcDbLine
 10
5.490590855299999
 20
19.4044686889
 30
0.0
 11
10.5849702116
 21
19.4044686889
 31
0.0
  0
LINE
  5
5AC
330
1F
100
AcDbEntity
  8
0
  6
Continuous
 62
     7
100
AcDbLine
 10
10.7042026158
 20
19.6257010947
 30
0.0
 11
5.371358451199999
 21
19.6257010947
 31
0.0
  0
LWPOLYLINE
  5
5AD
330
1F
100
AcDbEntity
  8
0
  6
Continuous
 62
     7
100
AcDbPolyline
 90
       13
 70
     0
 43
0.0
 10
10.8555709987
 20
19.5746628167
 10
10.8520642201
 20
19.5772823678
 10
10.8394513899
 20
19.585953809
 10
10.8263336562
 20
19.5938370144
 10
10.8127640228
 20
19.6008981155
 10
10.7987937275
 20
19.6071139945
 10
10.7844727152
 20
19.6124634611
 10
10.7698532972
 20
19.616926302
 10
10.7549889638
 20
19.6204878602
 10
10.7399311827
 20
19.6231346953
 10
10.7247352855
 20
19.624855028
 10
10.7094653467
 20
19.6256444824
 10
10.7042026157
 20
19.6257003782
  0
ARC
  5
739
330
1F
100
AcDbEntity
  8
0
  6
Continuous
 62
     7
100
AcDbCircle
 10
8.037780533399999
 20
15.8711533214
 30
0.0
 40
4.6535938973
100
AcDbArc
 50
127.2654495544
 51
52.734550444
  0
ARC
  5
73A
330
1F
100
AcDbEntity
  8
0
  6
Continuous
 62
     7
100
AcDbCircle
 10
8.037780533399999
 20
15.8711533214
 30
0.0
 40
4.4324499546
100
AcDbArc
 50
128.8851287262
 51
51.11487127380001
  0
CIRCLE
  5
73C
330
1F
100
AcDbEntity
  8
0
  6
Continuous
 62
     7
100
AcDbCircle
 10
8.037780533399999
 20
15.8711533214
 30
0.0
 40
0.4375
  0
SPLINE
  5
7A4
330
1F
100
AcDbEntity
  8
0
  6
Continuous
 62
     7
100
AcDbSpline
210
0.0
220
0.0
230
1.0
 70
     8
 71
     3
 72
    15
 73
    11
 74
     9
 42
0.0000000001
 43
0.0000000001
 44
0.0000000001
 12
-0.9999998667834216
 22
-0.0005161716178532
 32
0.0
 13
-0.3244313481634383
 23
-0.9459092452919858
 33
0.0
 40
0.0
 40
0.0
 40
0.0
 40
0.0
 40
0.0580784073540017
 40
0.1161601281965274
 40
0.1742442240842772
 40
0.2323295066775351
 40
0.290414656079877
 40
0.3484983527468822
 40
0.4065794099815196
 40
0.464656892601875
 40
0.464656892601875
 40
0.464656892601875
 40
0.464656892601875
 10
4.2102224781
 20
17.5566826889
 30
0.0
 10
4.190863011561002
 20
17.5566726960915
 30
0.0
 10
4.152077574926332
 20
17.5536423026708
 30
0.0
 10
4.095350709329891
 20
17.54017594515755
 30
0.0
 10
4.041366066557231
 20
17.51811203116049
 30
0.0
 10
3.991436670509022
 20
17.48797970295985
 30
0.0
 10
3.946755671181646
 20
17.4505031224996
 30
0.0
 10
3.908394513307118
 20
17.40657668935447
 30
0.0
 10
3.877278921192911
 20
17.35727130889556
 30
0.0
 10
3.861848022161487
 20
17.32155943495129
 30
0.0
 10
3.855567303499999
 20
17.3032474257
 30
0.0
 11
4.2102224781
 21
17.5566826889
 31
0.0
 11
4.1523207678
 21
17.5521557313
 31
0.0
 11
4.095808867799999
 21
17.5387433693
 31
0.0
 11
4.0420424701
 21
17.5167675491
 31
0.0
 11
3.9923113557
 21
17.4867556129
 31
0.0
 11
3.9478084717
 21
17.4494276355
 31
0.0
 11
3.909601333999999
 21
17.4056791447
 31
0.0
 11
3.8786064401
 21
17.3565596398
 31
0.0
 11
3.855567303499999
 21
17.3032474257
 31
0.0
  0
SPLINE
  5
7A9
330
1F
100
AcDbEntity
  8
0
  6
Continuous
 62
     7
100
AcDbSpline
210
0.0
220
0.0
230
1.0
 70
     8
 71
     3
 72
    15
 73
    11
 74
     9
 42
0.0000000001
 43
0.0000000001
 44
0.0000000001
 12
0.9999998598246165
 22
-0.0005294815835638
 32
0.0
 13
0.3244586701490037
 23
-0.9458998738582959
 33
0.0
 40
0.0
 40
0.0
 40
0.0
 40
0.0
 40
0.0580775156306204
 40
0.1161583169079189
 40
0.1742414935597792
 40
0.2323258921424672
 40
0.2904102251380054
 40
0.3484932012319044
 40
0.4065736638684199
 40
0.4646507218009736
 40
0.4646507218009736
 40
0.4646507218009736
 40
0.4646507218009736
 10
11.8653385895
 20
17.5566761465
 30
0.0
 10
11.88469775866319
 20
17.55666589617501
 30
0.0
 10
11.92348254298063
 20
17.55363518414949
 30
0.0
 10
11.98020847914589
 20
17.54016896390446
 30
0.0
 10
12.03419238841734
 20
17.51810572016347
 30
0.0
 10
12.08412139732459
 20
17.48797448456691
 30
0.0
 10
12.1288024592391
 20
17.45049926515882
 30
0.0
 10
12.1671641700304
 20
17.40657427946001
 30
0.0
 10
12.19828077892687
 20
17.35727023794928
 30
0.0
 10
12.21371256013901
 20
17.32155911912415
 30
0.0
 10
12.2199937618
 20
17.3032474252
 30
0.0
 11
11.8653385895
 21
17.5566761465
 31
0.0
 11
11.9232393682
 21
17.5521487137
 31
0.0
 11
11.9797503529
 21
17.5387364773
 31
0.0
 11
12.0335160271
 21
17.5167613166
 31
0.0
 11
12.0832467599
 21
17.486750459
 31
0.0
 11
12.1277497063
 21
17.4494238264
 31
0.0
 11
12.1659573888
 21
17.4056767681
 31
0.0
 11
12.1969532784
 21
17.3565585946
 31
0.0
 11
12.2199937618
 21
17.3032474252
 31
0.0
  0
SPLINE
  5
7AA
330
1F
100
AcDbEntity
  8
0
  6
Continuous
 62
     7
100
AcDbSpline
210
0.0
220
0.0
230
1.0
 70
     8
 71
     3
 72
    12
 73
     8
 74
     6
 42
0.0000000001
 43
0.0000000001
 44
0.0000000001
 12
0.9999999992374521
 22
0.0000390524780648
 32
0.0
 13
0.7783812043394716
 23
-0.6277919247099583
 33
0.0
 40
0.0
 40
0.0
 40
0.0
 40
0.0
 40
0.0501160981111118
 40
0.1012786871853604
 40
0.152805064188062
 40
0.2040148929495507
 40
0.2542220236004459
 40
0.2542220236004459
 40
0.2542220236004459
 40
0.2542220236004459
 10
10.5849702116
 20
19.4044683295
 30
0.0
 10
10.6016755776243
 20
19.40446898188594
 30
0.0
 10
10.63547846982084
 20
19.40220898481826
 30
0.0
 10
10.68552535618693
 20
19.39195570497052
 30
0.0
 10
10.7340591671374
 20
19.3748335033039
 30
0.0
 10
10.77950129401421
 20
19.35139026009522
 30
0.0
 10
10.80727281832584
 20
19.33190556322849
 30
0.0
 10
10.8202995806
 20
19.3213990195
 30
0.0
 11
10.5849702116
 21
19.4044683295
 31
0.0
 11
10.6349744443
 21
19.4011216891
 31
0.0
 11
10.6850962603
 21
19.3908545531
 31
0.0
 11
10.7336875106
 21
19.3737122685
 31
0.0
 11
10.779197178
 21
19.3502321336
 31
0.0
 11
10.8202995806
 21
19.3213990195
 31
0.0
  0
SPLINE
  5
7AB
330
1F
100
AcDbEntity
  8
0
  6
Continuous
 62
     7
100
AcDbSpline
210
0.0
220
0.0
230
1.0
 70
     8
 71
     3
 72
    12
 73
     8
 74
     6
 42
0.0000000001
 43
0.0000000001
 44
0.0000000001
 12
0.7783816026196771
 22
0.6277914308934327
 32
0.0
 13
0.9999999992136897
 23
-0.0000396562809676
 33
0.0
 40
0.0
 40
0.0
 40
0.0
 40
0.0
 40
0.0501168185824809
 40
0.1012797917379822
 40
0.1528062075730523
 40
0.2040156524231165
 40
0.2542220237245825
 40
0.2542220237245825
 40
0.2542220237245825
 40
0.2542220237245825
 10
5.255261360599999
 20
19.3213991754
 30
0.0
 10
5.268264697122143
 20
19.33188681181657
 30
0.0
 10
5.295996135295562
 20
19.35134794560168
 30
0.0
 10
5.341389947790789
 20
19.37478427736042
 30
0.0
 10
5.389917676479235
 20
19.39192374966044
 30
0.0
 10
5.440006523708126
 20
19.40220197710337
 30
0.0
 10
5.47385539821267
 20
19.40446879296599
 30
0.0
 10
5.490590855299999
 20
19.4044681293
 30
0.0
 11
5.255261360599999
 21
19.3213991754
 31
0.0
 11
5.296286467899999
 21
19.350185215
 31
0.0
 11
5.341747302799999
 21
19.3736578014
 31
0.0
 11
5.390332374999999
 21
19.3908177049
 31
0.0
 11
5.4404969425
 21
19.4011096148
 31
0.0
 11
5.490590855299999
 21
19.4044681293
 31
0.0
  0
ENDSEC
  0
SECTION
  2
OBJECTS
  0
DICTIONARY
  5
C
330
0
100
AcDbDictionary
281
     1
  3
ACAD_COLOR
350
8EF
  3
ACAD_GROUP
350
D
  3
ACAD_LAYOUT
350
1A
  3
ACAD_MATERIAL
350
8EE
  3
ACAD_MLINESTYLE
350
17
  3
ACAD_PLOTSETTINGS
350
19
  3
ACAD_PLOTSTYLENAME
350
E
  3
ACAD_TABLESTYLE
350
8F0
  3
AcDbVariableDictionary
350
9C5
  3
AcmDictionary
350
94F
  3
AMG
350
8F5
  3
AMGSNAPSETTINGS
350
9A2
  3
ASE_INDEX_DICTIONARY
350
9C1
  0
DICTIONARY
  5
8EF
102
{ACAD_REACTORS
330
C
102
}
330
C
100
AcDbDictionary
281
     1
  0
DICTIONARY
  5
D
102
{ACAD_REACTORS
330
C
102
}
330
C
100
AcDbDictionary
281
     1
  0
DICTIONARY
  5
1A
102
{ACAD_REACTORS
330
C
102
}
330
C
100
AcDbDictionary
281
     1
  3
Layout1
350
1E
  3
Model
350
22
  0
DICTIONARY
  5
8EE
102
{ACAD_REACTORS
330
C
102
}
330
C
100
AcDbDictionary
281
     1
  0
DICTIONARY
  5
17
102
{ACAD_REACTORS
330
C
102
}
330
C
100
AcDbDictionary
281
     1
  3
Standard
350
18
  0
DICTIONARY
  5
19
102
{ACAD_REACTORS
330
C
102
}
330
C
100
AcDbDictionary
281
     1
  0
ACDBDICTIONARYWDFLT
  5
E
102
{ACAD_REACTORS
330
C
102
}
330
C
100
AcDbDictionary
281
     1
  3
Normal
350
F
100
AcDbDictionaryWithDefault
340
F
  0
DICTIONARY
  5
8F0
102
{ACAD_REACTORS
330
C
102
}
330
C
100
AcDbDictionary
281
     1
  3
Standard
350
8F1
  0
DICTIONARY
  5
9C5
102
{ACAD_REACTORS
330
C
102
}
330
C
100
AcDbDictionary
281
     1
  3
CTABLESTYLE
350
9C6
  0
DICTIONARY
  5
94F
102
{ACAD_REACTORS
330
C
102
}
330
C
100
AcDbDictionary
281
     1
  3
AcmStdDictionary
350
95A
  3
AMDTSECTSYM_ARROWCOLOR
350
979
  0
DICTIONARY
  5
8F5
102
{ACAD_REACTORS
330
C
102
}
330
C
100
AcDbDictionary
281
     1
  0
DICTIONARY
  5
9A2
102
{ACAD_REACTORS
330
C
102
}
330
C
100
AcDbDictionary
281
     1
  0
DICTIONARY
  5
9C1
102
{ACAD_REACTORS
330
C
102
}
330
C
100
AcDbDictionary
281
     1
  3
ASEBlockHierarchyIndexRecord
350
9C3
1001
DCO15
1040
1629180539.18
  0
LAYOUT
  5
1E
102
{ACAD_REACTORS
330
1A
102
}
330
1A
100
AcDbPlotSettings
  1

  2

  4

  6

 40
0.0
 41
0.0
 42
0.0
 43
0.0
 44
0.0
 45
0.0
 46
0.0
 47
0.0
 48
0.0
 49
0.0
140
0.0
141
0.0
142
1.0
143
1.0
 70
     0
 72
     0
 73
     0
 74
     0
  7

 75
     0
147
1.0
 76
     0
 77
     2
 78
   300
148
0.0
149
0.0
100
AcDbLayout
  1
Layout1
 70
     0
 71
     1
 10
0.0
 20
0.0
 11
12.0
 21
9.0
 12
0.0
 22
0.0
 32
0.0
 14
1.000000000000000E+20
 24
1.000000000000000E+20
 34
1.000000000000000E+20
 15
-1.000000000000000E+20
 25
-1.000000000000000E+20
 35
-1.000000000000000E+20
146
0.0
 13
0.0
 23
0.0
 33
0.0
 16
1.0
 26
0.0
 36
0.0
 17
0.0
 27
1.0
 37
0.0
 76
     0
330
1B
  0
LAYOUT
  5
22
102
{ACAD_REACTORS
330
1A
102
}
330
1A
100
AcDbPlotSettings
  1

  2

  4

  6

 40
0.0
 41
0.0
 42
0.0
 43
0.0
 44
0.0
 45
0.0
 46
0.0
 47
0.0
 48
0.0
 49
0.0
140
0.0
141
0.0
142
1.0
143
1.0
 70
     0
 72
     0
 73
     0
 74
     0
  7

 75
     0
147
1.0
 76
     0
 77
     2
 78
   300
148
0.0
149
0.0
100
AcDbLayout
  1
Model
 70
     0
 71
     0
 10
0.0
 20
0.0
 11
0.0
 21
0.0
 12
0.0
 22
0.0
 32
0.0
 14
0.0
 24
0.0
 34
0.0
 15
0.0
 25
0.0
 35
0.0
146
0.0
 13
0.0
 23
0.0
 33
0.0
 16
0.0
 26
0.0
 36
0.0
 17
0.0
 27
0.0
 37
0.0
 76
     0
330
1F
  0
MLINESTYLE
  5
18
102
{ACAD_REACTORS
330
17
102
}
330
17
100
AcDbMlineStyle
  2
STANDARD
 70
     0
  3

 62
   256
 51
90.0
 52
90.0
 71
     2
 49
0.5
 62
   256
  6
BYLAYER
 49
-0.5
 62
   256
  6
BYLAYER
  0
ACDBPLACEHOLDER
  5
F
102
{ACAD_REACTORS
330
E
102
}
330
0
  0
TABLESTYLE
  5
8F1
102
{ACAD_REACTORS
330
8F0
102
}
330
8F0
100
AcDbTableStyle
  3
Standard
 70
     0
 71
     0
 40
0.06
 41
0.06
280
     0
281
     0
  7
STANDARD
140
0.18
170
     2
 62
     0
 63
     7
283
     0
274
    -2
284
     1
 64
     0
275
    -2
285
     1
 65
     0
276
    -2
286
     1
 66
     0
277
    -2
287
     1
 67
     0
278
    -2
288
     1
 68
     0
279
    -2
289
     1
 69
     0
  7
STANDARD
140
0.25
170
     5
 62
     0
 63
     7
283
     0
274
    -2
284
     1
 64
     0
275
    -2
285
     1
 65
     0
276
    -2
286
     1
 66
     0
277
    -2
287
     1
 67
     0
278
    -2
288
     1
 68
     0
279
    -2
289
     1
 69
     0
  7
STANDARD
140
0.18
170
     5
 62
     0
 63
     7
283
     0
274
    -2
284
     1
 64
     0
275
    -2
285
     1
 65
     0
276
    -2
286
     1
 66
     0
277
    -2
287
     1
 67
     0
278
    -2
288
     1
 68
     0
279
    -2
289
     1
 69
     0
  0
DICTIONARYVAR
  5
9C6
102
{ACAD_REACTORS
330
9C5
102
}
330
9C5
100
DictionaryVariables
280
     0
  1
STANDARD
  0
DICTIONARY
  5
95A
102
{ACAD_REACTORS
330
94F
102
}
330
94F
100
AcDbDictionary
281
     1
  0
XRECORD
  5
979
102
{ACAD_REACTORS
330
94F
102
}
330
94F
100
AcDbXrecord
280
     1
 90
-1023410169
  0
XRECORD
  5
9C3
102
{ACAD_REACTORS
330
9C1
102
}
330
9C1
100
AcDbXrecord
280
     1
330
2C4
330
2C5
330
2DD
330
2EF
330
2F0
330
2F9
330
2FA
330
300
330
30F
330
317
330
318
330
31E
330
32F
330
330
330
336
330
33B
330
343
330
344
330
34C
330
34D
330
355
330
356
330
35E
330
35F
330
368
330
369
330
371
330
372
330
37A
330
37B
330
381
330
389
330
38A
330
392
330
393
330
39B
330
39C
330
3AD
330
3AE
330
3B4
330
3BC
330
3BD
330
3C5
330
3C6
330
3CE
330
3CF
330
3D7
330
3D8
330
3E0
330
3E1
330
3E9
330
3EA
  0
ENDSEC
  0
EOF
