  0
SECTION
  2
HEADER
  9
$ACADVER
  1
AC1009
  9
$INSBASE
 10
30.366095034070131
 20
15.86003326579177
 30
0.0
  9
$EXTMIN
 10
22.55742220679743
 20
8.9697157052273315
 30
0.0
  9
$EXTMAX
 10
38.35834533377362
 20
15.872255768960001
 30
0.0
  9
$LIMMIN
 10
0.0
 20
0.0
  9
$LIMMAX
 10
22.0
 20
17.0
  9
$ORTHOMODE
 70
     1
  9
$REGENMODE
 70
     1
  9
$FILLMODE
 70
     1
  9
$QTEXTMODE
 70
     0
  9
$MIRRTEXT
 70
     0
  9
$DRAGMODE
 70
     2
  9
$LTSCALE
 40
1.2099999999999991
  9
$OSMODE
 70
  3071
  9
$ATTMODE
 70
     1
  9
$TEXTSIZE
 40
0.2
  9
$TRACEWID
 40
0.05
  9
$TEXTSTYLE
  7
STANDARD
  9
$CLAYER
  8
0
  9
$CELTYPE
  6
BYLAYER
  9
$CECOLOR
 62
   256
  9
$DIMSCALE
 40
1.0
  9
$DIMASZ
 40
0.1875
  9
$DIMEXO
 40
0.0625
  9
$DIMDLI
 40
0.8359999999999999
  9
$DIMRND
 40
0.0
  9
$DIMDLE
 40
0.0
  9
$DIMEXE
 40
0.125
  9
$DIMTP
 40
0.0
  9
$DIMTM
 40
0.0
  9
$DIMTXT
 40
0.15625
  9
$DIMCEN
 40
0.198
  9
$DIMTSZ
 40
0.0
  9
$DIMTOL
 70
     0
  9
$DIMLIM
 70
     0
  9
$DIMTIH
 70
     1
  9
$DIMTOH
 70
     1
  9
$DIMSE1
 70
     0
  9
$DIMSE2
 70
     0
  9
$DIMTAD
 70
     0
  9
$DIMZIN
 70
     0
  9
$DIMBLK
  1

  9
$DIMASO
 70
     1
  9
$DIMSHO
 70
     1
  9
$DIMPOST
  1

  9
$DIMAPOST
  1

  9
$DIMALT
 70
     0
  9
$DIMALTD
 70
     2
  9
$DIMALTF
 40
25.399999999999999
  9
$DIMLFAC
 40
1.0
  9
$DIMTOFL
 70
     0
  9
$DIMTVP
 40
0.0
  9
$DIMTIX
 70
     0
  9
$DIMSOXD
 70
     0
  9
$DIMSAH
 70
     0
  9
$DIMBLK1
  1

  9
$DIMBLK2
  1

  9
$DIMSTYLE
  2
STANDARD
  9
$DIMCLRD
 70
     0
  9
$DIMCLRE
 70
     0
  9
$DIMCLRT
 70
     0
  9
$DIMTFAC
 40
1.0
  9
$DIMGAP
 40
0.09
  9
$LUNITS
 70
     2
  9
$LUPREC
 70
     4
  9
$SKETCHINC
 40
0.1
  9
$FILLETRAD
 40
0.0
  9
$AUNITS
 70
     0
  9
$AUPREC
 70
     0
  9
$MENU
  1
.
  9
$ELEVATION
 40
0.0
  9
$PELEVATION
 40
0.0
  9
$THICKNESS
 40
0.0
  9
$LIMCHECK
 70
     0
  9
$BLIPMODE
 70
     0
  9
$CHAMFERA
 40
0.0
  9
$CHAMFERB
 40
0.0
  9
$SKPOLY
 70
     0
  9
$TDCREATE
 40
2457352.653980521
  9
$TDUPDATE
 40
2457354.584730336
  9
$TDINDWG
 40
0.0881104398
  9
$TDUSRTIMER
 40
0.0881104398
  9
$USRTIMER
 70
     1
  9
$ANGBASE
 50
0.0
  9
$ANGDIR
 70
     0
  9
$PDMODE
 70
     0
  9
$PDSIZE
 40
0.3125
  9
$PLINEWID
 40
0.0
  9
$COORDS
 70
     1
  9
$SPLFRAME
 70
     0
  9
$SPLINETYPE
 70
     6
  9
$SPLINESEGS
 70
     8
  9
$ATTDIA
 70
     0
  9
$ATTREQ
 70
     1
  9
$HANDLING
 70
     1
  9
$HANDSEED
  5
77B
  9
$SURFTAB1
 70
     6
  9
$SURFTAB2
 70
     6
  9
$SURFTYPE
 70
     6
  9
$SURFU
 70
     6
  9
$SURFV
 70
     6
  9
$UCSNAME
  2

  9
$UCSORG
 10
0.0
 20
0.0
 30
0.0
  9
$UCSXDIR
 10
1.0
 20
0.0
 30
0.0
  9
$UCSYDIR
 10
0.0
 20
1.0
 30
0.0
  9
$PUCSNAME
  2

  9
$PUCSORG
 10
0.0
 20
0.0
 30
0.0
  9
$PUCSXDIR
 10
1.0
 20
0.0
 30
0.0
  9
$PUCSYDIR
 10
0.0
 20
1.0
 30
0.0
  9
$USERI1
 70
     0
  9
$USERI2
 70
     0
  9
$USERI3
 70
     0
  9
$USERI4
 70
     0
  9
$USERI5
 70
     0
  9
$USERR1
 40
0.0
  9
$USERR2
 40
0.0
  9
$USERR3
 40
0.0
  9
$USERR4
 40
0.0
  9
$USERR5
 40
0.0
  9
$WORLDVIEW
 70
     1
  9
$SHADEDGE
 70
     3
  9
$SHADEDIF
 70
    70
  9
$TILEMODE
 70
     1
  9
$MAXACTVP
 70
    48
  9
$PLIMCHECK
 70
     0
  9
$PEXTMIN
 10
1.0000000000000000E+020
 20
1.0000000000000000E+020
 30
1.0000000000000000E+020
  9
$PEXTMAX
 10
-1.0000000000000000E+020
 20
-1.0000000000000000E+020
 30
-1.0000000000000000E+020
  9
$PLIMMIN
 10
0.0
 20
0.0
  9
$PLIMMAX
 10
12.0
 20
9.0
  9
$UNITMODE
 70
     0
  9
$VISRETAIN
 70
     1
  9
$PLINEGEN
 70
     0
  9
$PSLTSCALE
 70
     1
  0
ENDSEC
  0
SECTION
  2
TABLES
  0
TABLE
  2
VPORT
 70
     1
  0
VPORT
  2
*ACTIVE
 70
     0
 10
0.0
 20
0.0
 11
1.0
 21
1.0
 12
1.6781094980697551
 22
-1.8014508764513919
 13
0.0
 23
0.0
 14
1.0
 24
1.0
 15
0.0
 25
0.0
 16
-0.0000000000000107
 26
0.0
 36
47.73374201775399
 17
30.371286392211921
 27
12.169930458068849
 37
0.0
 40
28.122482740189689
 41
2.0329087048832268
 42
50.0
 43
0.0
 44
0.0
 50
0.0
 51
0.0
 71
     0
 72
   100
 73
     1
 74
     1
 75
     0
 76
     0
 77
     0
 78
     0
  0
ENDTAB
  0
TABLE
  2
LTYPE
 70
     2
  0
LTYPE
  2
CONTINUOUS
 70
     0
  3
Solid line
 72
    65
 73
     0
 40
0.0
  0
ENDTAB
  0
TABLE
  2
LAYER
 70
     2
  0
LAYER
  2
0
 70
     0
 62
     7
  6
CONTINUOUS
  0
LAYER
  2
DEFPOINTS
 70
     0
 62
     7
  6
CONTINUOUS
  0
ENDTAB
  0
TABLE
  2
STYLE
 70
     1
  0
STYLE
  2
STANDARD
 70
     0
 40
0.0
 41
0.8
 50
0.0
 71
     0
 42
0.2
  3
txt
  4

  0
ENDTAB
  0
TABLE
  2
VIEW
 70
     0
  0
ENDTAB
  0
TABLE
  2
UCS
 70
     0
  0
ENDTAB
  0
TABLE
  2
APPID
 70
     5
  0
APPID
  2
ACAD
 70
     0
  0
APPID
  2
ACAD_MLEADERVER
 70
     0
  0
APPID
  2
ACAD_NAV_VCDISPLAY
 70
     0
  0
APPID
  2
ACAD_EXEMPT_FROM_CAD_STANDARDS
 70
     0
  0
APPID
  2
ACDBATTR
 70
     0
  0
ENDTAB
  0
TABLE
  2
DIMSTYLE
 70
     2
  0
DIMSTYLE
  2
STANDARD
 70
     0
  3

  4

  5

  6

  7

 40
1.0
 41
0.1875
 42
0.0625
 43
0.38
 44
0.125
 45
0.0
 46
0.0
 47
1.5
 48
1.5
140
0.15625
141
0.09
142
0.0
143
25.399999999999999
144
1.0
145
0.0
146
1.0
147
0.09
 71
     0
 72
     0
 73
     1
 74
     1
 75
     0
 76
     0
 77
     0
 78
     4
170
     0
171
     2
172
     0
173
     0
174
     0
175
     0
176
     0
177
     0
178
     0
  0
ENDTAB
  0
ENDSEC
  0
SECTION
  2
BLOCKS
  0
BLOCK
  8
0
  2
$MODEL_SPACE
 70
     0
 10
0.0
 20
0.0
 30
0.0
  3
$MODEL_SPACE
  1

  0
ENDBLK
  5
21
  8
0
  0
BLOCK
 67
     1
  8
0
  2
$PAPER_SPACE
 70
     0
 10
0.0
 20
0.0
 30
0.0
  3
$PAPER_SPACE
  1

  0
ENDBLK
  5
1D
 67
     1
  8
0
  0
ENDSEC
  0
SECTION
  2
ENTITIES
  0
LINE
  5
3F7
  8
0
 10
22.5597865073
 20
15.6145741795
 30
0.0
 11
22.557440724399999
 21
15.4822687615
 31
0.0
  0
LINE
  5
3FD
  8
0
 10
23.794033666000001
 20
11.7394536296
 30
0.0
 11
23.461236031795529
 21
14.792576524739649
 31
0.0
  0
LINE
  5
413
  8
0
 10
29.11603021440332
 20
10.56774873476593
 30
0.0
 11
29.117182906899998
 21
8.9697186688000006
 31
0.0
  0
LINE
  5
438
  8
0
 10
29.117182909037691
 20
8.9697157052273315
 30
0.0
 11
31.621291444699999
 21
8.9697186688000006
 31
0.0
  0
LINE
  5
4AA
  8
0
 10
37.536484707846718
 20
11.36041711303055
 30
0.0
 11
37.964157920200002
 21
15.278972530500001
 31
0.0
  0
LINE
  5
4B1
  8
0
 10
22.677437289099998
 20
15.3601423684
 30
0.0
 11
38.065158480199997
 21
15.360142016699999
 31
0.0
  0
LINE
  5
4B4
  8
0
 10
37.932836422900003
 20
15.8601423684
 30
0.0
 11
22.799304266624851
 21
15.85992416247157
 31
0.0
  0
LINE
  5
4C0
  8
0
 10
38.182692909499998
 20
15.618589720599999
 30
0.0
 11
38.185142163599998
 21
15.4822688382
 31
0.0
  0
ARC
  5
4E7
  8
0
 10
22.809747223599999
 20
15.6101423684
 30
0.0
 40
0.25
 50
92.394046008499984
 51
178.98426047800001
  0
ARC
  5
4E9
  8
0
 10
31.52100628854263
 20
9.1523034152625673
 30
0.0
 40
0.2083129909206538
 50
298.77790820351231
 51
356.5685507649535
  0
ARC
  5
4EA
  8
0
 10
22.677437351021201
 20
15.480157565557571
 30
0.0
 40
0.1200151971575907
 50
178.99205384382611
 51
269.99997043854739
  0
ARC
  5
4EB
  8
0
 10
38.065158480199997
 20
15.480141185100001
 30
0.0
 40
0.1199991684
 50
270.0
 51
1.016724213
  0
ARC
  5
5FB
  8
0
 10
37.932488650944933
 20
15.60978342318343
 30
0.0
 40
0.2503591857178084
 50
2.0157749650230898
 51
89.920584150933166
  0
LINE
  5
5FC
  8
0
 10
22.859419262041971
 20
15.3601423684
 30
0.0
 11
23.461236031795519
 21
14.792576524739649
 31
0.0
  0
ARC
  5
603
  8
0
 10
32.116213020437698
 20
9.1257160279538656
 30
0.0
 40
0.3875245087587225
 50
93.741002163135249
 51
177.91203929150129
  0
ARC
  5
604
  8
0
 10
29.789830578323372
 20
65.172108795725137
 30
0.0
 40
55.707239995059467
 50
272.36738918304911
 51
276.39012378654343
  0
ARC
  5
605
  8
0
 10
35.766863148248973
 20
11.58018154385721
 30
0.0
 40
1.7832153176915311
 50
277.18559508484913
 51
352.9208390893732
  0
ARC
  5
606
  8
0
 10
38.08743688149795
 20
15.26169275590199
 30
0.0
 40
0.1244848290147303
 50
127.7343928744786
 51
172.0272388652003
  0
ARC
  5
607
  8
0
 10
24.775733358686399
 20
11.87148513244602
 30
0.0
 40
0.9905380031545096
 50
187.65866084133191
 51
261.93795530040182
  0
ARC
  5
608
  8
0
 10
30.86532304706774
 20
66.920455434992064
 30
0.0
 40
56.374849702726458
 50
263.65679429633281
 51
269.4979125994206
  0
LINE
  5
60D
  8
0
 10
36.955065290643631
 20
11.739453629599989
 30
0.0
 11
37.287862924848113
 21
14.792576524739641
 31
0.0
  0
LINE
  5
60E
  8
0
 10
37.889679694601668
 20
15.360142368399989
 30
0.0
 11
37.287862924848113
 21
14.792576524739649
 31
0.0
  0
ARC
  5
60F
  8
0
 10
35.97336559795724
 20
11.87148513244602
 30
0.0
 40
0.9905380031545096
 50
278.062044699598
 51
352.34133915866801
  0
ARC
  5
610
  8
0
 10
29.885483974592919
 20
66.901693768658234
 30
0.0
 40
56.356014184458267
 50
270.49393681346049
 51
276.34358721341113
  0
ATTDEF
  5
666
  8
DEFPOINTS
 10
30.362242711527571
 20
15.871255768959999
 30
0.0
 40
0.001
  1
K-2297
  3

  2
MODELNUMBER
 70
     0
1001
ACDBATTR
1070
     0
1070
     1
  0
ATTDEF
  5
667
  8
DEFPOINTS
 10
30.362242711527571
 20
15.869589102293331
 30
0.0
 40
0.001
  1
KATHRYN
  3

  2
TRADENAME
 70
     0
1001
ACDBATTR
1070
     0
1070
     1
  0
ATTDEF
  5
668
  8
DEFPOINTS
 10
30.362242711527571
 20
15.867922435626671
 30
0.0
 40
0.001
  1
BATHROOM SINK
  3

  2
PRODUCT
 70
     0
1001
ACDBATTR
1070
     0
1070
     1
  0
ATTDEF
  5
669
  8
DEFPOINTS
 10
30.362242711527571
 20
15.86625576896
 30
0.0
 40
0.001
  1
VITREOUS CHINA
  3

  2
MATERIAL
 70
     0
1001
ACDBATTR
1070
     0
1070
     1
  0
ENDSEC
  0
EOF
