  0
SECTION
  2
HEADER
  9
$ACADVER
  1
AC1009
  9
$INSBASE
 10
212.0192305819973058
 20
67.4694596567913152
 30
0.0
  9
$EXTMIN
 10
203.5014181355244887
 20
59.12693060450286
 30
-0.0015258207003583
  9
$EXTMAX
 10
220.5345466119781008
 20
68.0038041537366951
 30
0.0000000349246037
  9
$LIMMIN
 10
0.0
 20
0.0
  9
$LIMMAX
 10
11.6929133858000007
 20
8.2677165353999982
  9
$ORTHOMODE
 70
     0
  9
$REGENMODE
 70
     1
  9
$FILLMODE
 70
     1
  9
$QTEXTMODE
 70
     0
  9
$MIRRTEXT
 70
     0
  9
$DRAGMODE
 70
     2
  9
$LTSCALE
 40
0.6431102362
  9
$OSMODE
 70
  2039
  9
$ATTMODE
 70
     1
  9
$TEXTSIZE
 40
0.2
  9
$TRACEWID
 40
0.05
  9
$TEXTSTYLE
  7
STANDARD
  9
$CLAYER
  8
0
  9
$CELTYPE
  6
BYLAYER
  9
$CECOLOR
 62
   256
  9
$DIMSCALE
 40
1.0
  9
$DIMASZ
 40
0.1875
  9
$DIMEXO
 40
0.0625
  9
$DIMDLI
 40
0.4443307087
  9
$DIMRND
 40
0.0
  9
$DIMDLE
 40
0.0
  9
$DIMEXE
 40
0.125
  9
$DIMTP
 40
0.01
  9
$DIMTM
 40
0.01
  9
$DIMTXT
 40
1.0
  9
$DIMCEN
 40
0.1052362205
  9
$DIMTSZ
 40
0.0
  9
$DIMTOL
 70
     1
  9
$DIMLIM
 70
     0
  9
$DIMTIH
 70
     0
  9
$DIMTOH
 70
     1
  9
$DIMSE1
 70
     0
  9
$DIMSE2
 70
     0
  9
$DIMTAD
 70
     0
  9
$DIMZIN
 70
     0
  9
$DIMBLK
  1

  9
$DIMASO
 70
     1
  9
$DIMSHO
 70
     1
  9
$DIMPOST
  1
\X
  9
$DIMAPOST
  1

  9
$DIMALT
 70
     1
  9
$DIMALTD
 70
     2
  9
$DIMALTF
 40
25.3999999999999986
  9
$DIMLFAC
 40
1.0
  9
$DIMTOFL
 70
     0
  9
$DIMTVP
 40
0.0
  9
$DIMTIX
 70
     0
  9
$DIMSOXD
 70
     0
  9
$DIMSAH
 70
     0
  9
$DIMBLK1
  1

  9
$DIMBLK2
  1

  9
$DIMSTYLE
  2
STANDARD
  9
$DIMCLRD
 70
     0
  9
$DIMCLRE
 70
     0
  9
$DIMCLRT
 70
     0
  9
$DIMTFAC
 40
1.0
  9
$DIMGAP
 40
0.09
  9
$LUNITS
 70
     2
  9
$LUPREC
 70
     4
  9
$SKETCHINC
 40
0.1
  9
$FILLETRAD
 40
0.0
  9
$AUNITS
 70
     0
  9
$AUPREC
 70
     0
  9
$MENU
  1
.
  9
$ELEVATION
 40
0.0
  9
$PELEVATION
 40
0.0
  9
$THICKNESS
 40
0.0
  9
$LIMCHECK
 70
     0
  9
$BLIPMODE
 70
     0
  9
$CHAMFERA
 40
0.0
  9
$CHAMFERB
 40
0.0
  9
$SKPOLY
 70
     0
  9
$TDCREATE
 40
2458172.5207638889551163
  9
$TDUPDATE
 40
2459140.3774421298876405
  9
$TDINDWG
 40
0.2907842361
  9
$TDUSRTIMER
 40
0.2907842361
  9
$USRTIMER
 70
     1
  9
$ANGBASE
 50
0.0
  9
$ANGDIR
 70
     0
  9
$PDMODE
 70
     0
  9
$PDSIZE
 40
0.3125
  9
$PLINEWID
 40
0.0
  9
$COORDS
 70
     1
  9
$SPLFRAME
 70
     0
  9
$SPLINETYPE
 70
     6
  9
$SPLINESEGS
 70
     8
  9
$ATTDIA
 70
     1
  9
$ATTREQ
 70
     1
  9
$HANDLING
 70
     1
  9
$HANDSEED
  5
1C392
  9
$SURFTAB1
 70
     6
  9
$SURFTAB2
 70
     6
  9
$SURFTYPE
 70
     6
  9
$SURFU
 70
     6
  9
$SURFV
 70
     6
  9
$UCSNAME
  2

  9
$UCSORG
 10
0.0
 20
0.0
 30
0.0
  9
$UCSXDIR
 10
1.0
 20
0.0
 30
0.0
  9
$UCSYDIR
 10
0.0
 20
1.0
 30
0.0
  9
$PUCSNAME
  2

  9
$PUCSORG
 10
0.0
 20
0.0
 30
0.0
  9
$PUCSXDIR
 10
1.0
 20
0.0
 30
0.0
  9
$PUCSYDIR
 10
0.0
 20
1.0
 30
0.0
  9
$USERI1
 70
     0
  9
$USERI2
 70
     0
  9
$USERI3
 70
     0
  9
$USERI4
 70
     0
  9
$USERI5
 70
     0
  9
$USERR1
 40
0.0
  9
$USERR2
 40
0.0
  9
$USERR3
 40
0.0
  9
$USERR4
 40
0.0
  9
$USERR5
 40
0.0
  9
$WORLDVIEW
 70
     1
  9
$SHADEDGE
 70
     3
  9
$SHADEDIF
 70
    70
  9
$TILEMODE
 70
     1
  9
$MAXACTVP
 70
    64
  9
$PLIMCHECK
 70
     0
  9
$PEXTMIN
 10
1.0000000000000000E+20
 20
1.0000000000000000E+20
 30
1.0000000000000000E+20
  9
$PEXTMAX
 10
-1.0000000000000000E+20
 20
-1.0000000000000000E+20
 30
-1.0000000000000000E+20
  9
$PLIMMIN
 10
0.0
 20
0.0
  9
$PLIMMAX
 10
12.0
 20
9.0
  9
$UNITMODE
 70
     0
  9
$VISRETAIN
 70
     1
  9
$PLINEGEN
 70
     0
  9
$PSLTSCALE
 70
     1
  0
ENDSEC
  0
SECTION
  2
TABLES
  0
TABLE
  2
VPORT
 70
     1
  0
VPORT
  2
*ACTIVE
 70
     0
 10
0.0
 20
0.0
 11
1.0
 21
1.0
 12
-217.6113067343023886
 22
-6.1371741330989087
 13
0.0
 23
0.0
 14
1.0
 24
1.0
 15
0.0
 25
0.0
 16
0.0
 26
0.0
 36
14.6338572656650907
 17
429.6292891080536833
 27
69.7025415122186871
 37
0.0
 40
8.9507448963841867
 41
2.6486111111111108
 42
50.0
 43
0.0
 44
0.0
 50
0.0
 51
0.0
 71
     0
 72
   100
 73
     1
 74
     1
 75
     0
 76
     0
 77
     0
 78
     0
  0
ENDTAB
  0
TABLE
  2
LTYPE
 70
     2
  0
LTYPE
  2
CONTINUOUS
 70
     0
  3
Solid line
 72
    65
 73
     0
 40
0.0
  0
LTYPE
  2
PHANTOM2
 70
     0
  3
___ _ _ ___ _ _ ___ _ _ ___ _ _
 72
    65
 73
     6
 40
1.25
 49
0.625
 49
-0.125
 49
0.125
 49
-0.125
 49
0.125
 49
-0.125
  0
ENDTAB
  0
TABLE
  2
LAYER
 70
     2
  0
LAYER
  2
0
 70
     0
 62
   255
  6
CONTINUOUS
  0
LAYER
  2
DEFPOINTS
 70
     0
 62
     7
  6
CONTINUOUS
  0
ENDTAB
  0
TABLE
  2
STYLE
 70
     1
  0
STYLE
  2
STANDARD
 70
     0
 40
0.0
 41
0.8
 50
0.0
 71
     0
 42
0.2
  3
txt
  4

  0
ENDTAB
  0
TABLE
  2
VIEW
 70
     0
  0
ENDTAB
  0
TABLE
  2
UCS
 70
     0
  0
ENDTAB
  0
TABLE
  2
APPID
 70
    10
  0
APPID
  2
ACAD
 70
     0
  0
APPID
  2
ACAD_MLEADERVER
 70
     0
  0
APPID
  2
ACAD_EXEMPT_FROM_CAD_STANDARDS
 70
     0
  0
APPID
  2
ACAD_DSTYLE_DIMJAG
 70
     0
  0
APPID
  2
ACAD_DSTYLE_DIMTALN
 70
     0
  0
APPID
  2
ACAD_NAV_VCDISPLAY
 70
     0
  0
APPID
  2
ACAECLAYERSTANDARD
 70
     0
  0
APPID
  2
ACCMTRANSPARENCY
 70
     0
  0
APPID
  2
DCO15
 70
     0
  0
APPID
  2
ACDBATTR
 70
     0
  0
ENDTAB
  0
TABLE
  2
DIMSTYLE
 70
     1
  0
DIMSTYLE
  2
STANDARD
 70
     0
  3

  4

  5

  6

  7

 40
1.0
 41
0.1875
 42
0.0625
 43
0.38
 44
0.125
 45
0.0
 46
0.0
 47
0.01
 48
0.01
140
0.15625
141
0.09
142
0.0
143
25.3999999999999986
144
1.0
145
0.0
146
1.0
147
0.09
 71
     1
 72
     0
 73
     1
 74
     1
 75
     0
 76
     0
 77
     0
 78
     4
170
     0
171
     2
172
     0
173
     0
174
     0
175
     0
176
     0
177
     0
178
     0
  0
ENDTAB
  0
ENDSEC
  0
SECTION
  2
BLOCKS
  0
BLOCK
  8
0
  2
$MODEL_SPACE
 70
     0
 10
0.0
 20
0.0
 30
0.0
  3
$MODEL_SPACE
  1

  0
ENDBLK
  5
21
  8
0
  0
BLOCK
 67
     1
  8
0
  2
$PAPER_SPACE
 70
     0
 10
0.0
 20
0.0
 30
0.0
  3
$PAPER_SPACE
  1

  0
ENDBLK
  5
1D
 67
     1
  8
0
  0
BLOCK
  8
0
  2
_FILLED
 70
     0
 10
0.0
 20
0.0
 30
0.0
  3
_FILLED
  1

  0
SOLID
  5
87E2
  8
0
  6
BYBLOCK
 62
     0
 10
0.0
 20
0.0
 30
0.0
 11
-1.0
 21
0.1666666667
 31
0.0
 12
-1.0
 22
-0.1666666667
 32
0.0
 13
-1.0
 23
-0.1666666667
 33
0.0
  0
ENDBLK
  5
87E3
  8
0
  6
BYBLOCK
 62
     0
  0
ENDSEC
  0
SECTION
  2
ENTITIES
  0
ATTDEF
  5
1B24A
  8
DEFPOINTS
 10
212.0194093965822901
 20
67.4729913661077205
 30
0.0
 40
0.001
  1
K-2264T
  3

  2
MODELNUMBER
 70
     0
1001
ACDBATTR
1070
     0
1070
     1
  0
ATTDEF
  5
1B24B
  8
DEFPOINTS
 10
212.0194093965822901
 20
67.4713246994410554
 30
0.0
 40
0.001
  1
CENTERPIECE
  3

  2
TRADENAME
 70
     0
1001
ACDBATTR
1070
     0
1070
     1
  0
ATTDEF
  5
1B24C
  8
DEFPOINTS
 10
212.0194093965822901
 20
67.4696580327743902
 30
0.0
 40
0.001
  1
BATHROOM SINK
  3

  2
PRODUCT
 70
     0
1001
ACDBATTR
1070
     0
1070
     1
  0
LINE
  5
1C1A1
  8
0
 10
211.3522875420503908
 20
59.1311607937913308
 30
0.0
 11
213.826190571450411
 21
59.1311607937913308
 31
0.0
  0
LINE
  5
1C1A2
  8
0
 10
203.6291104737503872
 20
67.4694588997913201
 30
0.0
 11
220.4093506899442048
 21
67.4694588997913201
 31
0.0
  0
LINE
  5
1C1A3
  8
0
 10
219.6393919083064077
 20
68.0018826006658088
 30
0.0
 11
204.3990692556882038
 21
68.0018826006658088
 31
0.0
  0
ARC
  5
1C1A4
  8
0
 10
204.4322624086611029
 20
67.1880001113221823
 30
0.0
 40
0.8145590781916729
 50
92.3354405655732648
 51
95.7983655682429713
  0
ARC
  5
1C1A5
  8
0
 10
204.592380171969495
 20
66.3883721701086955
 30
0.0
 40
1.6281663163774229
 50
98.5623670392874516
 51
114.537373294808404
  0
ARC
  5
1C1A6
  8
0
 10
204.4733885939907907
 20
66.6524398370613369
 30
0.0
 40
1.3385315781299321
 50
114.5980825133253944
 51
129.1334494694704915
  0
ARC
  5
1C1A7
  8
0
 10
203.8430802785663047
 20
67.4234068581052242
 30
0.0
 40
0.3427116192332749
 50
128.7427570163062001
 51
161.6361772656333073
  0
ARC
  5
1C1A8
  8
0
 10
203.7207329395288014
 20
67.4729951651717101
 30
0.0
 40
0.2111438823671093
 50
163.9481094966573096
 51
172.7993725035346984
  0
LINE
  5
1C1A9
  8
0
 10
203.5112542795756951
 20
67.4994608048827018
 30
0.0
 11
220.5272076947441917
 21
67.4994608048827018
 31
0.0
  0
ARC
  5
1C1AA
  8
0
 10
219.6061987553335086
 20
67.1880001113221823
 30
0.0
 40
0.8145590781916729
 50
84.2016344317570145
 51
87.6645594344267352
  0
ARC
  5
1C1AB
  8
0
 10
219.4460809920250881
 20
66.3883721701086955
 30
0.0
 40
1.6281663163774229
 50
65.4626267051915391
 51
81.4376329607125342
  0
ARC
  5
1C1AC
  8
0
 10
219.5650725700037071
 20
66.6524398370613369
 30
0.0
 40
1.3385315781299321
 50
50.866550530529473
 51
65.4019174866745345
  0
ARC
  5
1C1AD
  8
0
 10
220.1953808854283068
 20
67.4234068581052242
 30
0.0
 40
0.3427116192332749
 50
18.3638227343666998
 51
51.257242983693807
  0
ARC
  5
1C1AE
  8
0
 10
220.317597145437702
 20
67.4729628742583856
 30
0.0
 40
0.211278779596818
 50
7.2048321472689736
 51
16.0504769665050695
  0
LINE
  5
1C1AF
  8
0
 10
220.4093506899440911
 20
67.4694588997913201
 30
0.0
 11
220.4093506899442048
 21
67.4994608048826734
 31
0.0
  0
LINE
  5
1C1B0
  8
0
 10
203.6291104737503872
 20
67.4694588997913201
 30
0.0
 11
203.6291104737503872
 21
67.4994608048827018
 31
0.0
  0
ARC
  5
1C1B1
  8
0
 10
204.3954315067902883
 20
67.3462327448838067
 30
0.0
 40
0.1232914542195289
 50
56.8557996281869222
 51
88.1351469488995747
  0
LINE
  5
1C1B2
  8
0
 10
204.4628408689503942
 20
67.4494643319913223
 30
0.0
 11
206.4123574601887015
 21
66.1563322596553149
 31
0.0
  0
ARC
  5
1C1B3
  8
0
 10
206.2738618710503999
 20
65.9477265039913192
 30
0.0
 40
0.2503860108999991
 50
7.1802810738991951
 51
56.4057883539005971
  0
ARC
  5
1C1B4
  8
0
 10
213.8333200630630131
 20
66.9000650887992094
 30
0.0
 40
7.3688237208832366
 50
187.1802810738992093
 51
210.6857755891188049
  0
ARC
  5
1C1B5
  8
0
 10
212.3213509297069947
 20
66.0028311380114587
 30
0.0
 40
5.6106771335169636
 50
210.6857755891188049
 51
242.1879682175145092
  0
ARC
  5
1C1B6
  8
0
 10
211.7993908225170117
 20
65.2481851674843369
 30
0.0
 40
4.7009504711455019
 50
243.5235163352571135
 51
259.0829806822206933
  0
ARC
  5
1C1B7
  8
0
 10
210.8608076931934079
 20
60.3869506652029528
 30
0.0
 40
0.2500651676601738
 50
42.4378457361986108
 51
78.8671630879776444
  0
ARC
  5
1C1B8
  8
0
 10
210.8608058191503005
 20
60.3869483053913072
 30
0.0
 40
0.2500681431000422
 50
6.0110537911026789
 51
42.4379550218465624
  0
LINE
  5
1C1B9
  8
0
 10
211.1094990152552953
 20
60.4131355237359813
 30
0.0
 11
211.2329449048035031
 21
59.2386174718792518
 31
0.0
  0
ARC
  5
1C1BA
  8
0
 10
211.352287542018189
 20
59.2511607937072924
 30
0.0
 40
0.1199999999159775
 50
185.9999549885689873
 51
269.9999522689158198
  0
LINE
  5
1C1BB
  8
0
 10
210.9091081776309977
 20
60.6323068374913206
 30
0.0
 11
214.3297767066351014
 21
60.6323068374913206
 31
0.0
  0
ARC
  5
1C1BC
  8
0
 10
213.826190571450411
 20
59.2511607937912999
 30
0.0
 40
0.1199999999999859
 50
269.9999999999935199
 51
354.0000000000056275
  0
LINE
  5
1C1BD
  8
0
 10
213.9455331988945943
 20
59.2386173781992014
 30
0.0
 11
214.0678663638504133
 21
60.4025397604913223
 31
0.0
  0
ARC
  5
1C1BE
  8
0
 10
214.3165170223693963
 20
60.3763780680365088
 30
0.0
 40
0.2500231671946304
 50
99.4330063636274843
 51
173.993742794221788
  0
ARC
  5
1C1BF
  8
0
 10
213.3623812999946097
 20
66.1193111010951782
 30
0.0
 40
5.5716307901363971
 50
279.4330063636274986
 51
279.9988709295623153
  0
ARC
  5
1C1C0
  8
0
 10
213.4171964787680906
 20
65.8084029475359671
 30
0.0
 40
5.2559274740727799
 50
279.9988709295623153
 51
328.4178860797979951
  0
ARC
  5
1C1C1
  8
0
 10
213.3772903037404092
 20
65.9573921570549118
 30
0.0
 40
5.368998722682524
 50
327.2863798886738209
 51
350.4389328784565123
  0
ARC
  5
1C1C2
  8
0
 10
218.9639002613214984
 20
65.0104374630107031
 30
0.0
 40
0.2973543045489937
 50
156.3002066260723097
 51
169.3074266873323097
  0
LINE
  5
1C1C3
  8
0
 10
218.6916236166503893
 20
65.1299573826913161
 30
0.0
 11
219.746929547882587
 21
67.4000565864485566
 31
0.0
  0
ARC
  5
1C1C4
  8
0
 10
219.856128415141086
 20
67.3488981631249004
 30
0.0
 40
0.1205884608389329
 50
91.2280778153701419
 51
154.8974459064716029
  0
LINE
  5
1C1C5
  8
0
 10
206.4124023037018958
 20
66.1562923280736328
 30
0.0
 11
218.6916254911390922
 21
65.1299615822841389
 31
0.0
  0
ENDSEC
  0
EOF
