  0
SECTION
  2
HEADER
  9
$ACADVER
  1
AC1009
  9
$INSBASE
 10
179.2705612370552046
 20
67.4639786278230247
 30
0.0
  9
$EXTMIN
 10
166.7496414649415044
 20
59.1217424843226169
 30
-0.0015258207003583
  9
$EXTMAX
 10
191.7841809976198988
 20
67.9986160335564591
 30
0.0000000349246037
  9
$LIMMIN
 10
0.0
 20
0.0
  9
$LIMMAX
 10
11.6929133858000007
 20
8.2677165353999982
  9
$ORTHOMODE
 70
     0
  9
$REGENMODE
 70
     1
  9
$FILLMODE
 70
     1
  9
$QTEXTMODE
 70
     0
  9
$MIRRTEXT
 70
     0
  9
$DRAGMODE
 70
     2
  9
$LTSCALE
 40
0.6431102362
  9
$OSMODE
 70
  2039
  9
$ATTMODE
 70
     1
  9
$TEXTSIZE
 40
0.2
  9
$TRACEWID
 40
0.05
  9
$TEXTSTYLE
  7
STANDARD
  9
$CLAYER
  8
0
  9
$CELTYPE
  6
BYLAYER
  9
$CECOLOR
 62
   256
  9
$DIMSCALE
 40
1.0
  9
$DIMASZ
 40
0.1875
  9
$DIMEXO
 40
0.0625
  9
$DIMDLI
 40
0.4443307087
  9
$DIMRND
 40
0.0
  9
$DIMDLE
 40
0.0
  9
$DIMEXE
 40
0.125
  9
$DIMTP
 40
0.01
  9
$DIMTM
 40
0.01
  9
$DIMTXT
 40
1.0
  9
$DIMCEN
 40
0.1052362205
  9
$DIMTSZ
 40
0.0
  9
$DIMTOL
 70
     1
  9
$DIMLIM
 70
     0
  9
$DIMTIH
 70
     0
  9
$DIMTOH
 70
     1
  9
$DIMSE1
 70
     0
  9
$DIMSE2
 70
     0
  9
$DIMTAD
 70
     0
  9
$DIMZIN
 70
     0
  9
$DIMBLK
  1

  9
$DIMASO
 70
     1
  9
$DIMSHO
 70
     1
  9
$DIMPOST
  1
\X
  9
$DIMAPOST
  1

  9
$DIMALT
 70
     1
  9
$DIMALTD
 70
     2
  9
$DIMALTF
 40
25.3999999999999986
  9
$DIMLFAC
 40
1.0
  9
$DIMTOFL
 70
     0
  9
$DIMTVP
 40
0.0
  9
$DIMTIX
 70
     0
  9
$DIMSOXD
 70
     0
  9
$DIMSAH
 70
     0
  9
$DIMBLK1
  1

  9
$DIMBLK2
  1

  9
$DIMSTYLE
  2
STANDARD
  9
$DIMCLRD
 70
     0
  9
$DIMCLRE
 70
     0
  9
$DIMCLRT
 70
     0
  9
$DIMTFAC
 40
1.0
  9
$DIMGAP
 40
0.09
  9
$LUNITS
 70
     2
  9
$LUPREC
 70
     4
  9
$SKETCHINC
 40
0.1
  9
$FILLETRAD
 40
0.0
  9
$AUNITS
 70
     0
  9
$AUPREC
 70
     0
  9
$MENU
  1
.
  9
$ELEVATION
 40
0.0
  9
$PELEVATION
 40
0.0
  9
$THICKNESS
 40
0.0
  9
$LIMCHECK
 70
     0
  9
$BLIPMODE
 70
     0
  9
$CHAMFERA
 40
0.0
  9
$CHAMFERB
 40
0.0
  9
$SKPOLY
 70
     0
  9
$TDCREATE
 40
2458172.5207638889551163
  9
$TDUPDATE
 40
2459140.3782175919041038
  9
$TDINDWG
 40
0.2922888657
  9
$TDUSRTIMER
 40
0.2922888657
  9
$USRTIMER
 70
     1
  9
$ANGBASE
 50
0.0
  9
$ANGDIR
 70
     0
  9
$PDMODE
 70
     0
  9
$PDSIZE
 40
0.3125
  9
$PLINEWID
 40
0.0
  9
$COORDS
 70
     1
  9
$SPLFRAME
 70
     0
  9
$SPLINETYPE
 70
     6
  9
$SPLINESEGS
 70
     8
  9
$ATTDIA
 70
     1
  9
$ATTREQ
 70
     1
  9
$HANDLING
 70
     1
  9
$HANDSEED
  5
1C530
  9
$SURFTAB1
 70
     6
  9
$SURFTAB2
 70
     6
  9
$SURFTYPE
 70
     6
  9
$SURFU
 70
     6
  9
$SURFV
 70
     6
  9
$UCSNAME
  2

  9
$UCSORG
 10
0.0
 20
0.0
 30
0.0
  9
$UCSXDIR
 10
1.0
 20
0.0
 30
0.0
  9
$UCSYDIR
 10
0.0
 20
1.0
 30
0.0
  9
$PUCSNAME
  2

  9
$PUCSORG
 10
0.0
 20
0.0
 30
0.0
  9
$PUCSXDIR
 10
1.0
 20
0.0
 30
0.0
  9
$PUCSYDIR
 10
0.0
 20
1.0
 30
0.0
  9
$USERI1
 70
     0
  9
$USERI2
 70
     0
  9
$USERI3
 70
     0
  9
$USERI4
 70
     0
  9
$USERI5
 70
     0
  9
$USERR1
 40
0.0
  9
$USERR2
 40
0.0
  9
$USERR3
 40
0.0
  9
$USERR4
 40
0.0
  9
$USERR5
 40
0.0
  9
$WORLDVIEW
 70
     1
  9
$SHADEDGE
 70
     3
  9
$SHADEDIF
 70
    70
  9
$TILEMODE
 70
     1
  9
$MAXACTVP
 70
    64
  9
$PLIMCHECK
 70
     0
  9
$PEXTMIN
 10
1.0000000000000000E+20
 20
1.0000000000000000E+20
 30
1.0000000000000000E+20
  9
$PEXTMAX
 10
-1.0000000000000000E+20
 20
-1.0000000000000000E+20
 30
-1.0000000000000000E+20
  9
$PLIMMIN
 10
0.0
 20
0.0
  9
$PLIMMAX
 10
12.0
 20
9.0
  9
$UNITMODE
 70
     0
  9
$VISRETAIN
 70
     1
  9
$PLINEGEN
 70
     0
  9
$PSLTSCALE
 70
     1
  0
ENDSEC
  0
SECTION
  2
TABLES
  0
TABLE
  2
VPORT
 70
     1
  0
VPORT
  2
*ACTIVE
 70
     0
 10
0.0
 20
0.0
 11
1.0
 21
1.0
 12
-250.3623778767729959
 22
-6.1423622532791446
 13
0.0
 23
0.0
 14
1.0
 24
1.0
 15
0.0
 25
0.0
 16
0.0
 26
0.0
 36
14.6338572656650907
 17
429.6292891080536833
 27
69.7025415122186871
 37
0.0
 40
9.4816473549755838
 41
2.6486111111111108
 42
50.0
 43
0.0
 44
0.0
 50
0.0
 51
0.0
 71
     0
 72
   100
 73
     1
 74
     1
 75
     0
 76
     0
 77
     0
 78
     0
  0
ENDTAB
  0
TABLE
  2
LTYPE
 70
     2
  0
LTYPE
  2
CONTINUOUS
 70
     0
  3
Solid line
 72
    65
 73
     0
 40
0.0
  0
LTYPE
  2
PHANTOM2
 70
     0
  3
___ _ _ ___ _ _ ___ _ _ ___ _ _
 72
    65
 73
     6
 40
1.25
 49
0.625
 49
-0.125
 49
0.125
 49
-0.125
 49
0.125
 49
-0.125
  0
ENDTAB
  0
TABLE
  2
LAYER
 70
     2
  0
LAYER
  2
0
 70
     0
 62
   255
  6
CONTINUOUS
  0
LAYER
  2
DEFPOINTS
 70
     0
 62
     7
  6
CONTINUOUS
  0
ENDTAB
  0
TABLE
  2
STYLE
 70
     1
  0
STYLE
  2
STANDARD
 70
     0
 40
0.0
 41
0.8
 50
0.0
 71
     0
 42
0.2
  3
txt
  4

  0
ENDTAB
  0
TABLE
  2
VIEW
 70
     0
  0
ENDTAB
  0
TABLE
  2
UCS
 70
     0
  0
ENDTAB
  0
TABLE
  2
APPID
 70
    10
  0
APPID
  2
ACAD
 70
     0
  0
APPID
  2
ACAD_MLEADERVER
 70
     0
  0
APPID
  2
ACAD_EXEMPT_FROM_CAD_STANDARDS
 70
     0
  0
APPID
  2
ACAD_DSTYLE_DIMJAG
 70
     0
  0
APPID
  2
ACAD_DSTYLE_DIMTALN
 70
     0
  0
APPID
  2
ACAD_NAV_VCDISPLAY
 70
     0
  0
APPID
  2
ACAECLAYERSTANDARD
 70
     0
  0
APPID
  2
ACCMTRANSPARENCY
 70
     0
  0
APPID
  2
DCO15
 70
     0
  0
APPID
  2
ACDBATTR
 70
     0
  0
ENDTAB
  0
TABLE
  2
DIMSTYLE
 70
     1
  0
DIMSTYLE
  2
STANDARD
 70
     0
  3

  4

  5

  6

  7

 40
1.0
 41
0.1875
 42
0.0625
 43
0.38
 44
0.125
 45
0.0
 46
0.0
 47
0.01
 48
0.01
140
0.15625
141
0.09
142
0.0
143
25.3999999999999986
144
1.0
145
0.0
146
1.0
147
0.09
 71
     1
 72
     0
 73
     1
 74
     1
 75
     0
 76
     0
 77
     0
 78
     4
170
     0
171
     2
172
     0
173
     0
174
     0
175
     0
176
     0
177
     0
178
     0
  0
ENDTAB
  0
ENDSEC
  0
SECTION
  2
BLOCKS
  0
BLOCK
  8
0
  2
$MODEL_SPACE
 70
     0
 10
0.0
 20
0.0
 30
0.0
  3
$MODEL_SPACE
  1

  0
ENDBLK
  5
21
  8
0
  0
BLOCK
 67
     1
  8
0
  2
$PAPER_SPACE
 70
     0
 10
0.0
 20
0.0
 30
0.0
  3
$PAPER_SPACE
  1

  0
ENDBLK
  5
1D
 67
     1
  8
0
  0
BLOCK
  8
0
  2
_FILLED
 70
     0
 10
0.0
 20
0.0
 30
0.0
  3
_FILLED
  1

  0
SOLID
  5
87E2
  8
0
  6
BYBLOCK
 62
     0
 10
0.0
 20
0.0
 30
0.0
 11
-1.0
 21
0.1666666667
 31
0.0
 12
-1.0
 22
-0.1666666667
 32
0.0
 13
-1.0
 23
-0.1666666667
 33
0.0
  0
ENDBLK
  5
87E3
  8
0
  6
BYBLOCK
 62
     0
  0
ENDSEC
  0
SECTION
  2
ENTITIES
  0
ATTDEF
  5
1BCD7
  8
DEFPOINTS
 10
179.2707503385024097
 20
67.4675929321481505
 30
0.0
 40
0.001
  1
K-2264T
  3

  2
MODELNUMBER
 70
     0
1001
ACDBATTR
1070
     0
1070
     1
  0
ATTDEF
  5
1BCD8
  8
DEFPOINTS
 10
179.2707503385024097
 20
67.4659262654814853
 30
0.0
 40
0.001
  1
CENTERPIECE
  3

  2
TRADENAME
 70
     0
1001
ACDBATTR
1070
     0
1070
     1
  0
ATTDEF
  5
1BCD9
  8
DEFPOINTS
 10
179.2707503385024097
 20
67.4642595988148202
 30
0.0
 40
0.001
  1
BATHROOM SINK
  3

  2
PRODUCT
 70
     0
1001
ACDBATTR
1070
     0
1070
     1
  0
LINE
  5
1C333
  8
0
 10
178.033613486805109
 20
59.1256805218230284
 30
0.0
 11
180.5075089869052078
 21
59.1256805218230284
 31
0.0
  0
ARC
  5
1C334
  8
0
 10
178.0336097223147931
 20
59.2456805218789171
 30
0.0
 40
0.1200000001149437
 50
186.0000000248510901
 51
270.0017974117159838
  0
LINE
  5
1C335
  8
0
 10
177.9142670947618114
 20
59.233137106223019
 30
0.0
 11
177.79550401968649
 21
60.3630922814790196
 31
0.0
  0
ARC
  5
1C336
  8
0
 10
177.5468707692434975
 20
60.3369598737205521
 30
0.0
 40
0.2500027919065752
 50
6.0000000248510812
 51
86.2813330458160266
  0
ARC
  5
1C337
  8
0
 10
178.2704808582022906
 20
71.4704045228093463
 30
0.0
 40
10.9069323300329
 50
263.8270086677997028
 51
266.281333045815984
  0
ARC
  5
1C338
  8
0
 10
178.5175865481058963
 20
73.7550812536280205
 30
0.0
 40
13.2049334149601894
 50
253.0712508741486886
 51
263.8270086677997028
  0
ARC
  5
1C339
  8
0
 10
177.6139959574647946
 20
70.7863706686384688
 30
0.0
 40
10.1017546426487907
 50
239.8472556468551034
 51
253.0712508741486886
  0
ARC
  5
1C33A
  8
0
 10
176.863359768077089
 20
69.4941983386892019
 30
0.0
 40
8.6073771738996818
 50
223.4360465704232865
 51
239.8472556468551034
  0
ARC
  5
1C33B
  8
0
 10
174.6747209170513031
 20
67.4218956256829927
 30
0.0
 40
5.5933137116360596
 50
203.6503146245277094
 51
223.4360465704232865
  0
ARC
  5
1C33C
  8
0
 10
177.8292684850391936
 20
68.8033837732272815
 30
0.0
 40
9.0371023027815411
 50
201.5364067228632905
 51
203.6503146245271125
  0
ARC
  5
1C33D
  8
0
 10
169.1984816107409983
 20
65.3972897227238263
 30
0.0
 40
0.2414729515574994
 50
21.5364067228632585
 51
44.039703106413711
  0
ARC
  5
1C33E
  8
0
 10
-175.5613185216479906
 20
-253.2193841623121102
 30
0.0
 40
469.6835318393170269
 50
42.7438543819151135
 51
43.0542061569989798
  0
ARC
  5
1C33F
  8
0
 10
167.5623200266645085
 20
67.359958371082314
 30
0.0
 40
0.1040295858620214
 50
41.4720950914674731
 51
90.7673311186242842
  0
LINE
  5
1C340
  8
0
 10
166.8810999819052086
 20
67.4639786278230247
 30
0.0
 11
191.660022492205087
 21
67.4639786278230247
 31
0.0
  0
LINE
  5
1C341
  8
0
 10
190.8900637105674036
 20
67.9964023286975134
 30
0.0
 11
167.6510587631429132
 21
67.9964023286975134
 31
0.0
  0
ARC
  5
1C342
  8
0
 10
167.6842519161158123
 20
67.1825198393538869
 30
0.0
 40
0.8145590781916729
 50
92.3354405655732648
 51
95.7983655682429713
  0
ARC
  5
1C343
  8
0
 10
167.8443696794242896
 20
66.3828918981404001
 30
0.0
 40
1.6281663163774229
 50
98.5623670392874516
 51
114.537373294808404
  0
ARC
  5
1C344
  8
0
 10
167.7253781014456138
 20
66.6469595650930415
 30
0.0
 40
1.3385315781299321
 50
114.5980825133253944
 51
129.1334494694704915
  0
ARC
  5
1C345
  8
0
 10
167.0950697860210141
 20
67.4179265861369288
 30
0.0
 40
0.3427116192332749
 50
128.7427570163056885
 51
161.6361772656333073
  0
ARC
  5
1C346
  8
0
 10
166.9727843359997053
 20
67.4674996468106372
 30
0.0
 40
0.2112075741949139
 50
163.9487770649969889
 51
172.7965626079979131
  0
LINE
  5
1C347
  8
0
 10
166.7632437851048053
 20
67.4939835462210027
 30
0.0
 11
191.7778794970051877
 21
67.4939774891230257
 31
0.0
  0
ARC
  5
1C348
  8
0
 10
179.1787540248340918
 20
-85.8606495952744808
 30
0.0
 40
152.0114966840160093
 50
89.965395197820726
 51
91.8421775448471607
  0
ARC
  5
1C349
  8
0
 10
176.427571295312589
 20
-0.3222925401147165
 30
0.0
 40
66.4289077181099543
 50
91.8421775840722461
 51
94.9596934139454731
  0
ARC
  5
1C34A
  8
0
 10
171.4814740995651903
 20
56.6736319711550607
 30
0.0
 40
9.2187749760497955
 50
94.9596934139454731
 51
100.6920299803815055
  0
ARC
  5
1C34B
  8
0
 10
170.1135737226805986
 20
63.9185640238219008
 30
0.0
 40
1.845838526517606
 50
100.6920299803815055
 51
114.6583841490053004
  0
ARC
  5
1C34C
  8
0
 10
180.5075127513954953
 20
59.2456805218789171
 30
0.0
 40
0.1200000001149437
 50
269.9982025882840162
 51
353.9999999751490236
  0
LINE
  5
1C34D
  8
0
 10
180.6268553789485054
 20
59.233137106223019
 30
0.0
 11
180.7456184540237984
 21
60.3630922814790196
 31
0.0
  0
ARC
  5
1C34E
  8
0
 10
180.9942517044667909
 20
60.3369598737205521
 30
0.0
 40
0.2500027919065752
 50
93.7186669541840018
 51
173.9999999751489099
  0
ARC
  5
1C34F
  8
0
 10
180.2706416155079978
 20
71.4704045228093463
 30
0.0
 40
10.9069323300329
 50
273.718666954184016
 51
276.1729913322002972
  0
ARC
  5
1C350
  8
0
 10
180.0235359256043921
 20
73.7550812536280205
 30
0.0
 40
13.2049334149601894
 50
276.1729913322002972
 51
286.9287491258511977
  0
ARC
  5
1C351
  8
0
 10
180.9271265162454938
 20
70.7863706686384688
 30
0.0
 40
10.1017546426487907
 50
286.9287491258511977
 51
300.1527443531450103
  0
ARC
  5
1C352
  8
0
 10
181.6777627056331994
 20
69.4941983386892019
 30
0.0
 40
8.6073771738996818
 50
300.1527443531450103
 51
316.5639534295767135
  0
ARC
  5
1C353
  8
0
 10
183.8664015566590137
 20
67.4218956256829927
 30
0.0
 40
5.5933137116360596
 50
316.5639534295767135
 51
336.3496853754721769
  0
ARC
  5
1C354
  8
0
 10
180.7118539886710948
 20
68.8033837732272815
 30
0.0
 40
9.0371023027815411
 50
336.3496853754729159
 51
338.4635932771366811
  0
ARC
  5
1C355
  8
0
 10
189.3426408629692901
 20
65.3972897227238263
 30
0.0
 40
0.2414729515574994
 50
135.9602968935863032
 51
158.4635932771367095
  0
ARC
  5
1C356
  8
0
 10
534.102440995358279
 20
-253.2193841623121102
 30
0.0
 40
469.6835318393170269
 50
136.9457938430010131
 51
137.2561456180849007
  0
ARC
  5
1C357
  8
0
 10
190.9788024470458083
 20
67.359958371082314
 30
0.0
 40
0.1040295858620214
 50
89.2326688813757016
 51
138.5279049085324914
  0
ARC
  5
1C358
  8
0
 10
190.8568705575945046
 20
67.1825198393538869
 30
0.0
 40
0.8145590781916729
 50
84.2016344317570145
 51
87.6645594344267352
  0
ARC
  5
1C359
  8
0
 10
190.6967527942859988
 20
66.3828918981404001
 30
0.0
 40
1.6281663163774229
 50
65.4626267051918802
 51
81.4376329607125342
  0
ARC
  5
1C35A
  8
0
 10
190.8157443722647031
 20
66.6469595650930415
 30
0.0
 40
1.3385315781299321
 50
50.866550530529473
 51
65.4019174866745345
  0
ARC
  5
1C35B
  8
0
 10
191.4460526876893027
 20
67.4179265861369288
 30
0.0
 40
0.3427116192332749
 50
18.3638227343666998
 51
51.2572429836943186
  0
ARC
  5
1C35C
  8
0
 10
191.5683311958837862
 20
67.4674979366878347
 30
0.0
 40
0.2112147182371751
 50
7.2020038800009463
 51
16.0511480818196901
  0
ARC
  5
1C35D
  8
0
 10
179.3623687533601014
 20
-85.860636891138455
 30
0.0
 40
152.0114839766577006
 50
88.1578224159277823
 51
90.0346027927034669
  0
ARC
  5
1C35E
  8
0
 10
182.1135511783976995
 20
-0.3222925401147165
 30
0.0
 40
66.4289077181099543
 50
85.0403065860545269
 51
88.1578224159277823
  0
ARC
  5
1C35F
  8
0
 10
187.0596483741450982
 20
56.6736319711550607
 30
0.0
 40
9.2187749760497955
 50
79.3079700196184376
 51
85.0403065860545269
  0
ARC
  5
1C360
  8
0
 10
188.4275487510296898
 20
63.9185640238219008
 30
0.0
 40
1.845838526517606
 50
65.3416158509946712
 51
79.3079700196184376
  0
LINE
  5
1C361
  8
0
 10
191.660022492205087
 20
67.4639786278230247
 30
0.0
 11
191.660022492205087
 21
67.4939775176628132
 31
0.0
  0
LINE
  5
1C362
  8
0
 10
166.8810999819052086
 20
67.4939835176830485
 30
0.0
 11
166.8810999819052086
 21
67.4639786278230247
 31
0.0
  0
LINE
  5
1C363
  8
0
 10
177.0966026151278925
 20
60.6268265655230181
 30
0.0
 11
181.444519858582396
 21
60.6268265655230181
 31
0.0
  0
ENDSEC
  0
EOF
