  0
SECTION
  2
HEADER
  9
$ACADVER
  1
AC1009
  9
$INSBASE
 10
0.0
 20
0.0
 30
0.0
  9
$EXTMIN
 10
-12.659082
 20
-8.636708
 30
0.0
  9
$EXTMAX
 10
12.659082
 20
0.737256
 30
0.0
  9
$LIMMIN
 10
0.0
 20
0.0
  9
$LIMMAX
 10
12.0
 20
9.0
  9
$ORTHOMODE
 70
     0
  9
$REGENMODE
 70
     1
  9
$FILLMODE
 70
     1
  9
$QTEXTMODE
 70
     0
  9
$MIRRTEXT
 70
     1
  9
$DRAGMODE
 70
     2
  9
$LTSCALE
 40
1.0
  9
$OSMODE
 70
     0
  9
$ATTMODE
 70
     1
  9
$TEXTSIZE
 40
0.001
  9
$TRACEWID
 40
0.05
  9
$TEXTSTYLE
  7
STANDARD
  9
$CLAYER
  8
0
  9
$CELTYPE
  6
BYLAYER
  9
$CECOLOR
 62
   256
  9
$DIMSCALE
 40
1.0
  9
$DIMASZ
 40
0.18
  9
$DIMEXO
 40
0.0625
  9
$DIMDLI
 40
0.38
  9
$DIMRND
 40
0.0
  9
$DIMDLE
 40
0.0
  9
$DIMEXE
 40
0.18
  9
$DIMTP
 40
0.0
  9
$DIMTM
 40
0.0
  9
$DIMTXT
 40
0.18
  9
$DIMCEN
 40
0.09
  9
$DIMTSZ
 40
0.0
  9
$DIMTOL
 70
     0
  9
$DIMLIM
 70
     0
  9
$DIMTIH
 70
     1
  9
$DIMTOH
 70
     1
  9
$DIMSE1
 70
     0
  9
$DIMSE2
 70
     0
  9
$DIMTAD
 70
     0
  9
$DIMZIN
 70
     0
  9
$DIMBLK
  1

  9
$DIMASO
 70
     1
  9
$DIMSHO
 70
     1
  9
$DIMPOST
  1

  9
$DIMAPOST
  1

  9
$DIMALT
 70
     0
  9
$DIMALTD
 70
     2
  9
$DIMALTF
 40
25.4
  9
$DIMLFAC
 40
1.0
  9
$DIMTOFL
 70
     0
  9
$DIMTVP
 40
0.0
  9
$DIMTIX
 70
     0
  9
$DIMSOXD
 70
     0
  9
$DIMSAH
 70
     0
  9
$DIMBLK1
  1

  9
$DIMBLK2
  1

  9
$DIMSTYLE
  2
*UNNAMED
  9
$DIMCLRD
 70
     0
  9
$DIMCLRE
 70
     0
  9
$DIMCLRT
 70
     0
  9
$DIMTFAC
 40
1.0
  9
$DIMGAP
 40
0.09
  9
$LUNITS
 70
     2
  9
$LUPREC
 70
     4
  9
$SKETCHINC
 40
0.1
  9
$FILLETRAD
 40
0.5
  9
$AUNITS
 70
     0
  9
$AUPREC
 70
     0
  9
$MENU
  1
acad
  9
$ELEVATION
 40
0.0
  9
$PELEVATION
 40
0.0
  9
$THICKNESS
 40
0.0
  9
$LIMCHECK
 70
     0
  9
$BLIPMODE
 70
     0
  9
$CHAMFERA
 40
0.5
  9
$CHAMFERB
 40
0.5
  9
$SKPOLY
 70
     0
  9
$TDCREATE
 40
2450938.446223842
  9
$TDUPDATE
 40
2450940.599088310
  9
$TDINDWG
 40
0.0010469907
  9
$TDUSRTIMER
 40
0.0010469907
  9
$USRTIMER
 70
     1
  9
$ANGBASE
 50
0.0
  9
$ANGDIR
 70
     0
  9
$PDMODE
 70
     0
  9
$PDSIZE
 40
0.0
  9
$PLINEWID
 40
0.0
  9
$COORDS
 70
     1
  9
$SPLFRAME
 70
     0
  9
$SPLINETYPE
 70
     6
  9
$SPLINESEGS
 70
     8
  9
$ATTDIA
 70
     0
  9
$ATTREQ
 70
     1
  9
$HANDLING
 70
     1
  9
$HANDSEED
  5
8C61
  9
$SURFTAB1
 70
     6
  9
$SURFTAB2
 70
     6
  9
$SURFTYPE
 70
     6
  9
$SURFU
 70
     6
  9
$SURFV
 70
     6
  9
$UCSNAME
  2

  9
$UCSORG
 10
0.0
 20
0.0
 30
0.0
  9
$UCSXDIR
 10
1.0
 20
0.0
 30
0.0
  9
$UCSYDIR
 10
0.0
 20
1.0
 30
0.0
  9
$PUCSNAME
  2

  9
$PUCSORG
 10
0.0
 20
0.0
 30
0.0
  9
$PUCSXDIR
 10
1.0
 20
0.0
 30
0.0
  9
$PUCSYDIR
 10
0.0
 20
1.0
 30
0.0
  9
$USERI1
 70
     0
  9
$USERI2
 70
     0
  9
$USERI3
 70
     0
  9
$USERI4
 70
     0
  9
$USERI5
 70
     0
  9
$USERR1
 40
0.0
  9
$USERR2
 40
0.0
  9
$USERR3
 40
0.0
  9
$USERR4
 40
0.0
  9
$USERR5
 40
0.0
  9
$WORLDVIEW
 70
     1
  9
$SHADEDGE
 70
     3
  9
$SHADEDIF
 70
    70
  9
$TILEMODE
 70
     1
  9
$MAXACTVP
 70
    16
  9
$PINSBASE
 10
0.0
 20
0.0
 30
0.0
  9
$PLIMCHECK
 70
     0
  9
$PEXTMIN
 10
1.000000E+20
 20
1.000000E+20
 30
1.000000E+20
  9
$PEXTMAX
 10
-1.000000E+20
 20
-1.000000E+20
 30
-1.000000E+20
  9
$PLIMMIN
 10
0.0
 20
0.0
  9
$PLIMMAX
 10
12.0
 20
9.0
  9
$UNITMODE
 70
     0
  9
$VISRETAIN
 70
     1
  9
$PLINEGEN
 70
     0
  9
$PSLTSCALE
 70
     1
  9
$TREEDEPTH
 70
  3020
  9
$DWGCODEPAGE
  3
dummy
  0
ENDSEC
  0
SECTION
  2
TABLES
  0
TABLE
  2
VPORT
 70
     2
  0
VPORT
  2
*ACTIVE
 70
     0
 10
0.0
 20
0.0
 11
1.0
 21
1.0
 12
2.933148
 22
1.187269
 13
0.0
 23
0.0
 14
0.5
 24
0.5
 15
0.5
 25
0.5
 16
0.0
 26
0.0
 36
1.0
 17
0.0
 27
0.0
 37
0.0
 40
21.563784
 41
1.573846
 42
50.0
 43
0.0
 44
0.0
 50
0.0
 51
0.0
 71
     0
 72
 20000
 73
     1
 74
     0
 75
     0
 76
     0
 77
     0
 78
     0
  0
ENDTAB
  0
TABLE
  2
LTYPE
 70
     2
  0
LTYPE
  2
CONTINUOUS
 70
    64
  3
Solid line
 72
    65
 73
     0
 40
0.0
  0
LTYPE
  2
HIDDEN
 70
    64
  3
__ __ __ __ __ __ __ __ __ __ __ __ __ __ __ __
 72
    65
 73
     2
 40
0.375
 49
0.25
 49
-0.125
  0
ENDTAB
  0
TABLE
  2
LAYER
 70
     1
  0
LAYER
  2
0
 70
    64
 62
     7
  6
CONTINUOUS
  0
ENDTAB
  0
TABLE
  2
STYLE
 70
     1
  0
STYLE
  2
STANDARD
 70
    64
 40
0.0
 41
1.0
 50
0.0
 71
     0
 42
0.001
  3
txt
  4

  0
ENDTAB
  0
TABLE
  2
VIEW
 70
     0
  0
ENDTAB
  0
TABLE
  2
UCS
 70
     0
  0
ENDTAB
  0
TABLE
  2
APPID
 70
     1
  0
APPID
  2
ACAD
 70
    64
  0
ENDTAB
  0
TABLE
  2
DIMSTYLE
 70
     0
  0
ENDTAB
  0
ENDSEC
  0
SECTION
  2
BLOCKS
  0
ENDSEC
  0
SECTION
  2
ENTITIES
  0
LINE
  8
0
  6
HIDDEN
  5
8BAA
 10
0.0
 20
-8.446185
 30
0.0
 11
0.913294
 21
-8.446185
 31
0.0
  0
LINE
  8
0
  5
8B0F
 10
11.598793
 20
0.626057
 30
0.0
 11
-11.516658
 21
0.626057
 31
0.0
  0
LINE
  8
0
  5
8B0E
 10
12.558358
 20
0.0
 30
0.0
 11
-12.558358
 21
0.0
 31
0.0
  0
ARC
  8
0
  6
HIDDEN
  5
8C2C
 10
2.67714
 20
14.203249
 30
0.0
 40
21.405674
 50
238.414713
 51
258.59331
  0
ARC
  8
0
  6
HIDDEN
  5
8C2B
 10
-5.330798
 20
1.265269
 30
0.0
 40
6.190178
 50
192.879367
 51
238.832756
  0
ARC
  8
0
  5
8C36
 10
-11.482996
 20
-0.90579
 30
0.0
 40
1.532217
 50
91.258876
 51
137.293648
  0
ARC
  8
0
  5
8C35
 10
-12.554461
 20
0.077773
 30
0.0
 40
0.07787
 50
134.385272
 51
272.868538
  0
ARC
  8
0
  6
HIDDEN
  5
8C2D
 10
-11.523031
 20
-0.165307
 30
0.0
 40
0.165763
 50
17.843152
 51
85.748823
  0
ARC
  8
0
  6
HIDDEN
  5
8C31
 10
242.171154
 20
9.686578
 30
0.0
 40
244.184929
 50
182.304463
 51
184.302935
  0
LINE
  8
0
  6
HIDDEN
  5
8B7E
 10
-0.927823
 20
-8.634568
 30
0.0
 11
-0.765713
 21
-6.532587
 31
0.0
  0
LINE
  8
0
  6
HIDDEN
  5
8B64
 10
-1.325489
 20
-8.634568
 30
0.0
 11
-0.927823
 21
-8.634568
 31
0.0
  0
LINE
  8
0
  6
HIDDEN
  5
8B7D
 10
0.0
 20
-8.446185
 30
0.0
 11
-0.913294
 21
-8.446185
 31
0.0
  0
ARC
  8
0
  6
HIDDEN
  5
8C2E
 10
-1.589302
 20
-6.916335
 30
0.0
 40
0.14064
 50
7.88961
 51
76.428292
  0
ARC
  8
0
  6
HIDDEN
  5
8C2F
 10
-0.622822
 20
-6.561258
 30
0.0
 40
0.14574
 50
96.906781
 51
168.654211
  0
ARC
  8
0
  5
8C32
 10
-1.969566
 20
-0.150143
 30
0.0
 40
0.154341
 50
103.392834
 51
103.595117
  0
ARC
  8
0
  6
HIDDEN
  5
8C30
 10
-1.9732
 20
-0.157326
 30
0.0
 40
0.158936
 50
9.166353
 51
81.839265
  0
ARC
  8
0
  6
HIDDEN
  5
8C2A
 10
-2.67714
 20
14.203249
 30
0.0
 40
21.405674
 50
281.40669
 51
301.585287
  0
ARC
  8
0
  6
HIDDEN
  5
8C27
 10
-242.171154
 20
9.686578
 30
0.0
 40
244.184929
 50
355.697065
 51
357.695537
  0
LINE
  8
0
  6
HIDDEN
  5
8BB4
 10
0.927823
 20
-8.634568
 30
0.0
 11
0.765713
 21
-6.532587
 31
0.0
  0
LINE
  8
0
  6
HIDDEN
  5
8BAB
 10
1.325489
 20
-8.634568
 30
0.0
 11
0.927823
 21
-8.634568
 31
0.0
  0
ARC
  8
0
  6
HIDDEN
  5
8C26
 10
0.622822
 20
-6.561258
 30
0.0
 40
0.14574
 50
11.345789
 51
83.093219
  0
ARC
  8
0
  6
HIDDEN
  5
8C25
 10
1.589302
 20
-6.916335
 30
0.0
 40
0.14064
 50
103.571708
 51
172.11039
  0
ARC
  8
0
  6
HIDDEN
  5
8C23
 10
1.9732
 20
-0.157326
 30
0.0
 40
0.158936
 50
98.160735
 51
170.833647
  0
ARC
  8
0
  5
8C24
 10
1.969566
 20
-0.150143
 30
0.0
 40
0.154341
 50
76.404883
 51
76.607166
  0
ARC
  8
0
  6
HIDDEN
  5
8C29
 10
5.330798
 20
1.265269
 30
0.0
 40
6.190178
 50
301.167244
 51
347.120633
  0
ARC
  8
0
  5
8C34
 10
11.482996
 20
-0.90579
 30
0.0
 40
1.532217
 50
42.706352
 51
88.741124
  0
ARC
  8
0
  6
HIDDEN
  5
8C28
 10
11.523031
 20
-0.165307
 30
0.0
 40
0.165763
 50
94.251177
 51
162.156848
  0
ARC
  8
0
  5
8C33
 10
12.554461
 20
0.077773
 30
0.0
 40
0.07787
 50
267.131462
 51
45.614728
  0
ATTDEF
  8
0
  5
8C5D
 10
0.0
 20
0.0
 30
0.0
 40
0.001
  1
K-2199
  3

  2
MODELNUMBER
 70
     8
  0
ATTDEF
  8
0
  5
8C5E
 10
0.0
 20
-0.0017
 30
0.0
 40
0.001
  1
CANTATA
  3

  2
TRADENAME
 70
     8
  0
ATTDEF
  8
0
  5
8C5F
 10
0.0
 20
-0.0034
 30
0.0
 40
0.001
  1
LAVATORY
  3

  2
PRODUCT
 70
     8
  0
ATTDEF
  8
0
  5
8C60
 10
0.0
 20
-0.0051
 30
0.0
 40
0.001
  1
VITREOUS CHINA
  3

  2
MATERIAL
 70
     8
  0
ENDSEC
  0
EOF
