  0
SECTION
  2
HEADER
  9
$ACADVER
  1
AC1018
  9
$ACADMAINTVER
 70
    76
  9
$DWGCODEPAGE
  3
ANSI_936
  9
$CUSTOMPROPERTYTAG
  1
AmdtFileType
  9
$CUSTOMPROPERTY
  1
84
  9
$INSBASE
 10
0.0
 20
0.0
 30
0.0
  9
$EXTMIN
 10
882.3764332861708
 20
995.5943332692832
 30
0.0
  9
$EXTMAX
 10
935.0597407043501
 20
1039.916915294333
 30
0.0
  9
$LIMMIN
 10
0.0
 20
0.0
  9
$LIMMAX
 10
420.0
 20
297.0
  9
$ORTHOMODE
 70
     1
  9
$REGENMODE
 70
     1
  9
$FILLMODE
 70
     1
  9
$QTEXTMODE
 70
     0
  9
$MIRRTEXT
 70
     1
  9
$LTSCALE
 40
1.0
  9
$ATTMODE
 70
     1
  9
$TEXTSIZE
 40
2.5
  9
$TRACEWID
 40
1.0
  9
$TEXTSTYLE
  7
STANDARD
  9
$CLAYER
  8
0
  9
$CELTYPE
  6
ByLayer
  9
$CECOLOR
 62
   256
  9
$CELTSCALE
 40
1.0
  9
$DISPSILH
 70
     0
  9
$DIMSCALE
 40
1.0
  9
$DIMASZ
 40
2.5
  9
$DIMEXO
 40
1.0
  9
$DIMDLI
 40
10.0
  9
$DIMRND
 40
0.0
  9
$DIMDLE
 40
0.0
  9
$DIMEXE
 40
1.0
  9
$DIMTP
 40
0.1
  9
$DIMTM
 40
0.1
  9
$DIMTXT
 40
3.5
  9
$DIMCEN
 40
0.0
  9
$DIMTSZ
 40
0.0
  9
$DIMTOL
 70
     0
  9
$DIMLIM
 70
     0
  9
$DIMTIH
 70
     0
  9
$DIMTOH
 70
     0
  9
$DIMSE1
 70
     0
  9
$DIMSE2
 70
     0
  9
$DIMTAD
 70
     1
  9
$DIMZIN
 70
     8
  9
$DIMBLK
  1

  9
$DIMASO
 70
     1
  9
$DIMSHO
 70
     1
  9
$DIMPOST
  1

  9
$DIMAPOST
  1
"
  9
$DIMALT
 70
     0
  9
$DIMALTD
 70
     2
  9
$DIMALTF
 40
0.0393701
  9
$DIMLFAC
 40
1.0
  9
$DIMTOFL
 70
     1
  9
$DIMTVP
 40
0.0
  9
$DIMTIX
 70
     0
  9
$DIMSOXD
 70
     0
  9
$DIMSAH
 70
     0
  9
$DIMBLK1
  1

  9
$DIMBLK2
  1

  9
$DIMSTYLE
  2
AM_ISO
  9
$DIMCLRD
 70
   256
  9
$DIMCLRE
 70
   256
  9
$DIMCLRT
 70
     2
  9
$DIMTFAC
 40
0.71
  9
$DIMGAP
 40
1.5
  9
$DIMJUST
 70
     0
  9
$DIMSD1
 70
     0
  9
$DIMSD2
 70
     0
  9
$DIMTOLJ
 70
     0
  9
$DIMTZIN
 70
     8
  9
$DIMALTZ
 70
     0
  9
$DIMALTTZ
 70
     0
  9
$DIMUPT
 70
     0
  9
$DIMDEC
 70
     2
  9
$DIMTDEC
 70
     3
  9
$DIMALTU
 70
     2
  9
$DIMALTTD
 70
     4
  9
$DIMTXSTY
  7
STANDARD
  9
$DIMAUNIT
 70
     0
  9
$DIMADEC
 70
     0
  9
$DIMALTRND
 40
0.0
  9
$DIMAZIN
 70
     2
  9
$DIMDSEP
 70
    46
  9
$DIMATFIT
 70
     3
  9
$DIMFRAC
 70
     0
  9
$DIMLDRBLK
  1

  9
$DIMLUNIT
 70
     2
  9
$DIMLWD
 70
    -1
  9
$DIMLWE
 70
    -1
  9
$DIMTMOVE
 70
     0
  9
$LUNITS
 70
     2
  9
$LUPREC
 70
     2
  9
$SKETCHINC
 40
1.0
  9
$FILLETRAD
 40
2.5
  9
$AUNITS
 70
     0
  9
$AUPREC
 70
     0
  9
$MENU
  1
.
  9
$ELEVATION
 40
0.0
  9
$PELEVATION
 40
0.0
  9
$THICKNESS
 40
0.0
  9
$LIMCHECK
 70
     0
  9
$CHAMFERA
 40
2.5
  9
$CHAMFERB
 40
2.5
  9
$CHAMFERC
 40
20.0
  9
$CHAMFERD
 40
0.0
  9
$SKPOLY
 70
     0
  9
$TDCREATE
 40
2454658.414179375
  9
$TDUCREATE
 40
2454658.080846042
  9
$TDUPDATE
 40
2454659.413140822
  9
$TDUUPDATE
 40
2454659.079807488
  9
$TDINDWG
 40
0.1856461111
  9
$TDUSRTIMER
 40
0.1856461111
  9
$USRTIMER
 70
     1
  9
$ANGBASE
 50
0.0
  9
$ANGDIR
 70
     0
  9
$PDMODE
 70
     0
  9
$PDSIZE
 40
0.0
  9
$PLINEWID
 40
0.0
  9
$SPLFRAME
 70
     0
  9
$SPLINETYPE
 70
     6
  9
$SPLINESEGS
 70
     8
  9
$HANDSEED
  5
34F
  9
$SURFTAB1
 70
     6
  9
$SURFTAB2
 70
     6
  9
$SURFTYPE
 70
     6
  9
$SURFU
 70
     6
  9
$SURFV
 70
     6
  9
$UCSBASE
  2

  9
$UCSNAME
  2

  9
$UCSORG
 10
0.0
 20
0.0
 30
0.0
  9
$UCSXDIR
 10
1.0
 20
0.0
 30
0.0
  9
$UCSYDIR
 10
0.0
 20
1.0
 30
0.0
  9
$UCSORTHOREF
  2

  9
$UCSORTHOVIEW
 70
     0
  9
$UCSORGTOP
 10
0.0
 20
0.0
 30
0.0
  9
$UCSORGBOTTOM
 10
0.0
 20
0.0
 30
0.0
  9
$UCSORGLEFT
 10
0.0
 20
0.0
 30
0.0
  9
$UCSORGRIGHT
 10
0.0
 20
0.0
 30
0.0
  9
$UCSORGFRONT
 10
0.0
 20
0.0
 30
0.0
  9
$UCSORGBACK
 10
0.0
 20
0.0
 30
0.0
  9
$PUCSBASE
  2

  9
$PUCSNAME
  2

  9
$PUCSORG
 10
0.0
 20
0.0
 30
0.0
  9
$PUCSXDIR
 10
1.0
 20
0.0
 30
0.0
  9
$PUCSYDIR
 10
0.0
 20
1.0
 30
0.0
  9
$PUCSORTHOREF
  2

  9
$PUCSORTHOVIEW
 70
     0
  9
$PUCSORGTOP
 10
0.0
 20
0.0
 30
0.0
  9
$PUCSORGBOTTOM
 10
0.0
 20
0.0
 30
0.0
  9
$PUCSORGLEFT
 10
0.0
 20
0.0
 30
0.0
  9
$PUCSORGRIGHT
 10
0.0
 20
0.0
 30
0.0
  9
$PUCSORGFRONT
 10
0.0
 20
0.0
 30
0.0
  9
$PUCSORGBACK
 10
0.0
 20
0.0
 30
0.0
  9
$USERI1
 70
     0
  9
$USERI2
 70
     0
  9
$USERI3
 70
     0
  9
$USERI4
 70
     0
  9
$USERI5
 70
     0
  9
$USERR1
 40
0.0
  9
$USERR2
 40
0.0
  9
$USERR3
 40
0.0
  9
$USERR4
 40
0.0
  9
$USERR5
 40
0.0
  9
$WORLDVIEW
 70
     1
  9
$SHADEDGE
 70
     3
  9
$SHADEDIF
 70
    70
  9
$TILEMODE
 70
     1
  9
$MAXACTVP
 70
    64
  9
$PINSBASE
 10
0.0
 20
0.0
 30
0.0
  9
$PLIMCHECK
 70
     0
  9
$PEXTMIN
 10
1.000000000000000E+20
 20
1.000000000000000E+20
 30
1.000000000000000E+20
  9
$PEXTMAX
 10
-1.000000000000000E+20
 20
-1.000000000000000E+20
 30
-1.000000000000000E+20
  9
$PLIMMIN
 10
0.0
 20
0.0
  9
$PLIMMAX
 10
420.0
 20
297.0
  9
$UNITMODE
 70
     0
  9
$VISRETAIN
 70
     1
  9
$PLINEGEN
 70
     0
  9
$PSLTSCALE
 70
     1
  9
$TREEDEPTH
 70
  3020
  9
$CMLSTYLE
  2
Standard
  9
$CMLJUST
 70
     0
  9
$CMLSCALE
 40
20.0
  9
$PROXYGRAPHICS
 70
     1
  9
$MEASUREMENT
 70
     1
  9
$CELWEIGHT
370
    -1
  9
$ENDCAPS
280
     0
  9
$JOINSTYLE
280
     0
  9
$LWDISPLAY
290
     0
  9
$INSUNITS
 70
     4
  9
$HYPERLINKBASE
  1

  9
$STYLESHEET
  1

  9
$XEDIT
290
     1
  9
$CEPSNTYPE
380
     0
  9
$PSTYLEMODE
290
     1
  9
$FINGERPRINTGUID
  2
{CA96AB42-FCBA-4220-9EF7-AE4A30708102}
  9
$VERSIONGUID
  2
{4C099635-416A-4440-946D-5A4831F46862}
  9
$EXTNAMES
290
     1
  9
$PSVPSCALE
 40
0.0
  9
$OLESTARTUP
290
     0
  9
$SORTENTS
280
   127
  9
$INDEXCTL
280
     0
  9
$HIDETEXT
280
     0
  9
$XCLIPFRAME
290
     0
  9
$HALOGAP
280
     0
  9
$OBSCOLOR
 70
   257
  9
$OBSLTYPE
280
     0
  9
$INTERSECTIONDISPLAY
280
     0
  9
$INTERSECTIONCOLOR
 70
   257
  9
$DIMASSOC
280
     2
  9
$PROJECTNAME
  1

  0
ENDSEC
  0
SECTION
  2
CLASSES
  0
CLASS
  1
ACDBDICTIONARYWDFLT
  2
AcDbDictionaryWithDefault
  3
ObjectDBX Classes
 90
        0
 91
        1
280
     0
281
     0
  0
CLASS
  1
ACME_DOCUMENT
  2
AcMeDbDoc
  3
AcMeServices
 90
        0
 91
        2
280
     0
281
     0
  0
CLASS
  1
AMGSETTINGSOBJ
  2
AmgSettingsObj
  3
"AcadM|Product Description: AutoCAD Mechanical 2000|Company: Autodesk"
 90
        0
 91
        4
280
     0
281
     0
  0
CLASS
  1
ACMESCOPE
  2
AcMeScope
  3
AcMeServices
 90
        0
 91
        1
280
     0
281
     0
  0
CLASS
  1
ACMECOMMANDHISTORY
  2
AcMeCommandHistory
  3
AcMeServices
 90
        0
 91
        1
280
     0
281
     0
  0
CLASS
  1
ACIMSYSVARMAN
  2
AcImSysVarManager
  3
AcMeServices
 90
        0
 91
        5
280
     0
281
     0
  0
CLASS
  1
ACIMREALSYSVAR
  2
AcImRealSysVar
  3
AcMeServices
 90
        0
 91
        3
280
     0
281
     0
  0
CLASS
  1
ACIMINTSYSVAR
  2
AcImIntSysVar
  3
AcMeServices
 90
        0
 91
       26
280
     0
281
     0
  0
CLASS
  1
ACMEDRAWINGMAN
  2
AcMeDrawingMan
  3
AcMeServices
 90
        0
 91
        1
280
     0
281
     0
  0
CLASS
  1
ACMEVIEW
  2
AcMeView
  3
AcMeServices
 90
        0
 91
        1
280
     0
281
     0
  0
CLASS
  1
ACDBENTITYCACHE
  2
AcMeEntityCache
  3
AcMeServices
 90
        0
 91
        1
280
     0
281
     0
  0
CLASS
  1
GSMANAGER
  2
AcMeGSManager
  3
AcMeServices
 90
        0
 91
        1
280
     0
281
     0
  0
CLASS
  1
AMDTINTERNALREACTOR
  2
AmdtInternalReactor
  3
AcMeServices
 90
        0
 91
        2
280
     0
281
     0
  0
CLASS
  1
ACMESTATEMGR
  2
AcMeStateMgr
  3
AcMeServices
 90
        0
 91
        1
280
     0
281
     0
  0
CLASS
  1
ACGREFMASTER
  2
AcGrefMaster
  3
AcAttribServices
 90
        0
 91
        1
280
     0
281
     0
  0
CLASS
  1
ACME_DATABASE
  2
AcMeDbDatabase
  3
AcMeServices
 90
        0
 91
        1
280
     0
281
     0
  0
CLASS
  1
ACRFINSADJUSTERMGR
  2
AcRfInsAdjusterMgr
  3
AcMeServices
 90
        0
 91
        1
280
     0
281
     0
  0
CLASS
  1
ACGREFACADMASTER
  2
AcGrefacadMaster
  3
AcGrefServices
 90
        0
 91
        1
280
     0
281
     0
  0
CLASS
  1
AMIMASTER
  2
AmiMaster
  3
AmiServices
 90
        0
 91
        1
280
     0
281
     0
  0
CLASS
  1
ACMDATADICTIONARY
  2
AcmDataDictionary
  3
"AcmSymBB|Product Description: AutoCAD Mechanical 2004 DX|Company: Autodesk"
 90
        0
 91
        1
280
     0
281
     0
  0
CLASS
  1
ACMDATAENTRYBLOCK
  2
AcmDataEntryBlock
  3
"AcmSymBB|Product Description: AutoCAD Mechanical 2004 DX|Company: Autodesk"
 90
        0
 91
        1
280
     0
281
     0
  0
CLASS
  1
ACIMSTRSYSVAR
  2
AcImStrSysVar
  3
AcMeServices
 90
        0
 91
        5
280
     0
281
     0
  0
CLASS
  1
ACMSTANDARDISO
  2
AcmStandardISO
  3
"Amdt_StdImp|Product Description: AutoCAD Mechanical 2004 DX|Company: Autodesk"
 90
        0
 91
        1
280
     0
281
     0
  0
CLASS
  1
AMGOBJPROPCFG
  2
AmgObjPropCfg
  3
"AmgLay|Product Description: AutoCAD Mechanical 2000|Company: Autodesk"
 90
        1
 91
        1
280
     0
281
     0
  0
CLASS
  1
AMDTEDGESTANDARDISO
  2
AmdtEdgeStdISO
  3
"Amdt_StdImp|Product Description: AutoCAD Mechanical 2004 DX|Company: Autodesk"
 90
        0
 91
        1
280
     0
281
     0
  0
CLASS
  1
ACMSURFSTANDARDISO
  2
AcmSurfTextStdISO
  3
"Amdt_StdImp|Product Description: AutoCAD Mechanical 2004 DX|Company: Autodesk"
 90
        0
 91
        1
280
     0
281
     0
  0
CLASS
  1
ACMFCFSTANDARDISO
  2
AcmFCFStdISO
  3
"Amdt_StdImp|Product Description: AutoCAD Mechanical 2004 DX|Company: Autodesk"
 90
        0
 91
        1
280
     0
281
     0
  0
CLASS
  1
ACMWELDSTANDARDISO
  2
AcmWeldingStdISO
  3
"Amdt_StdImp|Product Description: AutoCAD Mechanical 2004 DX|Company: Autodesk"
 90
        0
 91
        1
280
     0
281
     0
  0
CLASS
  1
ACMIDSTANDARDISO
  2
AcmIdStdISO
  3
"Amdt_StdImp|Product Description: AutoCAD Mechanical 2004 DX|Company: Autodesk"
 90
        0
 91
        1
280
     0
281
     0
  0
CLASS
  1
ACMDATUMSTANDARDISO
  2
AcmDatumStdISO
  3
"Amdt_StdImp|Product Description: AutoCAD Mechanical 2004 DX|Company: Autodesk"
 90
        0
 91
        1
280
     0
281
     0
  0
CLASS
  1
ACMBOMSTANDARDISO
  2
AcmBOMStdISO
  3
"Amdt_StdImp|Product Description: AutoCAD Mechanical 2004 DX|Company: Autodesk"
 90
        0
 91
        1
280
     0
281
     0
  0
CLASS
  1
ACMDETAILSTANDARDISO
  2
AmdtDetailSymStdISO
  3
"Amdt_StdImp|Product Description: AutoCAD Mechanical 2004 DX|Company: Autodesk"
 90
        0
 91
        1
280
     0
281
     0
  0
CLASS
  1
ACMSECTIONSTANDARDISO
  2
AmdtSectionSymStdISO
  3
"Amdt_StdImp|Product Description: AutoCAD Mechanical 2004 DX|Company: Autodesk"
 90
        0
 91
        1
280
     0
281
     0
  0
CLASS
  1
ACMCENTERLINESTANDARDISO
  2
AmdtCenterLineStdISO
  3
"Amdt_StdImp|Product Description: AutoCAD Mechanical 2004 DX|Company: Autodesk"
 90
        0
 91
        1
280
     0
281
     0
  0
CLASS
  1
ACMNOTESTANDARDISO
  2
AmdtNoteStdISO
  3
"Amdt_StdImp|Product Description: AutoCAD Mechanical 2004 DX|Company: Autodesk"
 90
        0
 91
        1
280
     0
281
     0
  0
CLASS
  1
ACAMGLAYSTD
  2
AcAmgLayStd
  3
"AcAmgLayStd|Product Description: AutoCAD Mechanical 2000|Company: Autodesk"
 90
        0
 91
        1
280
     0
281
     0
  0
CLASS
  1
ACAMGDIMSTD
  2
AcAmgDimStd
  3
"AcAmgDimStd|Product Description: AutoCAD Mechanical 2000|Company: Autodesk"
 90
        0
 91
        1
280
     0
281
     0
  0
CLASS
  1
ACAMGHOLECHARTSTDISO
  2
AcAmgHoleChartStdISO
  3
ACMSYMBB_MODULE_NAME
 90
        0
 91
        1
280
     0
281
     0
  0
CLASS
  1
ACAMGTITLESTD
  2
AcAmgTitleStd
  3
"TITLEAPP"
 90
        0
 91
        1
280
     0
281
     0
  0
CLASS
  1
LAYER_INDEX
  2
AcDbLayerIndex
  3
ObjectDBX Classes
 90
        0
 91
        0
280
     0
281
     0
  0
CLASS
  1
IDBUFFER
  2
AcDbIdBuffer
  3
ObjectDBX Classes
 90
        0
 91
        0
280
     0
281
     0
  0
CLASS
  1
DICTIONARYVAR
  2
AcDbDictionaryVar
  3
ObjectDBX Classes
 90
        0
 91
        3
280
     0
281
     0
  0
CLASS
  1
AM_DRAWING_MGR
  2
AcDmDwgMgr
  3
AcMechDwgViewMgmt
 90
        0
 91
        1
280
     0
281
     0
  0
CLASS
  1
AM_DWG_DOCUMENT
  2
AcDmDwgDocument
  3
AcMechDwgViewMgmt
 90
        0
 91
        1
280
     0
281
     0
  0
CLASS
  1
AM_DWG_SHEET
  2
AcDmSheet
  3
AcMechDwgViewMgmt
 90
        0
 91
        2
280
     0
281
     0
  0
CLASS
  1
AM_VIEWDIMPARMAP
  2
AcDmViewDimParMap
  3
AcMechDwgViewMgmt
 90
        0
 91
        2
280
     0
281
     0
  0
CLASS
  1
AM_DWGMGR_NAME
  2
AcDmDwgMgrName
  3
AcMechDwgViewMgmt
 90
        0
 91
        1
280
     0
281
     0
  0
CLASS
  1
AMDTMENUSTATEMGR
  2
AmdtMenuStateMgr
  3
McadcomServices
 90
        0
 91
        1
280
     0
281
     0
  0
CLASS
  1
AMDTMCOMMENUSTATE
  2
AmdtMcomMenuState
  3
McadcomServices
 90
        0
 91
        1
280
     0
281
     0
  0
CLASS
  1
MAPIAMMOUDLE
  2
MApiAmModule
  3
MApiAmServices
 90
        0
 91
        1
280
     0
281
     0
  0
CLASS
  1
AMDTADMENUSTATE
  2
AmdtAdMenuState
  3
DesignerServices
 90
        0
 91
        1
280
     0
281
     0
  0
CLASS
  1
ADAPPL
  2
AcAdAppl
  3
DesignerServices
 90
        0
 91
        1
280
     0
281
     0
  0
CLASS
  1
DEPMGR
  2
AcAdDepMgr
  3
DesignerServices
 90
        0
 91
        1
280
     0
281
     0
  0
CLASS
  1
PARAMMGR
  2
AcAdParamMgr
  3
DesignerServices
 90
        0
 91
        1
280
     0
281
     0
  0
CLASS
  1
PARAMSCOPE
  2
AcAdParamScope
  3
DesignerServices
 90
        0
 91
        1
280
     0
281
     0
  0
CLASS
  1
NAMEDAPPL
  2
AcAdNamedAppl
  3
DesignerServices
 90
        0
 91
        1
280
     0
281
     0
  0
CLASS
  1
AMDTDMMENUSTATE
  2
AmdtDmMenuState
  3
AcMechDwgViewMgmt
 90
        0
 91
        1
280
     0
281
     0
  0
CLASS
  1
AMDTAMMENUSTATE
  2
AmdtAmMenuState
  3
DesignerAssemblies
 90
        0
 91
        1
280
     0
281
     0
  0
CLASS
  1
ACAMPROJECT
  2
AcAmProject
  3
DesignerAssemblies
 90
        0
 91
        1
280
     0
281
     0
  0
CLASS
  1
ACAMGRCOMPDEF
  2
AcAmGrCompDef
  3
DesignerAssemblies
 90
        0
 91
        1
280
     0
281
     0
  0
CLASS
  1
ACCMCONTEXT
  2
AcCmContext
  3
DesignerAssemblies
 90
        0
 91
        1
280
     0
281
     0
  0
CLASS
  1
ACAMCOMPDEF
  2
AcAmCompDef
  3
DesignerAssemblies
 90
        0
 91
        1
280
     0
281
     0
  0
CLASS
  1
ACAMCOMPDEFMGR
  2
AcAmCompDefMgr
  3
DesignerAssemblies
 90
        0
 91
        1
280
     0
281
     0
  0
CLASS
  1
AMCONTEXTMGR
  2
AcAmContextMgr
  3
DesignerAssemblies
 90
        0
 91
        1
280
     0
281
     0
  0
CLASS
  1
ACAMCONTEXTMODELER
  2
AcAmContextModeler
  3
DesignerAssemblies
 90
        0
 91
        1
280
     0
281
     0
  0
CLASS
  1
ACMTHREADLINESTANDARDISO
  2
AmdtThreadLineStdISO
  3
"Amdt_StdImp|Product Description: AutoCAD Mechanical 2004 DX|Company: Autodesk"
 90
        0
 91
        1
280
     0
281
     0
  0
CLASS
  1
CATALOGSTATE
  2
AcAmCatalogState
  3
DesignerAssemblies
 90
        0
 91
        1
280
     0
281
     0
  0
CLASS
  1
ACAMGRCOMPDEFSET
  2
AcAmGrCompDefSet
  3
DesignerAssemblies
 90
        0
 91
        1
280
     0
281
     0
  0
CLASS
  1
AMDTBROWSERDBTAB
  2
AmdtBrowserDbTab
  3
McadcomServices
 90
        0
 91
        1
280
     0
281
     0
  0
CLASS
  1
CBROWSERAPPOBJECT
  2
CBrowserAppObject
  3
McadcomServices
 90
        0
 91
        3
280
     0
281
     0
  0
CLASS
  1
DM_PLACEHOLDER
  2
AcDmSelsetPlaceholder
  3
AcMechDwgViewMgmt
 90
        0
 91
        1
280
     0
281
     0
  0
CLASS
  1
TABLESTYLE
  2
AcDbTableStyle
  3
ObjectDBX Classes
 90
     2047
 91
        1
280
     0
281
     0
  0
CLASS
  1
VAACXREFPANELOBJECT
  2
VaAcXREFPanelObject
  3
VAAC_ADDIN
 90
        0
 91
        0
280
     0
281
     0
  0
CLASS
  1
VAACIMAGEINVENTORY
  2
VaAcImageInventory
  3
VAAC_ADDIN
 90
        0
 91
        0
280
     0
281
     0
  0
CLASS
  1
AMDTNOTETEMPLATEDB
  2
AmdtNoteTemplateDB
  3
AMDT_STDIMP_MODULE_NAME
 90
        0
 91
        6
280
     0
281
     0
  0
CLASS
  1
ACAMGFILTERDAT
  2
AcAmgFilterDat
  3
"AcadM|Product Description: AutoCAD Mechanical 2000|Company: Autodesk"
 90
        0
 91
        6
280
     0
281
     0
  0
CLASS
  1
DIMASSOC
  2
AcDbDimAssoc
  3
"AcDbDimAssoc|Product Desc:     AcDim ARX App For Dimension|Company:          Autodesk, Inc.|WEB Address:      www.autodesk.com"
 90
        0
 91
        0
280
     0
281
     0
  0
ENDSEC
  0
SECTION
  2
TABLES
  0
TABLE
  2
VPORT
  5
8
330
0
100
AcDbSymbolTable
 70
     5
  0
VPORT
  5
34E
330
8
100
AcDbSymbolTableRecord
100
AcDbViewportTableRecord
  2
*Active
 70
     0
 10
0.0
 20
0.0
 11
1.0
 21
1.0
 12
896.2548174590082
 22
1028.738051124283
 13
0.0
 23
0.0
 14
2.5
 24
2.5
 15
10.0
 25
10.0
 16
0.0
 26
0.0
 36
1.0
 17
0.0
 27
0.0
 37
0.0
 40
32.24435950683346
 41
1.502564102564102
 42
50.0
 43
0.0
 44
0.0
 50
0.0
 51
0.0
 71
     0
 72
   100
 73
     1
 74
     3
 75
     0
 76
     0
 77
     0
 78
     0
281
     0
 65
     1
110
0.0
120
0.0
130
0.0
111
1.0
121
0.0
131
0.0
112
0.0
122
1.0
132
0.0
 79
     0
146
0.0
  0
ENDTAB
  0
TABLE
  2
LTYPE
  5
5
330
0
100
AcDbSymbolTable
 70
    14
  0
LTYPE
  5
14
330
5
100
AcDbSymbolTableRecord
100
AcDbLinetypeTableRecord
  2
ByBlock
 70
     0
  3

 72
    65
 73
     0
 40
0.0
  0
LTYPE
  5
15
330
5
100
AcDbSymbolTableRecord
100
AcDbLinetypeTableRecord
  2
ByLayer
 70
     0
  3

 72
    65
 73
     0
 40
0.0
  0
LTYPE
  5
16
330
5
100
AcDbSymbolTableRecord
100
AcDbLinetypeTableRecord
  2
Continuous
 70
     0
  3
Solid line
 72
    65
 73
     0
 40
0.0
  0
LTYPE
  5
64
330
5
100
AcDbSymbolTableRecord
100
AcDbLinetypeTableRecord
  2
AM_ISO02W050
 70
     0
  3
__ __ __ __ __ __ __ __ __ __ __ __ __ __ __
 72
    65
 73
     2
 40
7.5
 49
6.0
 74
     0
 49
-1.5
 74
     0
  0
LTYPE
  5
65
330
5
100
AcDbSymbolTableRecord
100
AcDbLinetypeTableRecord
  2
AM_ISO08W050
 70
     0
  3
____ . ____ . ____ . ____ . ____ . ____ . ____
 72
    65
 73
     4
 40
18.0
 49
12.0
 74
     0
 49
-1.5
 74
     0
 49
3.0
 74
     0
 49
-1.5
 74
     0
  0
LTYPE
  5
66
330
5
100
AcDbSymbolTableRecord
100
AcDbLinetypeTableRecord
  2
AM_ISO09W050
 70
     0
  3
_____ . . _____ . . _____ . . ____ .. ____
 72
    65
 73
     6
 40
22.5
 49
12.0
 74
     0
 49
-1.5
 74
     0
 49
3.0
 74
     0
 49
-1.5
 74
     0
 49
3.0
 74
     0
 49
-1.5
 74
     0
  0
LTYPE
  5
67
330
5
100
AcDbSymbolTableRecord
100
AcDbLinetypeTableRecord
  2
Amconstr
 70
     0
  3
_______________________
 72
    65
 73
     2
 40
9999.0
 49
9999.0
 74
     0
 49
0.0
 74
     0
  0
LTYPE
  5
68
330
5
100
AcDbSymbolTableRecord
100
AcDbLinetypeTableRecord
  2
AM_ISO08W050x2
 70
     0
  3
__ . __ . __ . __ . __ . __
 72
    65
 73
     4
 40
9.0
 49
6.0
 74
     0
 49
-0.75
 74
     0
 49
1.5
 74
     0
 49
-0.75
 74
     0
  0
LTYPE
  5
69
330
5
100
AcDbSymbolTableRecord
100
AcDbLinetypeTableRecord
  2
AM_ISO02W050x2
 70
     0
  3
 _ _ _ _ _ _ _ _ _ _ _ _
 72
    65
 73
     2
 40
3.75
 49
3.0
 74
     0
 49
-0.75
 74
     0
  0
LTYPE
  5
6C
330
5
100
AcDbSymbolTableRecord
100
AcDbLinetypeTableRecord
  2
Amzigzag
 70
     0
  3
/\/-/\/-/\/-/\/-/\/-/\/
 72
    65
 73
     2
 40
11.0001
 49
0.0001
 74
     4
 75
   136
340
22C
 46
0.04
 50
0.0
 44
0.0
 45
0.0
 49
-11.0
 74
     0
  0
LTYPE
  5
7A
330
5
100
AcDbSymbolTableRecord
100
AcDbLinetypeTableRecord
  2
ACISOWELD
 70
     0
  3
_ _ _ _ _
 72
    65
 73
     2
 40
2.0
 49
2.0
 74
     0
 49
-1.0
 74
     0
  0
LTYPE
  5
7B
330
5
100
AcDbSymbolTableRecord
100
AcDbLinetypeTableRecord
  2
ACISOTGB
 70
     0
  3
__ . . __ . .
 72
    65
 73
     6
 40
9.0
 49
4.0
 74
     0
 49
-1.0
 74
     0
 49
1.0
 74
     0
 49
-1.0
 74
     0
 49
1.0
 74
     0
 49
-1.0
 74
     0
  0
LTYPE
  5
7C
330
5
100
AcDbSymbolTableRecord
100
AcDbLinetypeTableRecord
  2
ACISOTGL
 70
     0
  3
_ _ _ _ _
 72
    65
 73
     2
 40
3.0
 49
2.0
 74
     0
 49
-1.0
 74
     0
  0
LTYPE
  5
7E
330
5
100
AcDbSymbolTableRecord
100
AcDbLinetypeTableRecord
  2
CENTER
 70
     0
  3
__ . __
 72
    65
 73
     4
 40
7.0
 49
4.0
 74
     0
 49
-1.0
 74
     0
 49
1.0
 74
     0
 49
-1.0
 74
     0
  0
LTYPE
  5
D8
330
5
100
AcDbSymbolTableRecord
100
AcDbLinetypeTableRecord
  2
HIDDEN
 70
     0
  3
Hidden __ __ __ __ __ __ __ __ __ __ __ __ __ _
 72
    65
 73
     2
 40
9.524999999999998
 49
6.349999999999999
 74
     0
 49
-3.174999999999999
 74
     0
  0
LTYPE
  5
D9
330
5
100
AcDbSymbolTableRecord
100
AcDbLinetypeTableRecord
  2
PHANTOM2
 70
     0
  3
Phantom (.5x) ___ _ _ ___ _ _ ___ _ _ ___ _ _
 72
    65
 73
     6
 40
31.75
 49
15.875
 74
     0
 49
-3.174999999999999
 74
     0
 49
3.174999999999999
 74
     0
 49
-3.174999999999999
 74
     0
 49
3.174999999999999
 74
     0
 49
-3.174999999999999
 74
     0
  0
ENDTAB
  0
TABLE
  2
LAYER
  5
2
330
0
100
AcDbSymbolTable
 70
     2
  0
LAYER
  5
10
330
2
100
AcDbSymbolTableRecord
100
AcDbLayerTableRecord
  2
0
 70
     0
 62
     7
  6
Continuous
370
    -3
390
F
  0
LAYER
  5
291
330
2
100
AcDbSymbolTableRecord
100
AcDbLayerTableRecord
  2
Defpoints
 70
     0
 62
     7
  6
Continuous
290
     0
370
    -3
390
F
  0
ENDTAB
  0
TABLE
  2
STYLE
  5
3
330
0
100
AcDbSymbolTable
 70
     8
  0
STYLE
  5
11
330
3
100
AcDbSymbolTableRecord
100
AcDbTextStyleTableRecord
  2
STANDARD
 70
     0
 40
0.0
 41
1.0
 50
0.0
 71
     0
 42
2.5
  3
ISOCP.SHX
  4

  0
STYLE
  5
6B
330
3
100
AcDbSymbolTableRecord
100
AcDbTextStyleTableRecord
  2

 70
     1
 40
0.0
 41
1.0
 50
0.0
 71
     0
 42
2.5
  3
ltypeshp.shx
  4

  0
STYLE
  5
6D
330
3
100
AcDbSymbolTableRecord
100
AcDbTextStyleTableRecord
  2
ACISOTS
 70
     0
 40
1.0
 41
1.0
 50
0.0
 71
     0
 42
2.5
  3
isocp.shx
  4

  0
STYLE
  5
79
330
3
100
AcDbSymbolTableRecord
100
AcDbTextStyleTableRecord
  2
ACISOGDT
 70
     0
 40
0.0
 41
1.0
 50
0.0
 71
     0
 42
2.5
  3
AMGDT
  4

  0
STYLE
  5
1ED
330
3
100
AcDbSymbolTableRecord
100
AcDbTextStyleTableRecord
  2
USER1
 70
     0
 40
0.0
 41
1.0
 50
0.0
 71
     0
 42
2.5
  3
TXT.SHX
  4

  0
STYLE
  5
1EE
330
3
100
AcDbSymbolTableRecord
100
AcDbTextStyleTableRecord
  2
USER2
 70
     0
 40
0.0
 41
1.0
 50
0.0
 71
     0
 42
2.5
  3
SIMPLEX.SHX
  4

  0
STYLE
  5
1EF
330
3
100
AcDbSymbolTableRecord
100
AcDbTextStyleTableRecord
  2
USER3
 70
     0
 40
0.0
 41
1.0
 50
0.0
 71
     0
 42
2.5
  3
ITALIC.SHX
  4

  0
STYLE
  5
22C
330
3
100
AcDbSymbolTableRecord
100
AcDbTextStyleTableRecord
  2

 70
     1
 40
0.0
 41
1.0
 50
0.0
 71
     0
 42
2.5
  3
genltshp.shx
  4

  0
ENDTAB
  0
TABLE
  2
VIEW
  5
6
330
0
100
AcDbSymbolTable
 70
     0
  0
ENDTAB
  0
TABLE
  2
UCS
  5
7
330
0
100
AcDbSymbolTable
 70
     0
  0
ENDTAB
  0
TABLE
  2
APPID
  5
9
330
0
100
AcDbSymbolTable
 70
    13
  0
APPID
  5
12
330
9
100
AcDbSymbolTableRecord
100
AcDbRegAppTableRecord
  2
ACAD
 70
     0
  0
APPID
  5
46
330
9
100
AcDbSymbolTableRecord
100
AcDbRegAppTableRecord
  2
MCAD_NO_VIS
 70
     0
  0
APPID
  5
47
330
9
100
AcDbSymbolTableRecord
100
AcDbRegAppTableRecord
  2
ACAD_TEMP_GRAPHIC
 70
     0
  0
APPID
  5
58
330
9
100
AcDbSymbolTableRecord
100
AcDbRegAppTableRecord
  2
ACATTRIBSERVICES
 70
     0
  0
APPID
  5
EE
330
9
100
AcDbSymbolTableRecord
100
AcDbRegAppTableRecord
  2
AD_DRAW
 70
     0
  0
APPID
  5
10C
330
9
100
AcDbSymbolTableRecord
100
AcDbRegAppTableRecord
  2
DESIGNERASSEMBLIES
 70
     0
  0
APPID
  5
111
330
9
100
AcDbSymbolTableRecord
100
AcDbRegAppTableRecord
  2
ACADM_DIM_EDIT
 70
     0
  0
APPID
  5
112
330
9
100
AcDbSymbolTableRecord
100
AcDbRegAppTableRecord
  2
AMDT_DM_ADJ
 70
     0
  0
APPID
  5
1A3
330
9
100
AcDbSymbolTableRecord
100
AcDbRegAppTableRecord
  2
ACAD_DSTYLE_DIMARC_LENGTH_SYMBOL
 70
     0
  0
APPID
  5
1A4
330
9
100
AcDbSymbolTableRecord
100
AcDbRegAppTableRecord
  2
ACAD_DSTYLE_DIMJOGGED_JOGANGLE_SYMBOL
 70
     0
  0
APPID
  5
287
330
9
100
AcDbSymbolTableRecord
100
AcDbRegAppTableRecord
  2
ACAD_PSEXT
 70
     0
  0
APPID
  5
2B7
330
9
100
AcDbSymbolTableRecord
100
AcDbRegAppTableRecord
  2
ACAD_EXEMPT_FROM_CAD_STANDARDS
 70
     0
  0
APPID
  5
34A
330
9
100
AcDbSymbolTableRecord
100
AcDbRegAppTableRecord
  2
DCO15
 70
     0
  0
ENDTAB
  0
TABLE
  2
DIMSTYLE
  5
A
330
0
100
AcDbSymbolTable
 70
     8
100
AcDbDimStyleTable
 71
     1
340
81
  0
DIMSTYLE
105
27
330
A
100
AcDbSymbolTableRecord
100
AcDbDimStyleTableRecord
  2
ISO-25
 70
     0
 41
2.5
 42
0.625
 43
3.75
 44
1.25
 73
     0
 74
     0
 77
     1
 78
     8
140
2.5
141
2.5
143
0.03937007874016
147
0.625
171
     3
172
     1
271
     2
272
     2
274
     3
278
    44
283
     0
284
     8
340
11
  0
DIMSTYLE
105
81
330
A
100
AcDbSymbolTableRecord
100
AcDbDimStyleTableRecord
  2
AM_ISO
 70
     0
  4
"
 41
2.5
 42
1.0
 43
10.0
 44
1.0
 47
0.1
 48
0.1
 73
     0
 74
     0
 77
     1
 78
     8
 79
     2
140
3.5
141
0.0
143
0.0393701
146
0.71
147
1.5
172
     1
176
   256
177
   256
178
     2
271
     2
272
     3
274
     4
283
     0
284
     8
340
11
371
    -1
372
    -1
1001
ACAD_DSTYLE_DIMARC_LENGTH_SYMBOL
1070
   379
1070
     1
1001
ACAD_DSTYLE_DIMJOGGED_JOGANGLE_SYMBOL
1070
   384
1040
0.7853981633974483
  0
DIMSTYLE
105
82
330
A
100
AcDbSymbolTableRecord
100
AcDbDimStyleTableRecord
  2
AM_ISO$3
 70
     0
  4
"
 41
2.5
 42
1.0
 43
10.0
 44
1.0
 47
0.1
 48
0.1
 73
     0
 77
     1
 78
     8
 79
     2
140
3.5
141
0.0
143
0.0393701
146
0.71
147
1.5
176
   256
177
   256
178
     2
271
     2
272
     3
274
     4
283
     0
284
     8
288
     1
289
     0
340
11
371
    -1
372
    -1
1001
ACAD_DSTYLE_DIMARC_LENGTH_SYMBOL
1070
   379
1070
     1
1001
ACAD_DSTYLE_DIMJOGGED_JOGANGLE_SYMBOL
1070
   384
1040
0.7853981633974483
  0
DIMSTYLE
105
83
330
A
100
AcDbSymbolTableRecord
100
AcDbDimStyleTableRecord
  2
AM_ISO$4
 70
     0
  4
"
 41
2.5
 42
1.0
 43
10.0
 44
1.0
 47
0.1
 48
0.1
 73
     0
 77
     1
 78
     8
 79
     2
140
3.5
141
0.0
143
0.0393701
146
0.71
147
1.5
176
   256
177
   256
178
     2
271
     2
272
     3
274
     4
283
     0
284
     8
288
     1
289
     0
340
11
371
    -1
372
    -1
1001
ACAD_DSTYLE_DIMARC_LENGTH_SYMBOL
1070
   379
1070
     1
1001
ACAD_DSTYLE_DIMJOGGED_JOGANGLE_SYMBOL
1070
   384
1040
0.7853981633974483
  0
DIMSTYLE
105
84
330
A
100
AcDbSymbolTableRecord
100
AcDbDimStyleTableRecord
  2
AM_ISO$6
 70
     0
  4
"
 41
2.5
 42
1.0
 43
10.0
 44
1.0
 47
0.1
 48
0.1
 73
     0
 74
     0
 78
     8
 79
     2
140
3.5
141
0.0
143
0.0393701
146
0.71
147
1.5
172
     1
176
   256
177
   256
178
     2
271
     2
272
     3
274
     4
283
     0
284
     8
340
11
371
    -1
372
    -1
1001
ACAD_DSTYLE_DIMARC_LENGTH_SYMBOL
1070
   379
1070
     1
1001
ACAD_DSTYLE_DIMJOGGED_JOGANGLE_SYMBOL
1070
   384
1040
0.7853981633974483
  0
DIMSTYLE
105
85
330
A
100
AcDbSymbolTableRecord
100
AcDbDimStyleTableRecord
  2
AM_ISO$7
 70
     0
  4
"
 41
2.5
 42
1.0
 43
10.0
 44
1.0
 47
0.1
 48
0.1
 73
     0
 74
     0
 77
     1
 78
     8
 79
     2
140
5.0
141
0.0
143
0.0393701
146
0.71
147
1.5
172
     1
176
   256
177
   256
178
     2
271
     2
272
     3
274
     4
283
     0
284
     8
340
11
371
    -1
372
    -1
1001
ACAD_DSTYLE_DIMARC_LENGTH_SYMBOL
1070
   379
1070
     1
1001
ACAD_DSTYLE_DIMJOGGED_JOGANGLE_SYMBOL
1070
   384
1040
0.7853981633974483
  0
DIMSTYLE
105
86
330
A
100
AcDbSymbolTableRecord
100
AcDbDimStyleTableRecord
  2
AM_ISO$SF
 70
     0
  4
"
 41
2.5
 42
1.0
 43
10.0
 44
1.0
 47
0.1
 48
0.1
 73
     0
 74
     0
 75
     1
 76
     1
 77
     1
 78
     8
 79
     2
140
3.5
141
0.0
143
0.0393701
146
0.71
147
1.5
172
     1
176
   256
177
   256
178
     2
271
     2
272
     3
274
     4
283
     0
284
     8
340
11
371
    -1
372
    -1
1001
ACAD_DSTYLE_DIMARC_LENGTH_SYMBOL
1070
   379
1070
     1
1001
ACAD_DSTYLE_DIMJOGGED_JOGANGLE_SYMBOL
1070
   384
1040
0.7853981633974483
  0
DIMSTYLE
105
8B
330
A
100
AcDbSymbolTableRecord
100
AcDbDimStyleTableRecord
  2
AM_ISO$SH
 70
     0
  4
"
 41
2.5
 42
1.0
 43
10.0
 44
1.0
 47
0.1
 48
0.1
 73
     0
 74
     0
 75
     1
 76
     1
 77
     1
 78
     8
 79
     2
140
3.5
141
0.0
143
0.0393701
144
2.0
146
0.71
147
1.5
172
     1
173
     1
176
   256
177
   256
178
     2
271
     2
272
     3
274
     4
283
     0
284
     8
340
11
343
87
371
    -1
372
    -1
1001
ACAD_DSTYLE_DIMARC_LENGTH_SYMBOL
1070
   379
1070
     1
1001
ACAD_DSTYLE_DIMJOGGED_JOGANGLE_SYMBOL
1070
   384
1040
0.7853981633974483
  0
ENDTAB
  0
TABLE
  2
BLOCK_RECORD
  5
1
330
0
100
AcDbSymbolTable
 70
     6
  0
BLOCK_RECORD
  5
1F
102
{ACAD_XDICTIONARY
360
8F
102
}
330
1
100
AcDbSymbolTableRecord
100
AcDbBlockTableRecord
  2
*Model_Space
340
22
  0
BLOCK_RECORD
  5
1B
330
1
100
AcDbSymbolTableRecord
100
AcDbBlockTableRecord
  2
*Paper_Space
340
1E
  0
BLOCK_RECORD
  5
23
330
1
100
AcDbSymbolTableRecord
100
AcDbBlockTableRecord
  2
*Paper_Space0
340
26
  0
BLOCK_RECORD
  5
87
330
1
100
AcDbSymbolTableRecord
100
AcDbBlockTableRecord
  2
GENAXEH
340
0
  0
ENDTAB
  0
ENDSEC
  0
SECTION
  2
BLOCKS
  0
BLOCK
  5
20
330
1F
100
AcDbEntity
  8
0
100
AcDbBlockBegin
  2
*Model_Space
 70
     0
 10
0.0
 20
0.0
 30
0.0
  3
*Model_Space
  1

  0
ENDBLK
  5
21
330
1F
100
AcDbEntity
  8
0
100
AcDbBlockEnd
  0
BLOCK
  5
1C
330
1B
100
AcDbEntity
 67
     1
  8
0
100
AcDbBlockBegin
  2
*Paper_Space
 70
     0
 10
0.0
 20
0.0
 30
0.0
  3
*Paper_Space
  1

  0
ENDBLK
  5
1D
330
1B
100
AcDbEntity
 67
     1
  8
0
100
AcDbBlockEnd
  0
BLOCK
  5
24
330
23
100
AcDbEntity
 67
     1
  8
0
100
AcDbBlockBegin
  2
*Paper_Space0
 70
     0
 10
0.0
 20
0.0
 30
0.0
  3
*Paper_Space0
  1

  0
ENDBLK
  5
25
330
23
100
AcDbEntity
 67
     1
  8
0
100
AcDbBlockEnd
  0
BLOCK
  5
89
330
87
100
AcDbEntity
  8
0
100
AcDbBlockBegin
  2
GENAXEH
 70
     0
 10
0.0
 20
0.0
 30
0.0
  3
GENAXEH
  1

  0
LINE
  5
88
330
87
100
AcDbEntity
  8
0
100
AcDbLine
 10
-1.0
 20
0.0
 30
0.0
 11
1.0
 21
0.0
 31
0.0
  0
ENDBLK
  5
8A
330
87
100
AcDbEntity
  8
0
100
AcDbBlockEnd
  0
ENDSEC
  0
SECTION
  2
ENTITIES
  0
SPLINE
  5
2B2
330
1F
100
AcDbEntity
  8
0
100
AcDbSpline
210
0.0
220
0.0
230
1.0
 70
     8
 71
     3
 72
    58
 73
    54
 74
    52
 42
0.0000000001
 43
0.0000000001
 44
0.0000000001
 40
0.0
 40
0.0
 40
0.0
 40
0.0
 40
0.667561290935531
 40
1.624348503448834
 40
3.511109360357177
 40
6.596339711552696
 40
8.876327940316301
 40
10.97792770043731
 40
14.76926364785892
 40
18.20894075183556
 40
20.71040157155218
 40
23.62078420502613
 40
25.32440290430997
 40
27.45575508903923
 40
29.65547773634606
 40
32.13885978449826
 40
33.58789587691699
 40
34.9991275302145
 40
35.97760603311178
 40
36.30454956468611
 40
36.67009980234517
 40
36.91855546218873
 40
37.28175270606758
 40
37.54608719125402
 40
38.60988995775655
 40
39.3355114061051
 40
40.02013060025764
 40
41.00355337893482
 40
42.40741028087501
 40
43.57211479585911
 40
45.46045498621964
 40
47.0541114324209
 40
48.95510884731706
 40
49.93722309354182
 40
51.39123159108716
 40
52.48167712741715
 40
53.01043023556829
 40
53.28325393384876
 40
53.51866335498988
 40
53.79719262644689
 40
54.28874695657833
 40
54.85185349613012
 40
56.26962224864971
 40
58.53365187205504
 40
60.1856484044622
 40
62.67055423189145
 40
64.3874906407587
 40
66.13716933428688
 40
66.83891932560574
 40
67.81084049416637
 40
68.99211671399171
 40
69.74266364854333
 40
70.1528791150351
 40
70.1528791150351
 40
70.1528791150351
 40
70.1528791150351
 10
882.8847349740712
 20
1029.012131097109
 30
0.0
 10
882.7123263155069
 20
1029.1706101567
 30
0.0
 10
882.2928116577168
 20
1029.556230513617
 30
0.0
 10
882.4862207815773
 20
1030.826506904338
 30
0.0
 10
882.611078163632
 20
1032.750001988001
 30
0.0
 10
883.9782606977561
 20
1034.92515643674
 30
0.0
 10
885.8493655387242
 20
1036.548398468732
 30
0.0
 10
888.0875981391808
 20
1038.137990527811
 30
0.0
 10
891.098843657812
 20
1039.077143129888
 30
0.0
 10
894.3226950740744
 20
1039.60908127061
 30
0.0
 10
897.2759026529411
 20
1039.293718516366
 30
0.0
 10
899.5910762642074
 20
1038.740011981549
 30
0.0
 10
901.6799321192269
 20
1037.897562188737
 30
0.0
 10
903.4417131418095
 20
1036.900538250248
 30
0.0
 10
905.1408968918808
 20
1035.372877975721
 30
0.0
 10
906.3810271209048
 20
1033.716009904295
 30
0.0
 10
907.0128913194096
 20
1032.023447353092
 30
0.0
 10
907.2059211616684
 20
1030.783278236068
 30
0.0
 10
907.3469682504756
 20
1029.829283800769
 30
0.0
 10
907.0582504117613
 20
1029.336304196393
 30
0.0
 10
906.8619124952848
 20
1029.101209731273
 30
0.0
 10
906.7167899560431
 20
1028.779258942282
 30
0.0
 10
906.9015363584599
 20
1028.512366477751
 30
0.0
 10
907.0872526397733
 20
1027.985639934184
 30
0.0
 10
907.0019565123047
 20
1027.260315673248
 30
0.0
 10
906.697242315994
 20
1026.500674823827
 30
0.0
 10
906.3838541157171
 20
1025.763620733454
 30
0.0
 10
905.8418297150396
 20
1024.894150568533
 30
0.0
 10
905.1466572630797
 20
1023.922188568268
 30
0.0
 10
903.975360601049
 20
1022.995840101854
 30
0.0
 10
902.7349865255644
 20
1022.065910899746
 30
0.0
 10
901.1312864010259
 20
1021.244457440815
 30
0.0
 10
899.7314224358289
 20
1020.723044766737
 30
0.0
 10
898.3269973979302
 20
1020.354442732067
 30
0.0
 10
897.1428751917603
 20
1020.34070252949
 30
0.0
 10
896.1257474167782
 20
1020.26678091703
 30
0.0
 10
895.4872822004823
 20
1020.296558965093
 30
0.0
 10
895.1606272296476
 20
1020.40921995485
 30
0.0
 10
894.9230836176502
 20
1020.540030497716
 30
0.0
 10
894.5775395428816
 20
1020.472425834316
 30
0.0
 10
894.1649949119581
 20
1020.329572636903
 30
0.0
 10
893.3509419872864
 20
1020.138488014506
 30
0.0
 10
891.9368051454677
 20
1020.415700110079
 30
0.0
 10
890.1580701099105
 20
1020.577212300819
 30
0.0
 10
888.1965515048642
 20
1021.462058830346
 30
0.0
 10
886.45471979343
 20
1022.350906393231
 30
0.0
 10
884.8871155566982
 20
1023.57338388364
 30
0.0
 10
883.9228594425756
 20
1024.606419640448
 30
0.0
 10
883.4149563694333
 20
1025.632507040645
 30
0.0
 10
882.9911894077367
 20
1026.480934557141
 30
0.0
 10
882.5785595644189
 20
1027.368311233187
 30
0.0
 10
882.5970492413908
 20
1028.194919022079
 30
0.0
 10
882.8026345289359
 20
1028.526980086078
 30
0.0
 10
882.8752887297941
 20
1028.644331047954
 30
0.0
 11
882.8847349740712
 21
1029.012131097109
 31
0.0
 11
882.4534765584871
 21
1029.52169390594
 31
0.0
 11
882.4240392690626
 21
1030.478028165506
 31
0.0
 11
882.7057418456043
 21
1032.34364071626
 31
0.0
 11
884.2401792949594
 21
1035.020233332621
 31
0.0
 11
885.9216756604268
 21
1036.560011334873
 31
0.0
 11
887.6614223740103
 21
1037.738995187314
 31
0.0
 11
891.229382049094
 21
1039.021138714064
 31
0.0
 11
894.6382389584824
 21
1039.480565695136
 31
0.0
 11
897.12991298118
 21
1039.259507338156
 31
0.0
 11
899.9549038412483
 21
1038.559683279011
 31
0.0
 11
901.5340554525819
 21
1037.920467461801
 31
0.0
 11
903.3770799103191
 21
1036.849989538846
 31
0.0
 11
905.021484888382
 21
1035.388924176449
 31
0.0
 11
906.4584886461775
 21
1033.363533696278
 31
0.0
 11
906.9674716188274
 21
1032.006831101498
 31
0.0
 11
907.2290444322806
 21
1030.62005266118
 31
0.0
 11
907.2159937589349
 21
1029.641661195274
 31
0.0
 11
907.0593834413976
 21
1029.354667673955
 31
0.0
 11
906.8505704304767
 21
1029.054627505439
 31
0.0
 11
906.7701028380048
 21
1028.819563298317
 31
0.0
 11
906.9011353572069
 21
1028.480826354845
 31
0.0
 11
906.9915056207273
 21
1028.232419560393
 31
0.0
 11
906.9362846934428
 21
1027.170050991953
 31
0.0
 11
906.6892951628402
 21
1026.487758783236
 31
0.0
 11
906.4101834794469
 21
1025.862618711576
 31
0.0
 11
905.9082080001831
 21
1025.016958626294
 31
0.0
 11
905.0483737949948
 21
1023.907229226524
 31
0.0
 11
904.1637001288968
 21
1023.149674534283
 31
0.0
 11
902.6245954920565
 21
1022.055606167412
 31
0.0
 11
901.2121112489531
 21
1021.317616240988
 31
0.0
 11
899.4301540084803
 21
1020.655483652628
 31
0.0
 11
898.4750698006033
 21
1020.42665500822
 31
0.0
 11
897.0247938682341
 21
1020.322537618101
 31
0.0
 11
895.9350838990166
 21
1020.282492010476
 31
0.0
 11
895.4087477594766
 21
1020.332990699504
 31
0.0
 11
895.1507570012308
 21
1020.421723664084
 31
0.0
 11
894.9316027915779
 21
1020.507683119372
 31
0.0
 11
894.6541937590358
 21
1020.482727484287
 31
0.0
 11
894.1825975087608
 21
1020.3440817624
 31
0.0
 11
893.6317194806671
 21
1020.227366840263
 31
0.0
 11
892.2185371730884
 21
1020.341314201653
 31
0.0
 11
889.9893622417057
 21
1020.737053081411
 31
0.0
 11
888.4576544034393
 21
1021.355893643494
 31
0.0
 11
886.2764042831431
 21
1022.546231781965
 31
0.0
 11
884.923009407958
 21
1023.602732110369
 31
0.0
 11
883.7840500950596
 21
1024.930944146961
 31
0.0
 11
883.45502008953
 21
1025.550776628989
 31
0.0
 11
883.0250414588173
 21
1026.422412524892
 31
0.0
 11
882.6256993564989
 21
1027.534140635916
 31
0.0
 11
882.6818577485756
 21
1028.282583643742
 31
0.0
 11
882.8752887297941
 21
1028.644331047954
 31
0.0
  0
SPLINE
  5
2B3
330
1F
100
AcDbEntity
  8
0
100
AcDbSpline
210
0.0
220
0.0
230
1.0
 70
     8
 71
     3
 72
     9
 73
     5
 74
     3
 42
0.0000000001
 43
0.0000000001
 44
0.0000000001
 40
0.0
 40
0.0
 40
0.0
 40
0.0
 40
0.1453949469587047
 40
0.3802363901651428
 40
0.3802363901651428
 40
0.3802363901651428
 40
0.3802363901651428
 10
882.8752887297943
 20
1028.644331047954
 30
0.0
 10
882.8967747230548
 20
1028.689403809289
 30
0.0
 10
882.9529648224177
 20
1028.807277947442
 30
0.0
 10
882.9107856544665
 20
1028.933916590419
 30
0.0
 10
882.8847349740712
 20
1029.012131097109
 30
0.0
 11
882.8752887297943
 21
1028.644331047954
 31
0.0
 11
882.9253636689605
 21
1028.780830832088
 31
0.0
 11
882.8847349740712
 21
1029.012131097109
 31
0.0
  0
SPLINE
  5
2B4
330
1F
100
AcDbEntity
  8
0
100
AcDbSpline
210
0.0
220
0.0
230
1.0
 70
     8
 71
     3
 72
    27
 73
    23
 74
    21
 42
0.0000000001
 43
0.0000000001
 44
0.0000000001
 40
0.0
 40
0.0
 40
0.0
 40
0.0
 40
1.670415028072956
 40
3.994528836912867
 40
5.370150844599566
 40
6.746870183330641
 40
8.537560731499866
 40
9.896656771383987
 40
10.95336793462118
 40
12.03429367262101
 40
12.63470176342261
 40
13.17304161495634
 40
13.80048831206141
 40
14.37126328277056
 40
14.98417836595227
 40
15.88447407757236
 40
17.33701952801681
 40
18.58270686817748
 40
19.48442647695183
 40
20.3439990491468
 40
21.79641000662523
 40
22.57255366091582
 40
22.57255366091582
 40
22.57255366091582
 40
22.57255366091582
 10
894.7327349620422
 20
1034.848687693269
 30
0.0
 10
894.1763744091678
 20
1034.850618315049
 30
0.0
 10
892.8459276430485
 20
1034.855235086479
 30
0.0
 10
891.0476264948345
 20
1034.938011563405
 30
0.0
 10
889.4032177146721
 20
1035.366825783817
 30
0.0
 10
887.8471908551095
 20
1035.241704133987
 30
0.0
 10
886.5304053460219
 20
1034.440816889159
 30
0.0
 10
885.4687491754257
 20
1033.484558768762
 30
0.0
 10
884.9996615447038
 20
1032.399302810073
 30
0.0
 10
884.670014149302
 20
1031.55183371982
 30
0.0
 10
884.5665036417438
 20
1030.801979540802
 30
0.0
 10
884.7772623618935
 20
1030.226966596855
 30
0.0
 10
885.2542155690242
 20
1029.835385559346
 30
0.0
 10
885.8837093708633
 20
1029.782364297762
 30
0.0
 10
886.5471726455457
 20
1030.027818267148
 30
0.0
 10
887.3526130162829
 20
1030.605483374136
 30
0.0
 10
888.3070671134365
 20
1031.34247046129
 30
0.0
 10
888.9928984101004
 20
1032.363361702097
 30
0.0
 10
889.1783762849692
 20
1033.386127942272
 30
0.0
 10
889.9596854745572
 20
1034.144130257815
 30
0.0
 10
890.8695626501053
 20
1034.812853616593
 30
0.0
 10
891.6194025180114
 20
1034.664194301881
 30
0.0
 10
891.8805509108464
 20
1034.612420392839
 30
0.0
 11
894.7327349620422
 21
1034.848687693269
 31
0.0
 11
893.0623942038614
 21
1034.864439441485
 31
0.0
 11
890.7459791121659
 21
1035.053452984401
 31
0.0
 11
889.3907988028418
 21
1035.28972028483
 31
0.0
 11
888.0198583455586
 21
1035.163710760508
 31
0.0
 11
886.4440672882047
 21
1034.313149073817
 31
0.0
 11
885.4828347432194
 21
1033.35232961102
 31
0.0
 11
885.010095188627
 21
1032.407260409303
 31
0.0
 11
884.6634211560095
 21
1031.383435440776
 31
0.0
 11
884.6161474242885
 21
1030.784891315594
 31
0.0
 11
884.8052423511713
 21
1030.280854705439
 31
0.0
 11
885.2937375789506
 21
1029.88707587139
 31
0.0
 11
885.861024596984
 21
1029.824071852797
 31
0.0
 11
886.4440672882047
 21
1030.013085395713
 31
0.0
 11
887.2004469957346
 21
1030.501370257652
 31
0.0
 11
888.3035029732681
 21
1031.446439459369
 31
0.0
 11
888.9653352173564
 21
1032.501766437192
 31
0.0
 11
889.2647355182534
 21
1033.35232961102
 31
0.0
 11
889.8320202989006
 21
1033.998126006578
 31
0.0
 11
891.1084132927435
 21
1034.691176159649
 31
0.0
 11
891.8805509108464
 21
1034.612420392839
 31
0.0
  0
SPLINE
  5
2B5
330
1F
100
AcDbEntity
  8
0
100
AcDbSpline
210
0.0
220
0.0
230
1.0
 70
     8
 71
     3
 72
    22
 73
    18
 74
    16
 42
0.0000000001
 43
0.0000000001
 44
0.0000000001
 40
0.0
 40
0.0
 40
0.0
 40
0.0
 40
2.383363273417544
 40
3.741744275779778
 40
5.555798033754678
 40
8.070177703494177
 40
10.38203289576546
 40
11.19365161419722
 40
12.72968661525006
 40
13.92302234031964
 40
15.06011011909371
 40
16.50492776537889
 40
18.97624296308578
 40
20.83667821625288
 40
21.96627095862725
 40
23.8757985099777
 40
25.1614632319778
 40
25.1614632319778
 40
25.1614632319778
 40
25.1614632319778
 10
894.7327349620422
 20
1034.848687693269
 30
0.0
 10
893.9306039901289
 20
1034.853126661638
 30
0.0
 10
892.6713041569653
 20
1034.860095588563
 30
0.0
 10
890.9115374914708
 20
1034.151590002116
 30
0.0
 10
889.5798225572109
 20
1032.743464019285
 30
0.0
 10
888.6324555274937
 20
1030.645681061439
 30
0.0
 10
886.8339112562411
 20
1029.82276964642
 30
0.0
 10
885.5287708675902
 20
1029.033034638
 30
0.0
 10
884.8551676753661
 20
1027.706239060431
 30
0.0
 10
885.8539696590652
 20
1026.694674146089
 30
0.0
 10
886.3960977731808
 20
1025.5611078231
 30
0.0
 10
887.7993600128634
 20
1024.549192805884
 30
0.0
 10
889.3051044305813
 20
1023.350017422655
 30
0.0
 10
891.0394056768351
 20
1022.726565505448
 30
0.0
 10
892.6040287686756
 20
1022.272779735268
 30
0.0
 10
894.0340738103527
 20
1022.004634396036
 30
0.0
 10
895.1004597062622
 20
1022.035321574617
 30
0.0
 10
895.5295464744809
 20
1022.047669320713
 30
0.0
 11
894.7327349620422
 21
1034.848687693269
 31
0.0
 11
892.356416093874
 21
1034.665578081661
 31
0.0
 11
891.1038937727434
 21
1034.139853074981
 31
0.0
 11
889.8133918219118
 21
1032.864942979436
 31
0.0
 11
888.3725621338195
 21
1030.804332649094
 31
0.0
 11
886.4218970289584
 21
1029.56353448714
 31
0.0
 11
885.7568988834842
 21
1029.098236291759
 31
0.0
 11
885.1777291076686
 21
1027.675574738458
 31
0.0
 11
885.7983956841948
 21
1026.656347995525
 31
0.0
 11
886.4190600233346
 21
1025.703591786016
 31
0.0
 11
887.5052259729086
 21
1024.750837063644
 31
0.0
 11
889.5445564530527
 21
1023.354939503229
 31
0.0
 11
891.2735525262405
 21
1022.668068401691
 31
0.0
 11
892.3597184758145
 21
1022.35786960477
 31
0.0
 11
894.2438817524807
 21
1022.047669320713
 31
0.0
 11
895.5295464744809
 21
1022.047669320713
 31
0.0
  0
CIRCLE
  5
2BE
330
1F
100
AcDbEntity
  8
0
100
AcDbCircle
 10
894.7830649632283
 20
1036.842173150192
 30
0.0
 40
0.6671948004945989
  0
SPLINE
  5
2C1
330
1F
100
AcDbEntity
  8
0
100
AcDbSpline
210
0.0
220
0.0
230
1.0
 70
     8
 71
     3
 72
    10
 73
     6
 74
     4
 42
0.0000000001
 43
0.0000000001
 44
0.0000000001
 40
0.0
 40
0.0
 40
0.0
 40
0.0
 40
0.4476835197059094
 40
1.126087115315309
 40
1.933657703619362
 40
1.933657703619362
 40
1.933657703619362
 40
1.933657703619362
 10
884.5326772596195
 20
1029.672712602256
 30
0.0
 10
884.6602025837498
 20
1029.590860928259
 30
0.0
 10
884.9809752234795
 20
1029.384974154681
 30
0.0
 10
885.6563831425138
 20
1029.390724964242
 30
0.0
 10
886.1373703421545
 20
1029.494230154819
 30
0.0
 10
886.398768635601
 20
1029.550481298716
 30
0.0
 11
884.5326772596195
 21
1029.672712602256
 31
0.0
 11
884.9267212315616
 21
1029.460227586332
 31
0.0
 11
885.6033358858672
 21
1029.410992963201
 31
0.0
 11
886.398768635601
 21
1029.550481298716
 31
0.0
  0
CIRCLE
  5
2C5
330
1F
100
AcDbEntity
  8
0
100
AcDbCircle
 10
894.775695013288
 20
1031.981228562101
 30
0.0
 40
0.9051323870922857
  0
SPLINE
  5
2C7
330
1F
100
AcDbEntity
  8
0
100
AcDbSpline
210
0.0
220
0.0
230
1.0
 70
     8
 71
     3
 72
    27
 73
    23
 74
    21
 42
0.0000000001
 43
0.0000000001
 44
0.0000000001
 40
0.0
 40
0.0
 40
0.0
 40
0.0
 40
1.670415028072956
 40
3.994528836912867
 40
5.370150844599566
 40
6.746870183330641
 40
8.537560731499866
 40
9.896656771383987
 40
10.95336793462118
 40
12.03429367262101
 40
12.63470176342261
 40
13.17304161495634
 40
13.80048831206141
 40
14.37126328277056
 40
14.98417836595227
 40
15.88447407757236
 40
17.33701952801681
 40
18.58270686817748
 40
19.48442647695183
 40
20.3439990491468
 40
21.79641000662523
 40
22.57255366091582
 40
22.57255366091582
 40
22.57255366091582
 40
22.57255366091582
 10
894.8299404402163
 20
1034.848687693269
 30
0.0
 10
895.3863009930904
 20
1034.850618315049
 30
0.0
 10
896.7167477592097
 20
1034.855235086479
 30
0.0
 10
898.5150489074243
 20
1034.938011563405
 30
0.0
 10
900.159457687587
 20
1035.366825783817
 30
0.0
 10
901.7154845471489
 20
1035.241704133987
 30
0.0
 10
903.0322700562368
 20
1034.440816889159
 30
0.0
 10
904.0939262268329
 20
1033.484558768762
 30
0.0
 10
904.5630138575546
 20
1032.399302810073
 30
0.0
 10
904.8926612529571
 20
1031.55183371982
 30
0.0
 10
904.996171760515
 20
1030.801979540802
 30
0.0
 10
904.7854130403656
 20
1030.226966596855
 30
0.0
 10
904.3084598332342
 20
1029.835385559346
 30
0.0
 10
903.6789660313955
 20
1029.782364297762
 30
0.0
 10
903.0155027567131
 20
1030.027818267148
 30
0.0
 10
902.2100623859758
 20
1030.605483374136
 30
0.0
 10
901.2556082888218
 20
1031.34247046129
 30
0.0
 10
900.5697769921585
 20
1032.363361702097
 30
0.0
 10
900.3842991172895
 20
1033.386127942272
 30
0.0
 10
899.602989927701
 20
1034.144130257815
 30
0.0
 10
898.6931127521538
 20
1034.812853616593
 30
0.0
 10
897.9432728842478
 20
1034.664194301881
 30
0.0
 10
897.6821244914122
 20
1034.612420392839
 30
0.0
 11
894.8299404402163
 21
1034.848687693269
 31
0.0
 11
896.5002811983973
 21
1034.864439441485
 31
0.0
 11
898.8166962900928
 21
1035.053452984401
 31
0.0
 11
900.1718765994169
 21
1035.28972028483
 31
0.0
 11
901.5428170567002
 21
1035.163710760508
 31
0.0
 11
903.1186081140541
 21
1034.313149073817
 31
0.0
 11
904.0798406590393
 21
1033.35232961102
 31
0.0
 11
904.5525802136317
 21
1032.407260409303
 31
0.0
 11
904.8992542462492
 21
1031.383435440776
 31
0.0
 11
904.9465279779701
 21
1030.784891315594
 31
0.0
 11
904.7574330510874
 21
1030.280854705439
 31
0.0
 11
904.2689378233081
 21
1029.88707587139
 31
0.0
 11
903.7016508052747
 21
1029.824071852797
 31
0.0
 11
903.1186081140541
 21
1030.013085395713
 31
0.0
 11
902.362228406524
 21
1030.501370257652
 31
0.0
 11
901.2591724289904
 21
1031.446439459369
 31
0.0
 11
900.5973401849024
 21
1032.501766437192
 31
0.0
 11
900.2979398840052
 21
1033.35232961102
 31
0.0
 11
899.7306551033579
 21
1033.998126006578
 31
0.0
 11
898.4542621095151
 21
1034.691176159649
 31
0.0
 11
897.6821244914122
 21
1034.612420392839
 31
0.0
  0
SPLINE
  5
2C8
330
1F
100
AcDbEntity
  8
0
100
AcDbSpline
210
0.0
220
0.0
230
1.0
 70
     8
 71
     3
 72
    22
 73
    18
 74
    16
 42
0.0000000001
 43
0.0000000001
 44
0.0000000001
 40
0.0
 40
0.0
 40
0.0
 40
0.0
 40
2.383363273417544
 40
3.741744275779778
 40
5.555798033754678
 40
8.070177703494177
 40
10.38203289576546
 40
11.19365161419722
 40
12.72968661525006
 40
13.92302234031964
 40
15.06011011909371
 40
16.50492776537889
 40
18.97624296308578
 40
20.83667821625288
 40
21.96627095862725
 40
23.8757985099777
 40
25.1614632319778
 40
25.1614632319778
 40
25.1614632319778
 40
25.1614632319778
 10
894.8299404402163
 20
1034.848687693269
 30
0.0
 10
895.6320714121298
 20
1034.853126661638
 30
0.0
 10
896.8913712452931
 20
1034.860095588563
 30
0.0
 10
898.6511379107879
 20
1034.151590002116
 30
0.0
 10
899.9828528450477
 20
1032.743464019285
 30
0.0
 10
900.9302198747647
 20
1030.645681061439
 30
0.0
 10
902.7287641460173
 20
1029.82276964642
 30
0.0
 10
904.0339045346689
 20
1029.033034638
 30
0.0
 10
904.7075077268925
 20
1027.706239060431
 30
0.0
 10
903.7087057431936
 20
1026.694674146089
 30
0.0
 10
903.1665776290777
 20
1025.5611078231
 30
0.0
 10
901.7633153893957
 20
1024.549192805884
 30
0.0
 10
900.2575709716772
 20
1023.350017422655
 30
0.0
 10
898.5232697254236
 20
1022.726565505448
 30
0.0
 10
896.958646633583
 20
1022.272779735268
 30
0.0
 10
895.5286015919059
 20
1022.004634396036
 30
0.0
 10
894.4622156959965
 20
1022.035321574617
 30
0.0
 10
894.0331289277779
 20
1022.047669320713
 30
0.0
 11
894.8299404402163
 21
1034.848687693269
 31
0.0
 11
897.2062593083846
 21
1034.665578081661
 31
0.0
 11
898.4587816295151
 21
1034.139853074981
 31
0.0
 11
899.7492835803468
 21
1032.864942979436
 31
0.0
 11
901.1901132684393
 21
1030.804332649094
 31
0.0
 11
903.1407783733001
 21
1029.56353448714
 31
0.0
 11
903.8057765187746
 21
1029.098236291759
 31
0.0
 11
904.38494629459
 21
1027.675574738458
 31
0.0
 11
903.7642797180637
 21
1026.656347995525
 31
0.0
 11
903.1436153789242
 21
1025.703591786016
 31
0.0
 11
902.05744942935
 21
1024.750837063644
 31
0.0
 11
900.0181189492058
 21
1023.354939503229
 31
0.0
 11
898.289122876018
 21
1022.668068401691
 31
0.0
 11
897.202956926444
 21
1022.35786960477
 31
0.0
 11
895.318793649778
 21
1022.047669320713
 31
0.0
 11
894.0331289277779
 21
1022.047669320713
 31
0.0
  0
SPLINE
  5
2C9
330
1F
100
AcDbEntity
  8
0
100
AcDbSpline
210
0.0
220
0.0
230
1.0
 70
     8
 71
     3
 72
    10
 73
     6
 74
     4
 42
0.0000000001
 43
0.0000000001
 44
0.0000000001
 40
0.0
 40
0.0
 40
0.0
 40
0.0
 40
0.4476835197059094
 40
1.126087115315309
 40
1.933657703619362
 40
1.933657703619362
 40
1.933657703619362
 40
1.933657703619362
 10
905.0299981426391
 20
1029.672712602256
 30
0.0
 10
904.902472818509
 20
1029.590860928259
 30
0.0
 10
904.5817001787794
 20
1029.384974154681
 30
0.0
 10
903.906292259745
 20
1029.390724964242
 30
0.0
 10
903.4253050601041
 20
1029.494230154819
 30
0.0
 10
903.1639067666578
 20
1029.550481298716
 30
0.0
 11
905.0299981426391
 21
1029.672712602256
 31
0.0
 11
904.6359541706969
 21
1029.460227586332
 31
0.0
 11
903.9593395163915
 21
1029.410992963201
 31
0.0
 11
903.1639067666578
 21
1029.550481298716
 31
0.0
  0
CIRCLE
  5
2CA
330
1F
100
AcDbEntity
  8
0
100
AcDbCircle
 10
894.7869803889707
 20
1031.981228562101
 30
0.0
 40
0.9051323870922857
  0
ENDSEC
  0
SECTION
  2
OBJECTS
  0
DICTIONARY
  5
C
330
0
100
AcDbDictionary
281
     1
  3
ACAD_COLOR
350
BE
  3
ACAD_GROUP
350
D
  3
ACAD_LAYOUT
350
1A
  3
ACAD_MATERIAL
350
BD
  3
ACAD_MLINESTYLE
350
17
  3
ACAD_PLOTSETTINGS
350
19
  3
ACAD_PLOTSTYLENAME
350
E
  3
ACAD_TABLESTYLE
350
11A
  3
AcDbVariableDictionary
350
94
  3
AcmDictionary
350
5B
  3
AMG
350
41
  3
AMGSNAPSETTINGS
350
288
  3
ASE_INDEX_DICTIONARY
350
349
  0
DICTIONARY
  5
8F
330
1F
100
AcDbDictionary
280
     1
281
     1
  0
DICTIONARY
  5
BE
102
{ACAD_REACTORS
330
C
102
}
330
C
100
AcDbDictionary
281
     1
  0
DICTIONARY
  5
D
102
{ACAD_REACTORS
330
C
102
}
330
C
100
AcDbDictionary
281
     1
  0
DICTIONARY
  5
1A
102
{ACAD_REACTORS
330
C
102
}
330
C
100
AcDbDictionary
281
     1
  3
Layout1
350
1E
  3
Layout2
350
26
  3
Model
350
22
  0
DICTIONARY
  5
BD
102
{ACAD_REACTORS
330
C
102
}
330
C
100
AcDbDictionary
281
     1
  0
DICTIONARY
  5
17
102
{ACAD_REACTORS
330
C
102
}
330
C
100
AcDbDictionary
281
     1
  3
Standard
350
18
  0
DICTIONARY
  5
19
102
{ACAD_REACTORS
330
C
102
}
330
C
100
AcDbDictionary
281
     1
  0
ACDBDICTIONARYWDFLT
  5
E
102
{ACAD_REACTORS
330
C
102
}
330
C
100
AcDbDictionary
281
     1
  3
Normal
350
F
100
AcDbDictionaryWithDefault
340
F
  0
DICTIONARY
  5
11A
102
{ACAD_REACTORS
330
C
102
}
330
C
100
AcDbDictionary
281
     1
  3
Standard
350
11B
  0
DICTIONARY
  5
94
102
{ACAD_REACTORS
330
C
102
}
330
C
100
AcDbDictionary
281
     1
  3
CTABLESTYLE
350
138
  3
DIMASSOC
350
96
  3
INDEXCTL
350
95
  0
DICTIONARY
  5
5B
102
{ACAD_REACTORS
330
C
102
}
330
C
100
AcDbDictionary
281
     1
  3
AcmStdDictionary
350
61
  3
AMDTSECTSYM_ARROWCOLOR
350
123
  0
DICTIONARY
  5
41
102
{ACAD_REACTORS
330
C
102
}
330
C
100
AcDbDictionary
281
     1
  0
DICTIONARY
  5
288
102
{ACAD_REACTORS
330
C
102
}
330
C
100
AcDbDictionary
281
     1
  0
DICTIONARY
  5
349
102
{ACAD_REACTORS
330
C
102
}
330
C
100
AcDbDictionary
281
     1
  3
ASEBlockHierarchyIndexRecord
350
34B
1001
DCO15
1040
1629175791.367
  0
LAYOUT
  5
1E
102
{ACAD_REACTORS
330
1A
102
}
330
1A
100
AcDbPlotSettings
  1

  2

  4

  6

 40
0.0
 41
0.0
 42
0.0
 43
0.0
 44
0.0
 45
0.0
 46
0.0
 47
0.0
 48
0.0
 49
0.0
140
0.0
141
0.0
142
1.0
143
1.0
 70
   688
 72
     0
 73
     0
 74
     5
  7

 75
    16
147
1.0
 76
     0
 77
     2
 78
   300
148
0.0
149
0.0
100
AcDbLayout
  1
Layout1
 70
     1
 71
     1
 10
0.0
 20
0.0
 11
420.0
 21
297.0
 12
0.0
 22
0.0
 32
0.0
 14
1.000000000000000E+20
 24
1.000000000000000E+20
 34
1.000000000000000E+20
 15
-1.000000000000000E+20
 25
-1.000000000000000E+20
 35
-1.000000000000000E+20
146
0.0
 13
0.0
 23
0.0
 33
0.0
 16
1.0
 26
0.0
 36
0.0
 17
0.0
 27
1.0
 37
0.0
 76
     0
330
1B
  0
LAYOUT
  5
26
102
{ACAD_REACTORS
330
1A
102
}
330
1A
100
AcDbPlotSettings
  1

  2

  4

  6

 40
0.0
 41
0.0
 42
0.0
 43
0.0
 44
0.0
 45
0.0
 46
0.0
 47
0.0
 48
0.0
 49
0.0
140
0.0
141
0.0
142
1.0
143
1.0
 70
   688
 72
     0
 73
     0
 74
     5
  7

 75
    16
147
1.0
 76
     0
 77
     2
 78
   300
148
0.0
149
0.0
100
AcDbLayout
  1
Layout2
 70
     1
 71
     2
 10
0.0
 20
0.0
 11
12.0
 21
9.0
 12
0.0
 22
0.0
 32
0.0
 14
0.0
 24
0.0
 34
0.0
 15
0.0
 25
0.0
 35
0.0
146
0.0
 13
0.0
 23
0.0
 33
0.0
 16
1.0
 26
0.0
 36
0.0
 17
0.0
 27
1.0
 37
0.0
 76
     0
330
23
  0
LAYOUT
  5
22
102
{ACAD_REACTORS
330
1A
102
}
330
1A
100
AcDbPlotSettings
  1

  2
PDF995
  4
A4
  6

 40
3.174999952316284
 41
3.174999952316284
 42
3.175003051757812
 43
3.17498779296875
 44
209.9733276367187
 45
297.0530090332031
 46
0.0
 47
0.0
 48
0.0
 49
0.0
140
0.0
141
0.0
142
1.0
143
7.488396254242295
 70
 11952
 72
     1
 73
     1
 74
     0
  7

 75
     0
147
0.1335399418044263
 76
     0
 77
     2
 78
   300
148
0.8166528897534135
149
0.6580867913439761
100
AcDbLayout
  1
Model
 70
     1
 71
     0
 10
0.0
 20
0.0
 11
12.0
 21
9.0
 12
0.0
 22
0.0
 32
0.0
 14
0.0
 24
0.0
 34
0.0
 15
0.0
 25
0.0
 35
0.0
146
0.0
 13
0.0
 23
0.0
 33
0.0
 16
1.0
 26
0.0
 36
0.0
 17
0.0
 27
1.0
 37
0.0
 76
     0
330
1F
1001
ACAD_PSEXT
1000
PDF995
1000
PDF995 Printer Driver
1000
PDF995PORT
1000

1070
     0
  0
MLINESTYLE
  5
18
102
{ACAD_REACTORS
330
17
102
}
330
17
100
AcDbMlineStyle
  2
STANDARD
 70
     0
  3

 62
   256
 51
90.0
 52
90.0
 71
     2
 49
0.5
 62
   256
  6
BYLAYER
 49
-0.5
 62
   256
  6
BYLAYER
  0
ACDBPLACEHOLDER
  5
F
102
{ACAD_REACTORS
330
E
102
}
330
E
  0
TABLESTYLE
  5
11B
102
{ACAD_REACTORS
330
11A
102
}
330
11A
100
AcDbTableStyle
  3
Standard
 70
     0
 71
     0
 40
1.5
 41
1.5
280
     0
281
     0
  7
STANDARD
140
4.5
170
     2
 62
     0
 63
     7
283
     0
274
    -2
284
     1
 64
     0
275
    -2
285
     1
 65
     0
276
    -2
286
     1
 66
     0
277
    -2
287
     1
 67
     0
278
    -2
288
     1
 68
     0
279
    -2
289
     1
 69
     0
  7
STANDARD
140
6.0
170
     5
 62
     0
 63
     7
283
     0
274
    -2
284
     1
 64
     0
275
    -2
285
     1
 65
     0
276
    -2
286
     1
 66
     0
277
    -2
287
     1
 67
     0
278
    -2
288
     1
 68
     0
279
    -2
289
     1
 69
     0
  7
STANDARD
140
4.5
170
     5
 62
     0
 63
     7
283
     0
274
    -2
284
     1
 64
     0
275
    -2
285
     1
 65
     0
276
    -2
286
     1
 66
     0
277
    -2
287
     1
 67
     0
278
    -2
288
     1
 68
     0
279
    -2
289
     1
 69
     0
  0
DICTIONARYVAR
  5
138
102
{ACAD_REACTORS
330
94
102
}
330
94
100
DictionaryVariables
280
     0
  1
STANDARD
  0
DICTIONARYVAR
  5
96
102
{ACAD_REACTORS
330
94
102
}
330
94
100
DictionaryVariables
280
     0
  1
2
  0
DICTIONARYVAR
  5
95
102
{ACAD_REACTORS
330
94
102
}
330
94
100
DictionaryVariables
280
     0
  1
1
  0
DICTIONARY
  5
61
102
{ACAD_REACTORS
330
5B
102
}
330
5B
100
AcDbDictionary
281
     1
  0
XRECORD
  5
123
102
{ACAD_REACTORS
330
5B
102
}
330
5B
100
AcDbXrecord
280
     1
 90
-1023410169
  0
XRECORD
  5
34B
102
{ACAD_REACTORS
330
349
102
}
330
349
100
AcDbXrecord
280
     1
  0
ENDSEC
  0
EOF
