  0
SECTION
  2
HEADER
  9
$ACADVER
  1
AC1009
  9
$INSBASE
 10
4168.9177642365930296
 20
99.9360133869547553
 30
0.0
  9
$EXTMIN
 10
4160.4071499988731375
 20
92.1065172381285748
 30
-0.0015258207003583
  9
$EXTMAX
 10
4177.297863996369415
 20
99.9449802730098469
 30
0.0000000349246037
  9
$LIMMIN
 10
0.0
 20
0.0
  9
$LIMMAX
 10
11.6929133858000007
 20
8.2677165353999982
  9
$ORTHOMODE
 70
     1
  9
$REGENMODE
 70
     1
  9
$FILLMODE
 70
     1
  9
$QTEXTMODE
 70
     0
  9
$MIRRTEXT
 70
     0
  9
$DRAGMODE
 70
     2
  9
$LTSCALE
 40
0.6431102362
  9
$OSMODE
 70
  4095
  9
$ATTMODE
 70
     1
  9
$TEXTSIZE
 40
0.2
  9
$TRACEWID
 40
0.05
  9
$TEXTSTYLE
  7
STANDARD
  9
$CLAYER
  8
0
  9
$CELTYPE
  6
BYLAYER
  9
$CECOLOR
 62
   256
  9
$DIMSCALE
 40
1.0
  9
$DIMASZ
 40
0.1875
  9
$DIMEXO
 40
0.0625
  9
$DIMDLI
 40
0.4443307087
  9
$DIMRND
 40
0.0
  9
$DIMDLE
 40
0.0
  9
$DIMEXE
 40
0.125
  9
$DIMTP
 40
0.01
  9
$DIMTM
 40
0.01
  9
$DIMTXT
 40
2.0
  9
$DIMCEN
 40
0.1052362205
  9
$DIMTSZ
 40
0.0
  9
$DIMTOL
 70
     1
  9
$DIMLIM
 70
     0
  9
$DIMTIH
 70
     1
  9
$DIMTOH
 70
     1
  9
$DIMSE1
 70
     0
  9
$DIMSE2
 70
     0
  9
$DIMTAD
 70
     0
  9
$DIMZIN
 70
     0
  9
$DIMBLK
  1

  9
$DIMASO
 70
     1
  9
$DIMSHO
 70
     1
  9
$DIMPOST
  1
\X
  9
$DIMAPOST
  1

  9
$DIMALT
 70
     1
  9
$DIMALTD
 70
     2
  9
$DIMALTF
 40
25.3999999999999986
  9
$DIMLFAC
 40
1.0
  9
$DIMTOFL
 70
     0
  9
$DIMTVP
 40
0.0
  9
$DIMTIX
 70
     0
  9
$DIMSOXD
 70
     0
  9
$DIMSAH
 70
     0
  9
$DIMBLK1
  1

  9
$DIMBLK2
  1

  9
$DIMSTYLE
  2
STANDARD
  9
$DIMCLRD
 70
     0
  9
$DIMCLRE
 70
     0
  9
$DIMCLRT
 70
     0
  9
$DIMTFAC
 40
1.0
  9
$DIMGAP
 40
0.09
  9
$LUNITS
 70
     2
  9
$LUPREC
 70
     4
  9
$SKETCHINC
 40
0.1
  9
$FILLETRAD
 40
0.0
  9
$AUNITS
 70
     0
  9
$AUPREC
 70
     0
  9
$MENU
  1
.
  9
$ELEVATION
 40
0.0
  9
$PELEVATION
 40
0.0
  9
$THICKNESS
 40
0.0
  9
$LIMCHECK
 70
     0
  9
$BLIPMODE
 70
     0
  9
$CHAMFERA
 40
0.0
  9
$CHAMFERB
 40
0.0
  9
$SKPOLY
 70
     0
  9
$TDCREATE
 40
2458060.468368056230247
  9
$TDUPDATE
 40
2459355.772326388861984
  9
$TDINDWG
 40
0.3190232639
  9
$TDUSRTIMER
 40
0.3190232639
  9
$USRTIMER
 70
     1
  9
$ANGBASE
 50
0.0
  9
$ANGDIR
 70
     0
  9
$PDMODE
 70
     0
  9
$PDSIZE
 40
0.3125
  9
$PLINEWID
 40
0.0
  9
$COORDS
 70
     1
  9
$SPLFRAME
 70
     0
  9
$SPLINETYPE
 70
     6
  9
$SPLINESEGS
 70
     8
  9
$ATTDIA
 70
     1
  9
$ATTREQ
 70
     1
  9
$HANDLING
 70
     1
  9
$HANDSEED
  5
A345
  9
$SURFTAB1
 70
     6
  9
$SURFTAB2
 70
     6
  9
$SURFTYPE
 70
     6
  9
$SURFU
 70
     6
  9
$SURFV
 70
     6
  9
$UCSNAME
  2

  9
$UCSORG
 10
0.0
 20
0.0
 30
0.0
  9
$UCSXDIR
 10
1.0
 20
0.0
 30
0.0
  9
$UCSYDIR
 10
0.0
 20
1.0
 30
0.0
  9
$PUCSNAME
  2

  9
$PUCSORG
 10
0.0
 20
0.0
 30
0.0
  9
$PUCSXDIR
 10
1.0
 20
0.0
 30
0.0
  9
$PUCSYDIR
 10
0.0
 20
1.0
 30
0.0
  9
$USERI1
 70
     0
  9
$USERI2
 70
     0
  9
$USERI3
 70
     0
  9
$USERI4
 70
     0
  9
$USERI5
 70
     0
  9
$USERR1
 40
0.0
  9
$USERR2
 40
0.0
  9
$USERR3
 40
0.0
  9
$USERR4
 40
0.0
  9
$USERR5
 40
0.0
  9
$WORLDVIEW
 70
     1
  9
$SHADEDGE
 70
     3
  9
$SHADEDIF
 70
    70
  9
$TILEMODE
 70
     1
  9
$MAXACTVP
 70
    64
  9
$PLIMCHECK
 70
     0
  9
$PEXTMIN
 10
1.0000000000000000E+20
 20
1.0000000000000000E+20
 30
1.0000000000000000E+20
  9
$PEXTMAX
 10
-1.0000000000000000E+20
 20
-1.0000000000000000E+20
 30
-1.0000000000000000E+20
  9
$PLIMMIN
 10
0.0
 20
0.0
  9
$PLIMMAX
 10
12.0
 20
9.0
  9
$UNITMODE
 70
     0
  9
$VISRETAIN
 70
     1
  9
$PLINEGEN
 70
     0
  9
$PSLTSCALE
 70
     1
  0
ENDSEC
  0
SECTION
  2
TABLES
  0
TABLE
  2
VPORT
 70
     1
  0
VPORT
  2
*ACTIVE
 70
     0
 10
0.0
 20
0.0
 11
1.0
 21
1.0
 12
-96.1538406586287238
 22
-8.2782635430147877
 13
0.0
 23
0.0
 14
1.0
 24
1.0
 15
0.0
 25
0.0
 16
0.0
 26
0.0
 36
122.0237731519760018
 17
4265.00634765625
 27
104.3040122985839986
 37
0.0
 40
7.903692963049493
 41
2.6486111111111108
 42
50.0
 43
0.0
 44
0.0
 50
0.0
 51
0.0
 71
     0
 72
   100
 73
     1
 74
     1
 75
     0
 76
     0
 77
     0
 78
     0
  0
ENDTAB
  0
TABLE
  2
LTYPE
 70
     2
  0
LTYPE
  2
CONTINUOUS
 70
     0
  3
Solid line
 72
    65
 73
     0
 40
0.0
  0
LTYPE
  2
PHANTOM2
 70
     0
  3
___ _ _ ___ _ _ ___ _ _ ___ _ _
 72
    65
 73
     6
 40
1.25
 49
0.625
 49
-0.125
 49
0.125
 49
-0.125
 49
0.125
 49
-0.125
  0
ENDTAB
  0
TABLE
  2
LAYER
 70
     2
  0
LAYER
  2
0
 70
     0
 62
   255
  6
CONTINUOUS
  0
LAYER
  2
DEFPOINTS
 70
     0
 62
     7
  6
CONTINUOUS
  0
ENDTAB
  0
TABLE
  2
STYLE
 70
     1
  0
STYLE
  2
STANDARD
 70
     0
 40
0.0
 41
0.8
 50
0.0
 71
     0
 42
0.2
  3
txt
  4

  0
ENDTAB
  0
TABLE
  2
VIEW
 70
     0
  0
ENDTAB
  0
TABLE
  2
UCS
 70
     0
  0
ENDTAB
  0
TABLE
  2
APPID
 70
    10
  0
APPID
  2
ACAD
 70
     0
  0
APPID
  2
ACAD_MLEADERVER
 70
     0
  0
APPID
  2
ACAD_EXEMPT_FROM_CAD_STANDARDS
 70
     0
  0
APPID
  2
ACAD_NAV_VCDISPLAY
 70
     0
  0
APPID
  2
ACAECLAYERSTANDARD
 70
     0
  0
APPID
  2
ACCMTRANSPARENCY
 70
     0
  0
APPID
  2
ACAD_DSTYLE_DIMJAG
 70
     0
  0
APPID
  2
ACAD_DSTYLE_DIMTALN
 70
     0
  0
APPID
  2
ACDBATTR
 70
     0
  0
APPID
  2
DCO15
 70
     0
  0
ENDTAB
  0
TABLE
  2
DIMSTYLE
 70
     1
  0
DIMSTYLE
  2
STANDARD
 70
     0
  3

  4

  5

  6

  7

 40
1.0
 41
0.1875
 42
0.0625
 43
0.38
 44
0.125
 45
0.0
 46
0.0
 47
0.01
 48
0.01
140
0.15625
141
0.09
142
0.0
143
25.3999999999999986
144
1.0
145
0.0
146
1.0
147
0.09
 71
     1
 72
     0
 73
     1
 74
     1
 75
     0
 76
     0
 77
     0
 78
     4
170
     0
171
     2
172
     0
173
     0
174
     0
175
     0
176
     0
177
     0
178
     0
  0
ENDTAB
  0
ENDSEC
  0
SECTION
  2
BLOCKS
  0
BLOCK
  8
0
  2
$MODEL_SPACE
 70
     0
 10
0.0
 20
0.0
 30
0.0
  3
$MODEL_SPACE
  1

  0
ENDBLK
  5
21
  8
0
  0
BLOCK
 67
     1
  8
0
  2
$PAPER_SPACE
 70
     0
 10
0.0
 20
0.0
 30
0.0
  3
$PAPER_SPACE
  1

  0
ENDBLK
  5
1D
 67
     1
  8
0
  0
BLOCK
  8
0
  2
_FILLED
 70
     0
 10
0.0
 20
0.0
 30
0.0
  3
_FILLED
  1

  0
SOLID
  5
9A0D
  8
0
  6
BYBLOCK
 62
     0
 10
0.0
 20
0.0
 30
0.0
 11
-1.0
 21
0.1666666667
 31
0.0
 12
-1.0
 22
-0.1666666667
 32
0.0
 13
-1.0
 23
-0.1666666667
 33
0.0
  0
ENDBLK
  5
9A0E
  8
0
  6
BYBLOCK
 62
     0
  0
ENDSEC
  0
SECTION
  2
ENTITIES
  0
ATTDEF
  5
9879
  8
DEFPOINTS
 10
4168.9190529606339624
 20
99.9409300546523411
 30
0.0
 40
0.001
  1
K-21783T
  3

  2
MODELNUMBER
 70
     0
1001
ACDBATTR
1070
     0
1070
     1
  0
ATTDEF
  5
987A
  8
DEFPOINTS
 10
4168.9190529606339624
 20
99.939263387985676
 30
0.0
 40
0.001
  1
HARKEN
  3

  2
TRADENAME
 70
     0
1001
ACDBATTR
1070
     0
1070
     1
  0
ATTDEF
  5
987B
  8
DEFPOINTS
 10
4168.9190529606339624
 20
99.9375967213190108
 30
0.0
 40
0.001
  1
BATHROOM SINK 
  3

  2
PRODUCT
 70
     0
1001
ACDBATTR
1070
     0
1070
     1
  0
LINE
  5
A10F
  8
0
 10
4160.6653863526425994
 20
99.9360133869547553
 30
0.0
 11
4177.1703771471620712
 21
99.9360133869547553
 31
0.0
  0
LINE
  5
A110
  8
0
 10
4160.6653863526425994
 20
99.3454631334898579
 30
0.0
 11
4177.1703771257616609
 21
99.3454631334898579
 31
0.0
  0
LINE
  5
A111
  8
0
 10
4160.6653863526425994
 20
99.9360132820700073
 30
0.0
 11
4160.6653863526425994
 21
99.3454631334898579
 31
0.0
  0
LINE
  5
A112
  8
0
 10
4177.1703732136620602
 20
99.9360151464699982
 30
0.0
 11
4177.1703732136620602
 21
99.3454631334898579
 31
0.0
  0
ARC
  5
A113
  8
0
 10
4174.3887238627139595
 20
93.1002937244542466
 30
0.0
 40
6.4569285840092396
 50
176.0445332907167142
 51
178.0233410783031047
  0
ARC
  5
A114
  8
0
 10
4167.4249656512010915
 20
93.1446163672238185
 30
0.0
 40
0.5409337954429593
 50
4.6341369677141948
 51
19.2557524333855703
  0
ARC
  5
A115
  8
0
 10
4167.3977429078431669
 20
93.1698730107755324
 30
0.0
 40
0.5666885048319904
 50
317.1959332056429162
 51
1.865428293471131
  0
ARC
  5
A116
  8
0
 10
4167.1115877610709504
 20
93.3014193793178634
 30
0.0
 40
0.8715392716364677
 50
283.9133366083469241
 51
323.6473911660675071
  0
LINE
  5
A117
  8
0
 10
4170.1802973321427999
 20
92.109227999669983
 30
0.0
 11
4167.6552273708421126
 21
92.109227999669983
 31
0.0
  0
ARC
  5
A118
  8
0
 10
4167.6552273708421126
 20
92.2273382358943365
 30
0.0
 40
0.1181102362243518
 50
191.9489999866264043
 51
270.0
  0
ARC
  5
A119
  8
0
 10
4167.2947718604409602
 20
92.2211053311509374
 30
0.0
 40
0.2358254913323445
 50
11.9489998953849703
 51
83.5770724516330148
  0
LINE
  5
A11A
  8
0
 10
4167.3211528541432926
 20
92.4554506010699981
 30
0.0
 11
4162.90589105493018
 21
92.7471814515969442
 31
0.0
  0
ARC
  5
A11B
  8
0
 10
4162.97070487154906
 20
93.7290763932801951
 30
0.0
 40
0.9840317613409769
 50
186.0819797461176108
 51
266.2234466205044896
  0
LINE
  5
A11C
  8
0
 10
4161.992211913682695
 20
93.6248169153573144
 30
0.0
 11
4161.4052015440056493
 21
99.134009214858736
 31
0.0
  0
ARC
  5
A11D
  8
0
 10
4161.1700104693518369
 20
99.1089493729275688
 30
0.0
 40
0.2365223821855678
 50
6.081974871698395
 51
89.5107877218065653
  0
ARC
  5
A11E
  8
0
 10
4176.2374240377048409
 20
99.0789477593359749
 30
0.0
 40
0.2675560653035742
 50
95.0551265369210654
 51
124.8378228770764053
  0
ARC
  5
A11F
  8
0
 10
4176.7332648875308223
 20
98.1741964304125645
 30
0.0
 40
1.2980609926333679
 50
119.9823274521001935
 51
139.5266096602508128
  0
ARC
  5
A120
  8
0
 10
4177.0155823631030216
 20
97.9063429598922141
 30
0.0
 40
1.6868089799524231
 50
138.8300206822424911
 51
149.6589276461492091
  0
ARC
  5
A121
  8
0
 10
4174.7830577976392306
 20
99.2518081599111213
 30
0.0
 40
0.920199230752209
 50
308.7360610922086721
 51
327.5769679453738945
  0
ARC
  5
A122
  8
0
 10
4175.7060179966274518
 20
98.2006988826892524
 30
0.0
 40
0.4812719502536928
 50
136.1651899332310904
 51
174.1396510654124938
  0
LINE
  5
A123
  8
0
 10
4175.2272613104432821
 20
98.249838739569995
 30
0.0
 11
4174.8267500626516266
 21
94.479503494151345
 31
0.0
  0
ARC
  5
A124
  8
0
 10
4174.1938741755448063
 20
94.5445851157866599
 30
0.0
 40
0.6362134122722956
 50
300.1992605863670747
 51
354.1286423810315114
  0
ARC
  5
A125
  8
0
 10
4174.2001473684476878
 20
94.5338063712550678
 30
0.0
 40
0.623742073816632
 50
271.3341611525232793
 51
300.1992605863670747
  0
ARC
  5
A126
  8
0
 10
4174.5134497463186563
 20
81.0814139091806965
 30
0.0
 40
12.8322982551083307
 50
91.3341611525233645
 51
94.5893862241735093
  0
LINE
  5
A127
  8
0
 10
4173.4866827136102074
 20
93.8725681951940487
 30
0.0
 11
4170.6983907587064095
 21
93.5456997191528643
 31
0.0
  0
ARC
  5
A128
  8
0
 10
4170.774181079525988
 20
93.3219028873159431
 30
0.0
 40
0.2362820235864041
 50
108.7090204178482935
 51
168.040265352634492
  0
LINE
  5
A129
  8
0
 10
4170.5430279183428866
 20
93.3708662485699961
 30
0.0
 11
4170.2956333357196854
 21
92.2029309114489877
 31
0.0
  0
ARC
  5
A12A
  8
0
 10
4170.1800025300517518
 20
92.2274240704550863
 30
0.0
 40
0.1181964384290183
 50
270.1429056009263832
 51
348.0402690010756146
  0
LINE
  5
A12B
  8
0
 10
4170.6983907587064095
 20
93.5456997191528643
 30
0.0
 11
4167.9467641589617415
 21
93.5456997191528643
 31
0.0
  0
ARC
  5
A12C
  8
0
 10
4169.0747842474302161
 20
120.1422311980322064
 30
0.0
 40
26.6204416948142892
 50
262.4286973809083179
 51
267.5714096627058893
  0
ARC
  5
A12D
  8
0
 10
4162.7760760871969978
 20
71.3047966319171707
 30
0.0
 40
22.62193517036388
 50
82.9125149699690382
 51
87.9066419421837679
  0
ARC
  5
A12E
  8
0
 10
4163.6366991701406732
 20
94.5414246987369182
 30
0.0
 40
0.6307229003936474
 50
185.6239241112444063
 51
266.8833152663557939
  0
LINE
  5
A12F
  8
0
 10
4163.0090122121428067
 20
94.4796148302699947
 30
0.0
 11
4162.6106948862197896
 21
98.2504002041732605
 31
0.0
  0
ARC
  5
A130
  8
0
 10
4162.1407267026579575
 20
98.1975794446943837
 30
0.0
 40
0.4729271891025172
 50
6.4126875346874082
 51
49.4980840114411933
  0
ARC
  5
A131
  8
0
 10
4162.9948655519501699
 20
99.1975798295346323
 30
0.0
 40
0.842197878543396
 50
210.1948079993669012
 51
229.4980840114407101
  0
ARC
  5
A132
  8
0
 10
4160.9827226403858731
 20
98.0267287765882998
 30
0.0
 40
1.4858079815739851
 50
30.1948079993669403
 51
59.8661024654403491
  0
ARC
  5
A133
  8
0
 10
4161.5917201903303067
 20
99.0758736202336365
 30
0.0
 40
0.27271980720843
 50
59.8661024654403491
 51
81.3106331568906739
  0
LINE
  5
A134
  8
0
 10
4162.6107541930086882
 20
98.2498387594200153
 30
0.0
 11
4175.2272613125505814
 21
98.2498387594200153
 31
0.0
  0
ARC
  5
A136
  8
0
 10
4166.7575561716539596
 20
92.0723918082379384
 30
0.0
 40
0.7929314480340263
 50
9.4722590893902936
 51
14.4257407926258008
  0
ENDSEC
  0
EOF
