  0
SECTION
  2
HEADER
  9
$ACADVER
  1
AC1009
  9
$INSBASE
 10
0.0
 20
0.0
 30
0.0
  9
$EXTMIN
 10
-0.0498379399493697
 20
-8.2243299838793735
 30
0.0
  9
$EXTMAX
 10
8.2752124322794991
 20
8.1647940243000008
 30
0.0
  9
$LIMMIN
 10
0.0
 20
0.0
  9
$LIMMAX
 10
34.0
 20
22.0
  9
$ORTHOMODE
 70
     1
  9
$REGENMODE
 70
     1
  9
$FILLMODE
 70
     1
  9
$QTEXTMODE
 70
     0
  9
$MIRRTEXT
 70
     0
  9
$DRAGMODE
 70
     2
  9
$LTSCALE
 40
1.8700000000000001
  9
$OSMODE
 70
    37
  9
$ATTMODE
 70
     1
  9
$TEXTSIZE
 40
0.2
  9
$TRACEWID
 40
0.05
  9
$TEXTSTYLE
  7
STANDARD
  9
$CLAYER
  8
0
  9
$CELTYPE
  6
BYLAYER
  9
$CECOLOR
 62
   256
  9
$DIMSCALE
 40
1.0
  9
$DIMASZ
 40
0.1875
  9
$DIMEXO
 40
0.2125
  9
$DIMDLI
 40
1.291999999999998
  9
$DIMRND
 40
0.0
  9
$DIMDLE
 40
0.0
  9
$DIMEXE
 40
0.612
  9
$DIMTP
 40
0.01
  9
$DIMTM
 40
0.01
  9
$DIMTXT
 40
0.15625
  9
$DIMCEN
 40
0.306
  9
$DIMTSZ
 40
0.0
  9
$DIMTOL
 70
     1
  9
$DIMLIM
 70
     0
  9
$DIMTIH
 70
     1
  9
$DIMTOH
 70
     1
  9
$DIMSE1
 70
     0
  9
$DIMSE2
 70
     0
  9
$DIMTAD
 70
     0
  9
$DIMZIN
 70
     0
  9
$DIMBLK
  1

  9
$DIMASO
 70
     1
  9
$DIMSHO
 70
     1
  9
$DIMPOST
  1

  9
$DIMAPOST
  1

  9
$DIMALT
 70
     0
  9
$DIMALTD
 70
     2
  9
$DIMALTF
 40
25.399999999999999
  9
$DIMLFAC
 40
1.0
  9
$DIMTOFL
 70
     0
  9
$DIMTVP
 40
0.0
  9
$DIMTIX
 70
     0
  9
$DIMSOXD
 70
     0
  9
$DIMSAH
 70
     0
  9
$DIMBLK1
  1

  9
$DIMBLK2
  1

  9
$DIMSTYLE
  2
STANDARD
  9
$DIMCLRD
 70
     0
  9
$DIMCLRE
 70
     0
  9
$DIMCLRT
 70
     0
  9
$DIMTFAC
 40
1.0
  9
$DIMGAP
 40
0.09
  9
$LUNITS
 70
     2
  9
$LUPREC
 70
     4
  9
$SKETCHINC
 40
0.1
  9
$FILLETRAD
 40
0.0
  9
$AUNITS
 70
     0
  9
$AUPREC
 70
     0
  9
$MENU
  1
.
  9
$ELEVATION
 40
0.0
  9
$PELEVATION
 40
0.0
  9
$THICKNESS
 40
0.0
  9
$LIMCHECK
 70
     0
  9
$BLIPMODE
 70
     0
  9
$CHAMFERA
 40
0.0
  9
$CHAMFERB
 40
0.0
  9
$SKPOLY
 70
     0
  9
$TDCREATE
 40
2454006.5265757991
  9
$TDUPDATE
 40
2454006.677589329
  9
$TDINDWG
 40
0.0628982755
  9
$TDUSRTIMER
 40
0.0628980903
  9
$USRTIMER
 70
     1
  9
$ANGBASE
 50
0.0
  9
$ANGDIR
 70
     0
  9
$PDMODE
 70
     3
  9
$PDSIZE
 40
0.3125
  9
$PLINEWID
 40
0.0
  9
$COORDS
 70
     1
  9
$SPLFRAME
 70
     0
  9
$SPLINETYPE
 70
     6
  9
$SPLINESEGS
 70
     8
  9
$ATTDIA
 70
     0
  9
$ATTREQ
 70
     1
  9
$HANDLING
 70
     1
  9
$HANDSEED
  5
B2D9
  9
$SURFTAB1
 70
     6
  9
$SURFTAB2
 70
     6
  9
$SURFTYPE
 70
     6
  9
$SURFU
 70
     6
  9
$SURFV
 70
     6
  9
$UCSNAME
  2

  9
$UCSORG
 10
0.0
 20
0.0
 30
0.0
  9
$UCSXDIR
 10
1.0
 20
0.0
 30
0.0
  9
$UCSYDIR
 10
0.0
 20
1.0
 30
0.0
  9
$PUCSNAME
  2

  9
$PUCSORG
 10
0.0
 20
0.0
 30
0.0
  9
$PUCSXDIR
 10
1.0
 20
0.0
 30
0.0
  9
$PUCSYDIR
 10
0.0
 20
1.0
 30
0.0
  9
$USERI1
 70
     0
  9
$USERI2
 70
     0
  9
$USERI3
 70
     0
  9
$USERI4
 70
     0
  9
$USERI5
 70
     0
  9
$USERR1
 40
0.0
  9
$USERR2
 40
0.0
  9
$USERR3
 40
0.0
  9
$USERR4
 40
0.0
  9
$USERR5
 40
0.0
  9
$WORLDVIEW
 70
     1
  9
$SHADEDGE
 70
     3
  9
$SHADEDIF
 70
    70
  9
$TILEMODE
 70
     1
  9
$MAXACTVP
 70
    64
  9
$PLIMCHECK
 70
     0
  9
$PEXTMIN
 10
1.0000000000000000E+020
 20
1.0000000000000000E+020
 30
1.0000000000000000E+020
  9
$PEXTMAX
 10
-1.0000000000000000E+020
 20
-1.0000000000000000E+020
 30
-1.0000000000000000E+020
  9
$PLIMMIN
 10
0.0
 20
0.0
  9
$PLIMMAX
 10
12.0
 20
9.0
  9
$UNITMODE
 70
     0
  9
$VISRETAIN
 70
     1
  9
$PLINEGEN
 70
     0
  9
$PSLTSCALE
 70
     1
  0
ENDSEC
  0
SECTION
  2
TABLES
  0
TABLE
  2
VPORT
 70
     2
  0
VPORT
  2
*ACTIVE
 70
     0
 10
0.0
 20
0.0
 11
1.0
 21
1.0
 12
5.5699361004237424
 22
-0.2512471385505286
 13
0.0
 23
0.0
 14
1.0
 24
1.0
 15
0.0
 25
0.0
 16
0.0
 26
0.0
 36
1.0
 17
0.0
 27
0.0
 37
0.0
 40
18.570991735434031
 41
1.6928471248246839
 42
50.0
 43
0.0
 44
0.0
 50
0.0
 51
0.0
 71
     0
 72
   100
 73
     1
 74
     1
 75
     0
 76
     0
 77
     0
 78
     0
  0
ENDTAB
  0
TABLE
  2
LTYPE
 70
     1
  0
LTYPE
  2
CONTINUOUS
 70
     0
  3
Solid line
 72
    65
 73
     0
 40
0.0
  0
ENDTAB
  0
TABLE
  2
LAYER
 70
     1
  0
LAYER
  2
0
 70
     0
 62
     7
  6
CONTINUOUS
  0
ENDTAB
  0
TABLE
  2
STYLE
 70
     1
  0
STYLE
  2
STANDARD
 70
     0
 40
0.0
 41
0.8
 50
0.0
 71
     0
 42
0.2
  3
txt
  4

  0
ENDTAB
  0
TABLE
  2
VIEW
 70
     0
  0
ENDTAB
  0
TABLE
  2
UCS
 70
     0
  0
ENDTAB
  0
TABLE
  2
APPID
 70
     1
  0
APPID
  2
ACAD
 70
     0
  0
ENDTAB
  0
TABLE
  2
DIMSTYLE
 70
     1
  0
DIMSTYLE
  2
STANDARD
 70
     0
  3

  4

  5

  6

  7

 40
1.0
 41
0.1875
 42
0.0625
 43
0.38
 44
0.18
 45
0.0
 46
0.0
 47
0.01
 48
0.01
140
0.15625
141
0.09
142
0.0
143
25.399999999999999
144
1.0
145
0.0
146
1.0
147
0.09
 71
     1
 72
     0
 73
     1
 74
     1
 75
     0
 76
     0
 77
     0
 78
     4
170
     0
171
     2
172
     0
173
     0
174
     0
175
     0
176
     0
177
     0
178
     0
  0
ENDTAB
  0
ENDSEC
  0
SECTION
  2
BLOCKS
  0
BLOCK
  8
0
  2
$MODEL_SPACE
 70
     0
 10
0.0
 20
0.0
 30
0.0
  3
$MODEL_SPACE
  1

  0
ENDBLK
  5
B1FC
  8
0
  0
BLOCK
 67
     1
  8
0
  2
$PAPER_SPACE
 70
     0
 10
0.0
 20
0.0
 30
0.0
  3
$PAPER_SPACE
  1

  0
ENDBLK
  5
B1F8
 67
     1
  8
0
  0
ENDSEC
  0
SECTION
  2
ENTITIES
  0
LINE
  5
33C2
  8
0
 10
0.0681034248000003
 20
8.1151505596999911
 30
0.0
 11
0.0573725736999968
 21
8.1050115542999972
 31
0.0
  0
LINE
  5
33C3
  8
0
 10
0.0790836919999976
 20
8.1241152939999921
 30
0.0
 11
0.0676220727000008
 21
8.1147269026000028
 31
0.0
  0
LINE
  5
33C4
  8
0
 10
0.0906711098999971
 20
8.1322796066999992
 30
0.0
 11
0.0785312185999949
 21
8.1236944492000021
 31
0.0
  0
LINE
  5
33C5
  8
0
 10
0.1028076923999954
 20
8.1396026815000013
 30
0.0
 11
0.0900456717000111
 21
8.1318696415000034
 31
0.0
  0
LINE
  5
33C6
  8
0
 10
0.0393404592000088
 20
8.0839221832999968
 30
0.0
 11
0.0310761438999983
 21
8.0718801264999911
 31
0.0
  0
LINE
  5
33C7
  8
0
 10
0.0481816500000001
 20
8.0950033732000009
 30
0.0
 11
0.0390539680999993
 21
8.0835347980999899
 31
0.0
  0
LINE
  5
33C8
  8
0
 10
0.0577854188999965
 20
8.1054302996999965
 30
0.0
 11
0.0478339867999971
 21
8.0945968751999864
 31
0.0
  0
LINE
  5
33C9
  8
0
 10
0.031306133799994
 20
8.0722421098000012
 30
0.0
 11
0.0241192824999992
 21
8.0600220477000022
 31
0.0
  0
POLYLINE
  5
33CA
  8
0
 66
     1
 10
0.0
 20
0.0
 30
0.0
  0
VERTEX
  5
B20A
  8
0
 10
0.0239405942999973
 20
8.0596912346999972
 30
0.0
  0
VERTEX
  5
B20B
  8
0
 10
0.0176834510999946
 20
8.0470299738000008
 30
0.0
  0
VERTEX
  5
B20C
  8
0
 10
0.0123357204999977
 20
8.0339595053000021
 30
0.0
  0
VERTEX
  5
B20D
  8
0
 10
0.0079239167999958
 20
8.0205451257000036
 30
0.0
  0
VERTEX
  5
B20E
  8
0
 10
0.0044701423999953
 20
8.0068551273999944
 30
0.0
  0
VERTEX
  5
B20F
  8
0
 10
0.0019912028999975
 20
7.9929583135999902
 30
0.0
  0
VERTEX
  5
B210
  8
0
 10
0.000501738399997
 20
7.9789508182999977
 30
0.0
  0
SEQEND
  5
B211
  8
0
  0
POLYLINE
  5
33D3
  8
0
 66
     1
 10
0.0
 20
0.0
 30
0.0
  0
VERTEX
  5
B212
  8
0
 10
1.7734887309999949
 20
-7.6386420651999982
 30
0.0
  0
VERTEX
  5
B213
  8
0
 10
1.7745903646999961
 20
-7.638416806599996
 30
0.0
  0
VERTEX
  5
B214
  8
0
 10
1.784505027099998
 20
-7.6358955194000009
 30
0.0
  0
VERTEX
  5
B215
  8
0
 10
1.794168895299995
 20
-7.6325389256999978
 30
0.0
  0
VERTEX
  5
B216
  8
0
 10
1.803511735299995
 20
-7.6283714248999983
 30
0.0
  0
VERTEX
  5
B217
  8
0
 10
1.812465646499994
 20
-7.6234233095999988
 30
0.0
  0
VERTEX
  5
B218
  8
0
 10
1.820965555999996
 20
-7.6177305455000006
 30
0.0
  0
VERTEX
  5
B219
  8
0
 10
1.8289496906999949
 20
-7.6113345098999972
 30
0.0
  0
VERTEX
  5
B21A
  8
0
 10
1.836360026099995
 20
-7.6042816915000007
 30
0.0
  0
VERTEX
  5
B21B
  8
0
 10
1.8431427083
 20
-7.5966233524999982
 30
0.0
  0
VERTEX
  5
B21C
  8
0
 10
1.849248446899999
 20
-7.5884151536000033
 30
0.0
  0
VERTEX
  5
B21D
  8
0
 10
1.854632872799995
 20
-7.5797167490999957
 30
0.0
  0
VERTEX
  5
B21E
  8
0
 10
1.8592568586999949
 20
-7.570591353800002
 30
0.0
  0
VERTEX
  5
B21F
  8
0
 10
1.8630867996999949
 20
-7.5611052933999989
 30
0.0
  0
VERTEX
  5
B220
  8
0
 10
1.866094862199996
 20
-7.5513275201000027
 30
0.0
  0
VERTEX
  5
B221
  8
0
 10
1.8682591900999981
 20
-7.5413291001000031
 30
0.0
  0
VERTEX
  5
B222
  8
0
 10
1.869564061399998
 20
-7.531182695500001
 30
0.0
  0
VERTEX
  5
B223
  8
0
 10
1.869999999099998
 20
-7.5209635705000011
 30
0.0
  0
SEQEND
  5
B224
  8
0
  0
LINE
  5
3420
  8
0
 10
0.000501738399997
 20
7.9789508182999977
 30
0.0
 11
-0.0000000004
 21
7.9648207948999898
 31
0.0
  0
LINE
  5
3439
  8
0
 10
-0.0000000004
 20
7.9648207938999951
 30
0.0
 11
0.0000000004
 21
-7.9648207938999978
 31
0.0
  0
POLYLINE
  5
34FF
  8
0
 66
     1
 10
0.0
 20
0.0
 30
0.0
  0
VERTEX
  5
B225
  8
0
 10
1.869999999099998
 20
7.5209714782000008
 30
0.0
  0
VERTEX
  5
B226
  8
0
 10
1.8695642058999931
 20
7.5311889657999904
 30
0.0
  0
VERTEX
  5
B227
  8
0
 10
1.8682595363999961
 20
7.5413350502999901
 30
0.0
  0
VERTEX
  5
B228
  8
0
 10
1.866095447499996
 20
7.551333243099986
 30
0.0
  0
VERTEX
  5
B229
  8
0
 10
1.8630876377999961
 20
7.5611108932999951
 30
0.0
  0
VERTEX
  5
B22A
  8
0
 10
1.8592579449999991
 20
7.5705969230999903
 30
0.0
  0
VERTEX
  5
B22B
  8
0
 10
1.8546341983999941
 20
7.5797223490999954
 30
0.0
  0
VERTEX
  5
B22C
  8
0
 10
1.8492499985999871
 20
7.5884208311999961
 30
0.0
  0
VERTEX
  5
B22D
  8
0
 10
1.8431444565999959
 20
7.5966291609000001
 30
0.0
  0
VERTEX
  5
B22E
  8
0
 10
1.8363619252999961
 20
7.6042876836999991
 30
0.0
  0
VERTEX
  5
B22F
  8
0
 10
1.8289516819999949
 20
7.6113407309000021
 30
0.0
  0
VERTEX
  5
B230
  8
0
 10
1.820967574499998
 20
7.6177370257000012
 30
0.0
  0
VERTEX
  5
B231
  8
0
 10
1.8124676217000071
 20
7.6234300659000027
 30
0.0
  0
VERTEX
  5
B232
  8
0
 10
1.803513592899999
 20
7.6283784600000004
 30
0.0
  0
VERTEX
  5
B233
  8
0
 10
1.7941705584999981
 20
7.6325462278999989
 30
0.0
  0
VERTEX
  5
B234
  8
0
 10
1.7845064191999991
 20
7.6359030619999881
 30
0.0
  0
VERTEX
  5
B235
  8
0
 10
1.774591411599999
 20
7.6384245478999988
 30
0.0
  0
VERTEX
  5
B236
  8
0
 10
1.7734887367999961
 20
7.638650024599988
 30
0.0
  0
SEQEND
  5
B237
  8
0
  0
LINE
  5
3525
  8
0
 10
1.7734887309999949
 20
-7.6386420659000001
 30
0.0
 11
1.7734887378999991
 21
7.638650031600001
 31
0.0
  0
LINE
  5
3526
  8
0
 10
1.869999999099998
 20
-7.5209633291999989
 30
0.0
 11
1.869999999099998
 21
7.5209712605999988
 31
0.0
  0
LINE
  5
3545
  8
0
 10
8.1368944669999976
 20
-1.9434489651000031
 30
0.0
 11
8.1130185740999963
 21
-1.945537834999999
 31
0.0
  0
LINE
  5
39E3
  8
0
 10
8.1368944669999976
 20
0.7665169158999987
 30
0.0
 11
6.8624835362999956
 21
0.8780134249999989
 31
0.0
  0
POLYLINE
  5
39F3
  8
0
 66
     1
 10
0.0
 20
0.0
 30
0.0
  0
VERTEX
  5
B238
  8
0
 10
6.8624835367999992
 20
0.8780133672999992
 30
0.0
  0
VERTEX
  5
B239
  8
0
 10
6.8469206615999951
 20
0.8798681044999979
 30
0.0
  0
VERTEX
  5
B23A
  8
0
 10
6.8297140662999851
 20
0.8830879013999959
 30
0.0
  0
VERTEX
  5
B23B
  8
0
 10
6.8127749788999932
 20
0.8875038866000011
 30
0.0
  0
VERTEX
  5
B23C
  8
0
 10
6.7961864500000004
 20
0.8930944063999959
 30
0.0
  0
VERTEX
  5
B23D
  8
0
 10
6.7800298114999853
 20
0.8998320486999984
 30
0.0
  0
VERTEX
  5
B23E
  8
0
 10
6.764384276999996
 20
0.9076837769000007
 30
0.0
  0
VERTEX
  5
B23F
  8
0
 10
6.7493265542999961
 20
0.9166110926
 30
0.0
  0
VERTEX
  5
B240
  8
0
 10
6.7349304691
 20
0.9265702235000006
 30
0.0
  0
VERTEX
  5
B241
  8
0
 10
6.7212666018999982
 20
0.9375123395999978
 30
0.0
  0
VERTEX
  5
B242
  8
0
 10
6.708401944400002
 20
0.9493837903000111
 30
0.0
  0
VERTEX
  5
B243
  8
0
 10
6.696399570899997
 20
0.9621263671999996
 30
0.0
  0
VERTEX
  5
B244
  8
0
 10
6.6853183229999971
 20
0.9756775959999972
 30
0.0
  0
VERTEX
  5
B245
  8
0
 10
6.6752125309999979
 20
0.989971031899998
 30
0.0
  0
VERTEX
  5
B246
  8
0
 10
6.6661317469999926
 20
1.0049365816999991
 30
0.0
  0
VERTEX
  5
B247
  8
0
 10
6.6581204985999962
 20
1.0205008443999961
 30
0.0
  0
VERTEX
  5
B248
  8
0
 10
6.6512180440999984
 20
1.0365875294000011
 30
0.0
  0
VERTEX
  5
B249
  8
0
 10
6.6454582001999949
 20
1.0531178264999981
 30
0.0
  0
VERTEX
  5
B24A
  8
0
 10
6.6415393950000006
 20
1.0672234554999971
 30
0.0
  0
SEQEND
  5
B24B
  8
0
  0
POLYLINE
  5
428A
  8
0
 66
     1
 10
0.0
 20
0.0
 30
0.0
  0
VERTEX
  5
B24C
  8
0
 10
1.869999999100006
 20
3.6756925326000012
 30
0.0
  0
VERTEX
  5
B24D
  8
0
 10
1.971455264399999
 20
3.6652261619000002
 30
0.0
  0
VERTEX
  5
B24E
  8
0
 10
2.2668163753999959
 20
3.6162550053999989
 30
0.0
  0
VERTEX
  5
B24F
  8
0
 10
2.5481433127999962
 20
3.5640749035999999
 30
0.0
  0
VERTEX
  5
B250
  8
0
 10
2.816774159200008
 20
3.5087999534000001
 30
0.0
  0
VERTEX
  5
B251
  8
0
 10
3.0731605524999992
 20
3.450668857499998
 30
0.0
  0
VERTEX
  5
B252
  8
0
 10
3.3174784865999971
 20
3.3899942868999982
 30
0.0
  0
VERTEX
  5
B253
  8
0
 10
3.5505559718999979
 20
3.326880556099999
 30
0.0
  0
VERTEX
  5
B254
  8
0
 10
3.7727706383999959
 20
3.2614782671999958
 30
0.0
  0
VERTEX
  5
B255
  8
0
 10
3.9842735087999932
 20
3.1940277835999979
 30
0.0
  0
VERTEX
  5
B256
  8
0
 10
4.1855057544000083
 20
3.1247026961
 30
0.0
  0
VERTEX
  5
B257
  8
0
 10
4.3767164747999967
 20
3.0536745821000002
 30
0.0
  0
VERTEX
  5
B258
  8
0
 10
4.558080950199999
 20
2.981070447199996
 30
0.0
  0
VERTEX
  5
B259
  8
0
 10
4.7299164832999967
 20
2.9070044361999958
 30
0.0
  0
VERTEX
  5
B25A
  8
0
 10
4.892453837699998
 20
2.8316695851999949
 30
0.0
  0
VERTEX
  5
B25B
  8
0
 10
5.0459072704999954
 20
2.7552984403000078
 30
0.0
  0
VERTEX
  5
B25C
  8
0
 10
5.1905548971999984
 20
2.6780051418999999
 30
0.0
  0
VERTEX
  5
B25D
  8
0
 10
5.3265935879999926
 20
2.5999349961000031
 30
0.0
  0
VERTEX
  5
B25E
  8
0
 10
5.454246897599992
 20
2.5212658178999998
 30
0.0
  0
VERTEX
  5
B25F
  8
0
 10
5.5737843551999964
 20
2.442103793099994
 30
0.0
  0
VERTEX
  5
B260
  8
0
 10
5.6853611694999984
 20
2.3626849587000001
 30
0.0
  0
VERTEX
  5
B261
  8
0
 10
5.7892004603999947
 20
2.2832439288999979
 30
0.0
  0
VERTEX
  5
B262
  8
0
 10
5.8856265742000087
 20
2.2038077241999958
 30
0.0
  0
VERTEX
  5
B263
  8
0
 10
5.9746776880999999
 20
2.1246954790000032
 30
0.0
  0
VERTEX
  5
B264
  8
0
 10
6.0566929346
 20
2.0460949078000041
 30
0.0
  0
VERTEX
  5
B265
  8
0
 10
6.1323440574999992
 20
1.9678197471000001
 30
0.0
  0
VERTEX
  5
B266
  8
0
 10
6.2016227550000078
 20
1.890255991399995
 30
0.0
  0
VERTEX
  5
B267
  8
0
 10
6.264694407199995
 20
1.8136927191999981
 30
0.0
  0
VERTEX
  5
B268
  8
0
 10
6.3224037071000083
 20
1.7375667421000001
 30
0.0
  0
VERTEX
  5
B269
  8
0
 10
6.3748670823999927
 20
1.662243227600001
 30
0.0
  0
VERTEX
  5
B26A
  8
0
 10
6.4222655108999964
 20
1.5878710153000091
 30
0.0
  0
VERTEX
  5
B26B
  8
0
 10
6.4654373370999991
 20
1.5133698893
 30
0.0
  0
VERTEX
  5
B26C
  8
0
 10
6.5044978820999972
 20
1.4387169586999971
 30
0.0
  0
VERTEX
  5
B26D
  8
0
 10
6.5393412725999971
 20
1.3644499936000041
 30
0.0
  0
VERTEX
  5
B26E
  8
0
 10
6.5703879562999941
 20
1.2900896995000011
 30
0.0
  0
VERTEX
  5
B26F
  8
0
 10
6.5978066615999964
 20
1.215584853999998
 30
0.0
  0
VERTEX
  5
B270
  8
0
 10
6.6215123581999853
 20
1.1412776653999961
 30
0.0
  0
VERTEX
  5
B271
  8
0
 10
6.6415395187000001
 20
1.0672230369999971
 30
0.0
  0
SEQEND
  5
B272
  8
0
  0
LINE
  5
42C2
  8
0
 10
8.2509999990999976
 20
0.6419925786999983
 30
0.0
 11
8.2509999990999976
 21
-1.8189246278
 31
0.0
  0
POLYLINE
  5
42EE
  8
0
 66
     1
 10
0.0
 20
0.0
 30
0.0
  0
VERTEX
  5
B273
  8
0
 10
7.998996466099995
 20
-2.0654983905999971
 30
0.0
  0
VERTEX
  5
B274
  8
0
 10
7.9996892137999964
 20
-2.0561545459000001
 30
0.0
  0
VERTEX
  5
B275
  8
0
 10
8.0010967261999966
 20
-2.046799824799999
 30
0.0
  0
VERTEX
  5
B276
  8
0
 10
8.0032076696999965
 20
-2.0375783284000022
 30
0.0
  0
VERTEX
  5
B277
  8
0
 10
8.0060099556999944
 20
-2.0285428740000011
 30
0.0
  0
VERTEX
  5
B278
  8
0
 10
8.0094875362999929
 20
-2.0197452123999962
 30
0.0
  0
VERTEX
  5
B279
  8
0
 10
8.0136204961999962
 20
-2.0112357320999998
 30
0.0
  0
VERTEX
  5
B27A
  8
0
 10
8.0183851656000016
 20
-2.0030631722999992
 30
0.0
  0
VERTEX
  5
B27B
  8
0
 10
8.0237542568999984
 20
-1.9952743431
 30
0.0
  0
VERTEX
  5
B27C
  8
0
 10
8.0296970208000005
 20
-1.9879138559
 30
0.0
  0
VERTEX
  5
B27D
  8
0
 10
8.0361794222000142
 20
-1.9810238694999991
 30
0.0
  0
VERTEX
  5
B27E
  8
0
 10
8.0431643342000001
 20
-1.974643849199998
 30
0.0
  0
VERTEX
  5
B27F
  8
0
 10
8.0506117508999964
 20
-1.9688103396000001
 30
0.0
  0
VERTEX
  5
B280
  8
0
 10
8.0584790175999998
 20
-1.9635567546999959
 30
0.0
  0
VERTEX
  5
B281
  8
0
 10
8.0667210750999985
 20
-1.958913186999989
 30
0.0
  0
VERTEX
  5
B282
  8
0
 10
8.0752907170999961
 20
-1.954906234999999
 30
0.0
  0
VERTEX
  5
B283
  8
0
 10
8.0841388606999942
 20
-1.9515588512999991
 30
0.0
  0
VERTEX
  5
B284
  8
0
 10
8.0932148277000024
 20
-1.948890210700003
 30
0.0
  0
VERTEX
  5
B285
  8
0
 10
8.1024666344000096
 20
-1.946915600700001
 30
0.0
  0
VERTEX
  5
B286
  8
0
 10
8.1118412900000081
 20
-1.9456463334000009
 30
0.0
  0
VERTEX
  5
B287
  8
0
 10
8.1130185634999972
 20
-1.945537721999997
 30
0.0
  0
SEQEND
  5
B288
  8
0
  0
POLYLINE
  5
45DB
  8
0
 66
     1
 10
0.0
 20
0.0
 30
0.0
  0
VERTEX
  5
B289
  8
0
 10
2.2053246778999971
 20
-7.1510215936999888
 30
0.0
  0
VERTEX
  5
B28A
  8
0
 10
2.5590436499999991
 20
-7.0113402944999983
 30
0.0
  0
VERTEX
  5
B28B
  8
0
 10
2.897893816399995
 20
-6.8718615534000014
 30
0.0
  0
VERTEX
  5
B28C
  8
0
 10
3.2220564747999969
 20
-6.7327113587999987
 30
0.0
  0
VERTEX
  5
B28D
  8
0
 10
3.5314196990999971
 20
-6.5941602929999998
 30
0.0
  0
VERTEX
  5
B28E
  8
0
 10
3.8265000186999991
 20
-6.4562189423000014
 30
0.0
  0
VERTEX
  5
B28F
  8
0
 10
4.108383768699996
 20
-6.3185971401000032
 30
0.0
  0
VERTEX
  5
B290
  8
0
 10
4.3773171708999961
 20
-6.181384634499997
 30
0.0
  0
VERTEX
  5
B291
  8
0
 10
4.6334138488999983
 20
-6.0447417429000012
 30
0.0
  0
VERTEX
  5
B292
  8
0
 10
4.8775072519999956
 20
-5.9084466347999989
 30
0.0
  0
VERTEX
  5
B293
  8
0
 10
5.1098327662999932
 20
-5.7725704691999997
 30
0.0
  0
VERTEX
  5
B294
  8
0
 10
5.3304982904000084
 20
-5.6372806441999987
 30
0.0
  0
VERTEX
  5
B295
  8
0
 10
5.5400748511999964
 20
-5.5024502147999987
 30
0.0
  0
VERTEX
  5
B296
  8
0
 10
5.7387815350000082
 20
-5.3681692913999957
 30
0.0
  0
VERTEX
  5
B297
  8
0
 10
5.9267519922999981
 20
-5.2345928892
 30
0.0
  0
VERTEX
  5
B298
  8
0
 10
6.1044064001999967
 20
-5.1016756483999988
 30
0.0
  0
VERTEX
  5
B299
  8
0
 10
6.2719442271999952
 20
-4.9695429968999987
 30
0.0
  0
VERTEX
  5
B29A
  8
0
 10
6.4295428546000011
 20
-4.8383313890000004
 30
0.0
  0
VERTEX
  5
B29B
  8
0
 10
6.5776010732999932
 20
-4.708020165999999
 30
0.0
  0
VERTEX
  5
B29C
  8
0
 10
6.7163601455999986
 20
-4.5787101413999984
 30
0.0
  0
VERTEX
  5
B29D
  8
0
 10
6.8459810771000003
 20
-4.450580047699999
 30
0.0
  0
VERTEX
  5
B29E
  8
0
 10
6.9667533374000001
 20
-4.3237337928000006
 30
0.0
  0
VERTEX
  5
B29F
  8
0
 10
7.078861842899995
 20
-4.1983794852000003
 30
0.0
  0
VERTEX
  5
B2A0
  8
0
 10
7.1825878234999987
 20
-4.0746329531000001
 30
0.0
  0
VERTEX
  5
B2A1
  8
0
 10
7.2783658981999908
 20
-3.9524601561000008
 30
0.0
  0
VERTEX
  5
B2A2
  8
0
 10
7.3663445464000059
 20
-3.8321812682999998
 30
0.0
  0
VERTEX
  5
B2A3
  8
0
 10
7.4468830839999924
 20
-3.713828995100001
 30
0.0
  0
VERTEX
  5
B2A4
  8
0
 10
7.5206809256999971
 20
-3.5969023326999991
 30
0.0
  0
VERTEX
  5
B2A5
  8
0
 10
7.587927663999996
 20
-3.4816439369999959
 30
0.0
  0
VERTEX
  5
B2A6
  8
0
 10
7.6488941017000061
 20
-3.368131092199997
 30
0.0
  0
VERTEX
  5
B2A7
  8
0
 10
7.7042749678999982
 20
-3.2555268277999989
 30
0.0
  0
VERTEX
  5
B2A8
  8
0
 10
7.7542522362999957
 20
-3.1438873155999989
 30
0.0
  0
VERTEX
  5
B2A9
  8
0
 10
7.7989818361999976
 20
-3.033391201100001
 30
0.0
  0
VERTEX
  5
B2AA
  8
0
 10
7.8389426740999939
 20
-2.923262393099999
 30
0.0
  0
VERTEX
  5
B2AB
  8
0
 10
7.8742668489999934
 20
-2.8133509202
 30
0.0
  0
VERTEX
  5
B2AC
  8
0
 10
7.904976984499994
 20
-2.7039142742999962
 30
0.0
  0
VERTEX
  5
B2AD
  8
0
 10
7.9312671421999976
 20
-2.5947037303999991
 30
0.0
  0
VERTEX
  5
B2AE
  8
0
 10
7.9532496033999971
 20
-2.4857514281999991
 30
0.0
  0
VERTEX
  5
B2AF
  8
0
 10
7.9709827641000057
 20
-2.3771438357000032
 30
0.0
  0
VERTEX
  5
B2B0
  8
0
 10
7.984547126700007
 20
-2.2686909737000001
 30
0.0
  0
VERTEX
  5
B2B1
  8
0
 10
7.9940100807999954
 20
-2.1603576986999991
 30
0.0
  0
VERTEX
  5
B2B2
  8
0
 10
7.998996466099995
 20
-2.0654983905999971
 30
0.0
  0
SEQEND
  5
B2B3
  8
0
  0
LINE
  5
4607
  8
0
 10
2.0766566692999961
 20
-7.2004395341999992
 30
0.0
 11
2.2053246778999971
 21
-7.1510215936999888
 31
0.0
  0
LINE
  5
4608
  8
0
 10
1.980875849299998
 20
-7.2367676434000003
 30
0.0
 11
2.0766566692999961
 21
-7.2004395341999992
 31
0.0
  0
POLYLINE
  5
4609
  8
0
 66
     1
 10
0.0
 20
0.0
 30
0.0
  0
VERTEX
  5
B2B4
  8
0
 10
0.2804756120999983
 20
8.1479013595999987
 30
0.0
  0
VERTEX
  5
B2B5
  8
0
 10
0.2673047289999957
 20
8.1531416446999998
 30
0.0
  0
VERTEX
  5
B2B6
  8
0
 10
0.2537956583999943
 20
8.1574358893999896
 30
0.0
  0
VERTEX
  5
B2B7
  8
0
 10
0.2400162753999986
 20
8.1607624980999987
 30
0.0
  0
VERTEX
  5
B2B8
  8
0
 10
0.2260358561999993
 20
8.1631047358999975
 30
0.0
  0
VERTEX
  5
B2B9
  8
0
 10
0.2119246301999986
 20
8.1644508332000001
 30
0.0
  0
VERTEX
  5
B2BA
  8
0
 10
0.1977534842999979
 20
8.1647940243000008
 30
0.0
  0
VERTEX
  5
B2BB
  8
0
 10
0.1835936673999967
 20
8.1641325865999974
 30
0.0
  0
VERTEX
  5
B2BC
  8
0
 10
0.1695163119999989
 20
8.1624698522999921
 30
0.0
  0
VERTEX
  5
B2BD
  8
0
 10
0.1555921314999971
 20
8.1598141834000035
 30
0.0
  0
VERTEX
  5
B2BE
  8
0
 10
0.1418911237999971
 20
8.1561789454000007
 30
0.0
  0
VERTEX
  5
B2BF
  8
0
 10
0.1284821581999971
 20
8.1515824390000038
 30
0.0
  0
VERTEX
  5
B2C0
  8
0
 10
0.1154325313999962
 20
8.1460477613000037
 30
0.0
  0
VERTEX
  5
B2C1
  8
0
 10
0.1021082898999985
 20
8.1392119548999986
 30
0.0
  0
SEQEND
  5
B2C2
  8
0
  0
LINE
  5
4619
  8
0
 10
0.2886427440999988
 20
8.1440898360999991
 30
0.0
 11
0.2791063833000074
 21
8.1484970878999974
 31
0.0
  0
POLYLINE
  5
461A
  8
0
 66
     1
 10
0.0
 20
0.0
 30
0.0
  0
VERTEX
  5
B2C3
  8
0
 10
0.2791063833000074
 20
8.1484970878999974
 30
0.0
  0
VERTEX
  5
B2C4
  8
0
 10
0.2659470167000002
 20
8.1536213415999992
 30
0.0
  0
VERTEX
  5
B2C5
  8
0
 10
0.2524587459999985
 20
8.1578042580000005
 30
0.0
  0
VERTEX
  5
B2C6
  8
0
 10
0.238708836699999
 20
8.1610249535999984
 30
0.0
  0
VERTEX
  5
B2C7
  8
0
 10
0.2247659113999987
 20
8.1632673420999922
 30
0.0
  0
VERTEX
  5
B2C8
  8
0
 10
0.2106994863999994
 20
8.1645202390999998
 30
0.0
  0
VERTEX
  5
B2C9
  8
0
 10
0.1965796944000111
 20
8.1647773934000014
 30
0.0
  0
VERTEX
  5
B2CA
  8
0
 10
0.1824770074999975
 20
8.1640375248000012
 30
0.0
  0
VERTEX
  5
B2CB
  8
0
 10
0.1684617404999962
 20
8.1623043334999963
 30
0.0
  0
VERTEX
  5
B2CC
  8
0
 10
0.1546037672999994
 20
8.1595864715999937
 30
0.0
  0
VERTEX
  5
B2CD
  8
0
 10
0.1409722424999984
 20
8.1558975204999911
 30
0.0
  0
VERTEX
  5
B2CE
  8
0
 10
0.1276351805999987
 20
8.1512559190999951
 30
0.0
  0
VERTEX
  5
B2CF
  8
0
 10
0.1146590044
 20
8.1456848179999923
 30
0.0
  0
SEQEND
  5
B2D0
  8
0
  0
ARC
  5
463C
  8
0
 10
2.024999999099995
 20
-7.3537208794
 30
0.0
 40
0.125
 50
110.6704704352
 51
172.9879254809
  0
ARC
  5
463D
  8
0
 10
1.7179655629251931
 20
-7.1573895526420568
 30
0.0
 40
0.257419277844642
 50
306.2003176721272
 51
315.2986986269143
  0
ARC
  5
463E
  8
0
 10
8.1259999990999976
 20
-1.8189246278
 30
0.0
 40
0.125
 50
275.00000000019998
 51
0.0
  0
ARC
  5
463F
  8
0
 10
8.1259999990999976
 20
0.6419925786999983
 30
0.0
 40
0.125
 50
0.0
 51
84.999999999899998
  0
ARC
  5
4640
  8
0
 10
0.1999999990999974
 20
-7.9647987103000011
 30
0.0
 40
0.2
 50
180.00632648390001
 51
296.3091099106
  0
ARC
  5
4641
  8
0
 10
2.947925092399998
 20
-13.5225777345
 30
0.0
 40
6.0
 50
101.2879201799
 51
116.3091099106
  0
ARC
  5
4643
  8
0
 10
2.947925092399998
 20
13.522585665999999
 30
0.0
 40
6.0
 50
243.6908900894
 51
258.71207982009997
  0
ATTDEF
  5
A552
  8
0
 10
0.0558168558591596
 20
-0.0962647994282193
 30
0.0
 40
0.032
  1
VITREOUS CHINA
  3

  2
MATERIAL
 70
     8
  0
ATTDEF
  5
A553
  8
0
 10
0.0558168558591596
 20
0.0637352005718199
 30
0.0
 40
0.032
  1
K-2075
  3

  2
MODEL#
 70
     8
  0
ATTDEF
  5
A554
  8
0
 10
0.0558168558591596
 20
-0.0429314660950979
 30
0.0
 40
0.032
  1
SELF RIMMING LAVATORY
  3

  2
PRODUCT
 70
     8
  0
ATTDEF
  5
A555
  8
0
 10
0.0558168558591596
 20
0.0104018672383504
 30
0.0
 40
0.032
  1
SERIF
  3

  2
TRADENAME
 70
     8
  0
ENDSEC
  0
EOF
