999
DXF file: 20613-plan.dxf
999
Pro/ENGINEER 2016130 by Parametric Technology Corporation
  0
SECTION
  2
HEADER
  9
$ACADVER
  1
AC1027
  9
$DWGCODEPAGE
  3
ANSI_1252
  9
$EXTMAX
 10
558.8
 20
431.8
 30
0.0
  9
$EXTMIN
 10
0.0
 20
0.0
 30
0.0
  9
$LIMMIN
 10
0.0
 20
0.0
  9
$LIMMAX
 10
558.8
 20
431.8
  9
$VIEWCTR
 10
279.4
 20
215.9
  9
$VIEWSIZE
 40
431.8
  9
$CLAYER
  8
0
  9
$LTSCALE
 40
30.734
  9
$CELTYPE
  6
BYLAYER
  9
$DIMSCALE
 40
1.0
  9
$DIMASZ
 40
4.7625
  9
$DIMEXO
 40
1.5875
  9
$DIMDLI
 40
21.2344
  9
$DIMEXE
 40
3.175
  9
$DIMCEN
 40
5.0292
  9
$DIMLFAC
 40
1.0
  9
$DIMBLK
  1
_FILLED
  9
$DIMALT
 70
0
  9
$DIMALTF
 40
0.0393700787
  9
$DIMTXT
 40
3.96875
  9
$DIMTOL
 70
1
  9
$DIMLIM
 70
0
  9
$DIMTFAC
 40
1.0
  9
$DIMTP
 40
0.01
  9
$DIMTM
 40
0.01
  9
$DIMGAP
 40
0.625
  9
$DIMDSEP
 70
46
  9
$AUNITS
 70
0
  9
$PDMODE
 70
3
  9
$PDSIZE
 40
7.9375
  9
$HANDSEED
  5
350
  9
$TILEMODE
 70
1
  9
$MEASUREMENT
 70
1
  9
$INSUNITS
 70
4
  0
ENDSEC
  0
SECTION
  2
CLASSES
  0
CLASS
  1
ACDBDICTIONARYWDFLT
  2
AcDbDictionaryWithDefault
  3
AutoCAD 2000
 90
0
 91
1
280
0
281
0
  0
CLASS
  1
ACDBPLACEHOLDER
  2
AcDbPlaceHolder
  3
AutoCAD 2000
 90
0
 91
1
280
0
281
0
  0
CLASS
  1
LAYOUT
  2
AcDbLayout
  3
AutoCAD 2000
 90
0
 91
0
280
0
281
0
  0
ENDSEC
  0
SECTION
  2
TABLES
  0
TABLE
  2
VPORT
  5
8
100
AcDbSymbolTable
 70
2
  0
VPORT
  5
1F4
100
AcDbSymbolTableRecord
100
AcDbViewportTableRecord
  2
*ACTIVE
 70
0
 10
0.0
 20
0.0
 11
1.0
 21
1.0
 12
279.4
 22
215.9
 13
0.0
 23
0.0
 14
1.0
 24
1.0
 15
0.0
 25
0.0
 16
0.0
 26
0.0
 36
1.0
 17
0.0
 27
0.0
 37
0.0
 40
431.8
 41
1.2941176471
 42
50.0
 43
0.0
 44
0.0
 50
0.0
 51
0.0
 71
0
 72
100
 73
1
 74
1
 75
0
 76
0
 77
0
 78
0
  0
ENDTAB
  0
TABLE
  2
LTYPE
  5
5
100
AcDbSymbolTable
 70
6
  0
LTYPE
  5
14
100
AcDbSymbolTableRecord
100
AcDbLinetypeTableRecord
  2
BYBLOCK
 70
0
  3

 72
65
 73
0
 40
0.0
  0
LTYPE
  5
15
100
AcDbSymbolTableRecord
100
AcDbLinetypeTableRecord
  2
BYLAYER
 70
0
  3

 72
65
 73
0
 40
0.0
  0
LTYPE
  5
16
100
AcDbSymbolTableRecord
100
AcDbLinetypeTableRecord
  2
CONTINUOUS
 70
64
  3
Solid line
 72
65
 73
0
 40
0.0
  0
LTYPE
  5
1F5
100
AcDbSymbolTableRecord
100
AcDbLinetypeTableRecord
  2
CENTER
 70
64
  3
____ _ ____ _ ____ _ ____ _ ____ _ ____ _ ____
 72
65
 73
4
 40
0.6
 49
0.375
 74
0
 49
-0.075
 74
0
 49
0.075
 74
0
 49
-0.075
 74
0
  0
LTYPE
  5
1F6
100
AcDbSymbolTableRecord
100
AcDbLinetypeTableRecord
  2
HIDDEN
 70
64
  3
- - - - - - - - - - - - - - - - - - - -
 72
65
 73
2
 40
0.2
 49
0.1
 74
0
 49
-0.1
 74
0
  0
LTYPE
  5
1F7
100
AcDbSymbolTableRecord
100
AcDbLinetypeTableRecord
  2
PHANTOM
 70
64
  3
_____ _ _ _____ _ _ _____ _ _ _____
 72
65
 73
6
 40
0.8
 49
0.45
 74
0
 49
-0.05
 74
0
 49
0.1
 74
0
 49
-0.05
 74
0
 49
0.1
 74
0
 49
-0.05
 74
0
  0
LTYPE
  5
1F8
100
AcDbSymbolTableRecord
100
AcDbLinetypeTableRecord
  2
DOT
 70
64
  3
. . . . . . . . . . . . . . . . . . . .
 72
65
 73
2
 40
0.2
 49
0.1
 74
0
 49
-0.1
 74
0
  0
LTYPE
  5
1F9
100
AcDbSymbolTableRecord
100
AcDbLinetypeTableRecord
  2
DASHED
 70
64
  3
- - - - - - - - - - - - - - - - - - - -
 72
65
 73
2
 40
0.2
 49
0.1
 74
0
 49
-0.1
 74
0
  0
ENDTAB
  0
TABLE
  2
LAYER
  5
2
100
AcDbSymbolTable
 70
36
  0
LAYER
  5
10
100
AcDbSymbolTableRecord
100
AcDbLayerTableRecord
  2
0
 70
0
 62
7
  6
CONTINUOUS
370
-3
390
F
  0
LAYER
  5
1FA
100
AcDbSymbolTableRecord
100
AcDbLayerTableRecord
  2
DEFAULT_1
 70
0
 62
7
  6
CENTER
370
-3
390
F
  0
LAYER
  5
1FB
100
AcDbSymbolTableRecord
100
AcDbLayerTableRecord
  2
DEFAULT_2
 70
0
 62
8
  6
HIDDEN
370
-3
390
F
  0
LAYER
  5
1FC
100
AcDbSymbolTableRecord
100
AcDbLayerTableRecord
  2
DEFAULT_3
 70
0
 62
7
  6
PHANTOM
370
-3
390
F
  0
LAYER
  5
1FD
100
AcDbSymbolTableRecord
100
AcDbLayerTableRecord
  2
DATUM_AXIS
 70
0
 62
7
  6
CONTINUOUS
370
-3
390
F
  0
LAYER
  5
1FE
100
AcDbSymbolTableRecord
100
AcDbLayerTableRecord
  2
DATUM_CSYS
 70
0
 62
7
  6
CONTINUOUS
370
-3
390
F
  0
LAYER
  5
1FF
100
AcDbSymbolTableRecord
100
AcDbLayerTableRecord
  2
DATUM_PLANE
 70
0
 62
7
  6
CONTINUOUS
370
-3
390
F
  0
LAYER
  5
200
100
AcDbSymbolTableRecord
100
AcDbLayerTableRecord
  2
DATUM_POINT
 70
0
 62
7
  6
CONTINUOUS
370
-3
390
F
  0
LAYER
  5
201
100
AcDbSymbolTableRecord
100
AcDbLayerTableRecord
  2
DEFAULT
 70
0
 62
7
  6
CONTINUOUS
370
-3
390
F
  0
LAYER
  5
202
100
AcDbSymbolTableRecord
100
AcDbLayerTableRecord
  2
_CURVE
 70
0
 62
7
  6
CONTINUOUS
370
-3
390
F
  0
LAYER
  5
203
100
AcDbSymbolTableRecord
100
AcDbLayerTableRecord
  2
_SURFACE
 70
0
 62
7
  6
CONTINUOUS
370
-3
390
F
  0
ENDTAB
  0
TABLE
  2
STYLE
  5
3
100
AcDbSymbolTable
 70
1
  0
STYLE
  5
11
100
AcDbSymbolTableRecord
100
AcDbTextStyleTableRecord
  2
STANDARD
 70
0
 40
0.0
 41
0.8
 50
0.0
 71
0
 42
0.2
  3
txt
  4

  0
STYLE
  5
204
100
AcDbSymbolTableRecord
100
AcDbTextStyleTableRecord
  2
TEXTSTYLE_1
 70
0
 40
0.0
 41
0.8
 50
0.0
 71
0
 42
0.2
  3
gdt
  4

  0
ENDTAB
  0
TABLE
  2
VIEW
  5
6
100
AcDbSymbolTable
 70
0
  0
ENDTAB
  0
TABLE
  2
UCS
  5
7
100
AcDbSymbolTable
 70
0
  0
ENDTAB
  0
TABLE
  2
APPID
  5
9
100
AcDbSymbolTable
 70
1
  0
APPID
  5
205
100
AcDbSymbolTableRecord
100
AcDbRegAppTableRecord
  2
ACAD
 70
0
  0
ENDTAB
  0
TABLE
  2
BLOCK_RECORD
  5
1
100
AcDbSymbolTable
 70
0
  0
BLOCK_RECORD
  5
206
100
AcDbSymbolTableRecord
100
AcDbBlockTableRecord
  2
*Model_Space
  0
BLOCK_RECORD
  5
207
100
AcDbSymbolTableRecord
100
AcDbBlockTableRecord
  2
*Paper_Space
  0
ENDTAB
  0
TABLE
  2
DIMSTYLE
  5
A
100
AcDbSymbolTable
 70
1
100
AcDbDimStyleTable
 71
0
  0
DIMSTYLE
105
208
100
AcDbSymbolTableRecord
100
AcDbDimStyleTableRecord
  2
STANDARD
 70
0
  3

  4

 40
1.0
 41
4.7625
 42
1.5875
 43
0.38
 44
3.175
 45
0.0
 46
0.0
 47
0.01
 48
0.01
140
3.96875
141
0.09
142
0.0
143
25.4
144
1.0
145
0.0
146
1.0
147
0.625
 71
1.0
 72
0.0
 73
1
 74
1
 75
0
 76
0
 77
0
 78
8
170
0
171
2
172
0
173
0
174
0
175
0
176
0
177
0
178
0
270
2
271
3
272
3
273
2
274
2
275
0
280
0
281
0
282
0
283
1
284
8
285
0
286
0
287
3
288
0
340
11
278
46
  0
ENDTAB
  0
ENDSEC
  0
SECTION
  2
BLOCKS
  0
BLOCK
  5
20
100
AcDbEntity
  8
0
100
AcDbBlockBegin
  2
*Model_Space
 70
0
 10
0.0
 20
0.0
 30
0.0
  3
*Model_Space
  1

  0
ENDBLK
  5
21
100
AcDbEntity
  8
0
100
AcDbBlockEnd
  0
BLOCK
  5
1C
100
AcDbEntity
  8
0
100
AcDbBlockBegin
  2
*Paper_Space
 70
0
 10
0.0
 20
0.0
 30
0.0
  3
*Paper_Space
  1

  0
ENDBLK
  5
1D
100
AcDbEntity
  8
0
100
AcDbBlockEnd
  0
ENDSEC
  0
SECTION
  2
ENTITIES
  0
LINE
  5
209
100
AcDbEntity
  8
0
100
AcDbLine
 62
7
  6
CONTINUOUS
 10
0.0
 20
0.0
 11
0.0
 21
431.8
  0
LINE
  5
20A
100
AcDbEntity
  8
0
100
AcDbLine
 62
7
  6
CONTINUOUS
 10
0.0
 20
0.0
 11
558.8
 21
0.0
  0
LINE
  5
20B
100
AcDbEntity
  8
0
100
AcDbLine
 62
7
  6
CONTINUOUS
 10
0.0
 20
431.8
 11
558.8
 21
431.8
  0
LINE
  5
20C
100
AcDbEntity
  8
0
100
AcDbLine
 62
7
  6
CONTINUOUS
 10
558.8
 20
0.0
 11
558.8
 21
431.8
  0
LINE
  5
20D
100
AcDbEntity
  8
0
100
AcDbLine
 62
7
  6
CONTINUOUS
 10
-467.2160668585
 20
1043.5368754219
 11
-467.2165664753
 21
700.8597397403
  0
LINE
  5
20E
100
AcDbEntity
  8
0
100
AcDbLine
 62
7
  6
CONTINUOUS
 10
-411.1355725483
 20
644.9105041814
 11
-411.1160602118
 21
654.964838318
  0
LINE
  5
20F
100
AcDbEntity
  8
0
100
AcDbLine
 62
7
  6
CONTINUOUS
 10
-409.8933693525
 20
643.5367886128
 11
-409.8829579136
 21
654.9628168589
  0
LINE
  5
210
100
AcDbEntity
  8
0
100
AcDbLine
 62
7
  6
CONTINUOUS
 10
-96.5194397932
 20
1430.7650076975
 11
-93.5152251414
 21
1350.5431602615
  0
LINE
  5
211
100
AcDbEntity
  8
0
100
AcDbLine
 62
7
  6
CONTINUOUS
 10
-67.2001834854
 20
1350.7848172256
 11
-67.216241424
 21
1443.5368754201
  0
LINE
  5
212
100
AcDbEntity
  8
0
100
AcDbLine
 62
7
  6
CONTINUOUS
 10
-104.0054969945
 20
644.9082477035
 11
-104.0040618004
 21
655.1985221216
  0
LINE
  5
213
100
AcDbEntity
  8
0
100
AcDbLine
 62
7
  6
CONTINUOUS
 10
-409.8933693525
 20
643.5367886128
 11
975.4608865044
 21
643.5367886128
  0
LINE
  5
214
100
AcDbEntity
  8
0
100
AcDbLine
 62
7
  6
CONTINUOUS
 10
677.9750374308
 20
644.9085211045
 11
-104.0054969944
 21
644.9082464209
  0
LINE
  5
215
100
AcDbEntity
  8
0
100
AcDbLine
 62
7
  6
CONTINUOUS
 10
677.9714463069
 20
655.1988165497
 11
-104.0026005485
 21
655.1999529251
  0
LINE
  5
216
100
AcDbEntity
  8
0
100
AcDbLine
 62
7
  6
CONTINUOUS
 10
-97.2898648418
 20
1441.0282947239
 11
-96.5225242318
 21
1430.7648048792
  0
LINE
  5
217
100
AcDbEntity
  8
0
100
AcDbLine
 62
7
  6
CONTINUOUS
 10
-104.0026005485
 20
655.1999529251
 11
-93.5480179272
 21
736.5304586087
  0
LINE
  5
218
100
AcDbEntity
  8
0
100
AcDbLine
 62
7
  6
CONTINUOUS
 10
-303.4802111939
 20
788.9351677825
 11
-411.1160450182
 21
654.9648556445
  0
LINE
  5
219
100
AcDbEntity
  8
0
100
AcDbLine
 62
7
  6
CONTINUOUS
 10
-465.8453637673
 20
700.8754682604
 11
-455.7940176303
 21
700.8785014609
  0
LINE
  5
21A
100
AcDbEntity
  8
0
100
AcDbLine
 62
7
  6
CONTINUOUS
 10
1031.4127251496
 20
700.8670624654
 11
1021.3615308783
 21
700.8785077002
  0
LINE
  5
21B
100
AcDbEntity
  8
0
100
AcDbLine
 62
7
  6
CONTINUOUS
 10
1031.4061345969
 20
697.8315906721
 11
1021.3547905303
 21
697.8526028146
  0
LINE
  5
21C
100
AcDbEntity
  8
0
100
AcDbLine
 62
40
  6
CONTINUOUS
 10
290.3248222922
 20
751.5271746527
 11
290.4998223756
 21
751.565131542
  0
LINE
  5
21D
100
AcDbEntity
  8
0
100
AcDbLine
 62
40
  6
CONTINUOUS
 10
287.3498223756
 20
751.8402812452
 11
287.1748225425
 21
751.8023243492
  0
LINE
  5
21E
100
AcDbEntity
  8
0
100
AcDbLine
 62
40
  6
CONTINUOUS
 10
289.7998225425
 20
751.546147859
 11
289.9748223756
 21
751.5746159267
  0
LINE
  5
21F
100
AcDbEntity
  8
0
100
AcDbLine
 62
40
  6
CONTINUOUS
 10
287.8748223756
 20
751.8213080322
 11
287.6998225425
 21
751.792839991
  0
LINE
  5
220
100
AcDbEntity
  8
0
100
AcDbLine
 62
40
  6
CONTINUOUS
 10
271.3373223756
 20
751.6313896208
 11
271.5998223756
 21
751.6693472585
  0
LINE
  5
221
100
AcDbEntity
  8
0
100
AcDbLine
 62
40
  6
CONTINUOUS
 10
292.8623223756
 20
751.6410625588
 11
291.2873223756
 21
751.4607609473
  0
LINE
  5
222
100
AcDbEntity
  8
0
100
AcDbLine
 62
40
  6
CONTINUOUS
 10
291.9873224591
 20
751.4607669339
 11
293.9123223756
 21
751.6790269315
  0
LINE
  5
223
100
AcDbEntity
  8
0
100
AcDbLine
 62
40
  6
CONTINUOUS
 10
293.9123223756
 20
751.75493773
 11
293.2998223339
 21
751.6885105413
  0
LINE
  5
224
100
AcDbEntity
  8
0
100
AcDbLine
 62
40
  6
CONTINUOUS
 10
289.9748223756
 20
751.4892162667
 11
290.3248222922
 21
751.5271746527
  0
LINE
  5
225
100
AcDbEntity
  8
0
100
AcDbLine
 62
40
  6
CONTINUOUS
 10
287.6998225425
 20
751.8782396344
 11
287.3498223756
 21
751.8402812452
  0
LINE
  5
226
100
AcDbEntity
  8
0
100
AcDbLine
 62
40
  6
CONTINUOUS
 10
271.8623223756
 20
751.6219052627
 11
272.037321708
 21
751.6408844556
  0
LINE
  5
227
100
AcDbEntity
  8
0
100
AcDbLine
 62
40
  6
CONTINUOUS
 10
289.5373225425
 20
751.5271679177
 11
289.7998225425
 21
751.546147859
  0
LINE
  5
228
100
AcDbEntity
  8
0
100
AcDbLine
 62
40
  6
CONTINUOUS
 10
288.1373223756
 20
751.8402879801
 11
287.8748223756
 21
751.8213080322
  0
LINE
  5
229
100
AcDbEntity
  8
0
100
AcDbLine
 62
40
  6
CONTINUOUS
 10
289.6248222087
 20
751.4702355771
 11
289.9748223756
 21
751.4892162667
  0
LINE
  5
22A
100
AcDbEntity
  8
0
100
AcDbLine
 62
40
  6
CONTINUOUS
 10
288.0498222087
 20
751.8972203266
 11
287.6998225425
 21
751.8782396344
  0
LINE
  5
22B
100
AcDbEntity
  8
0
100
AcDbLine
 62
40
  6
CONTINUOUS
 10
271.5998223756
 20
751.6693472585
 11
271.9498230432
 21
751.6883279481
  0
LINE
  5
22C
100
AcDbEntity
  8
0
100
AcDbLine
 62
40
  6
CONTINUOUS
 10
272.037321708
 20
751.6408844556
 11
272.299821708
 21
751.6503755488
  0
LINE
  5
22D
100
AcDbEntity
  8
0
100
AcDbLine
 62
40
  6
CONTINUOUS
 10
289.1873223756
 20
751.5176760762
 11
289.5373225425
 21
751.5271679177
  0
LINE
  5
22E
100
AcDbEntity
  8
0
100
AcDbLine
 62
40
  6
CONTINUOUS
 10
288.4873225425
 20
751.8497798216
 11
288.1373223756
 21
751.8402879801
  0
LINE
  5
22F
100
AcDbEntity
  8
0
100
AcDbLine
 62
40
  6
CONTINUOUS
 10
289.1873223756
 20
751.4607429873
 11
289.6248222087
 21
751.4702355771
  0
LINE
  5
230
100
AcDbEntity
  8
0
100
AcDbLine
 62
40
  6
CONTINUOUS
 10
288.4873225425
 20
751.9067129172
 11
288.0498222087
 21
751.8972203266
  0
LINE
  5
231
100
AcDbEntity
  8
0
100
AcDbLine
 62
7
  6
CONTINUOUS
 10
-465.8453152063
 20
747.8178432431
 11
-455.7851311029
 21
747.8178380226
  0
LINE
  5
232
100
AcDbEntity
  8
0
100
AcDbLine
 62
40
  6
CONTINUOUS
 10
275.187321708
 20
751.460623254
 11
278.3373227094
 21
751.460650194
  0
LINE
  5
233
100
AcDbEntity
  8
0
100
AcDbLine
 62
40
  6
CONTINUOUS
 10
281.6623220418
 20
751.4606786306
 11
282.1873220418
 21
751.4606831206
  0
LINE
  5
234
100
AcDbEntity
  8
0
100
AcDbLine
 62
40
  6
CONTINUOUS
 10
282.8873223756
 20
751.4606891073
 11
283.4123223756
 21
751.4606935973
  0
LINE
  5
235
100
AcDbEntity
  8
0
100
AcDbLine
 62
40
  6
CONTINUOUS
 10
285.8623220418
 20
751.4607145506
 11
286.3873225425
 21
751.4607190406
  0
LINE
  5
236
100
AcDbEntity
  8
0
100
AcDbLine
 62
40
  6
CONTINUOUS
 10
288.4873225425
 20
751.4607370006
 11
289.1873223756
 21
751.4607429873
  0
LINE
  5
237
100
AcDbEntity
  8
0
100
AcDbLine
 62
40
  6
CONTINUOUS
 10
291.2873223756
 20
751.4607609473
 11
291.9873224591
 21
751.4607669339
  0
LINE
  5
238
100
AcDbEntity
  8
0
100
AcDbLine
 62
40
  6
CONTINUOUS
 10
293.9123223756
 20
751.4607833972
 11
294.4373223756
 21
751.4607878872
  0
LINE
  5
239
100
AcDbEntity
  8
0
100
AcDbLine
 62
40
  6
CONTINUOUS
 10
274.4873223756
 20
751.4606172674
 11
272.299821708
 21
751.5080427998
  0
LINE
  5
23A
100
AcDbEntity
  8
0
100
AcDbLine
 62
40
  6
CONTINUOUS
 10
275.5373223756
 20
751.640914389
 11
277.8123227094
 21
751.6409338456
  0
LINE
  5
23B
100
AcDbEntity
  8
0
100
AcDbLine
 62
40
  6
CONTINUOUS
 10
283.4123223756
 20
751.6409817389
 11
285.8623220418
 21
751.6410026922
  0
LINE
  5
23C
100
AcDbEntity
  8
0
100
AcDbLine
 62
40
  6
CONTINUOUS
 10
272.299821708
 20
751.6503755488
 11
273.9623223756
 21
751.6503897671
  0
LINE
  5
23D
100
AcDbEntity
  8
0
100
AcDbLine
 62
40
  6
CONTINUOUS
 10
289.1873223756
 20
751.8497858083
 11
288.4873225425
 21
751.8497798216
  0
LINE
  5
23E
100
AcDbEntity
  8
0
100
AcDbLine
 62
40
  6
CONTINUOUS
 10
294.4373223756
 20
751.9067638039
 11
293.9123223756
 21
751.9067593139
  0
LINE
  5
23F
100
AcDbEntity
  8
0
100
AcDbLine
 62
40
  6
CONTINUOUS
 10
291.9873224591
 20
751.9067428505
 11
291.2873223756
 21
751.9067368639
  0
LINE
  5
240
100
AcDbEntity
  8
0
100
AcDbLine
 62
40
  6
CONTINUOUS
 10
286.3873225425
 20
751.9066949572
 11
285.8623220418
 21
751.9066904672
  0
LINE
  5
241
100
AcDbEntity
  8
0
100
AcDbLine
 62
40
  6
CONTINUOUS
 10
283.4123223756
 20
751.9066695139
 11
282.8873223756
 21
751.9066650239
  0
LINE
  5
242
100
AcDbEntity
  8
0
100
AcDbLine
 62
40
  6
CONTINUOUS
 10
282.1873220418
 20
751.9066590373
 11
279.0373220418
 21
751.9066320973
  0
LINE
  5
243
100
AcDbEntity
  8
0
100
AcDbLine
 62
40
  6
CONTINUOUS
 10
278.3373227094
 20
751.9066261106
 11
275.187321708
 21
751.9065991707
  0
LINE
  5
244
100
AcDbEntity
  8
0
100
AcDbLine
 62
40
  6
CONTINUOUS
 10
271.1623230432
 20
751.9065647474
 11
271.774821708
 21
751.9065699857
  0
LINE
  5
245
100
AcDbEntity
  8
0
100
AcDbLine
 62
40
  6
CONTINUOUS
 10
273.9623223756
 20
751.906588694
 11
274.4873223756
 21
751.906593184
  0
LINE
  5
246
100
AcDbEntity
  8
0
100
AcDbLine
 62
7
  6
CONTINUOUS
 10
-102.5835297936
 20
750.6854000716
 11
-90.9531056407
 21
750.6270342705
  0
LINE
  5
247
100
AcDbEntity
  8
0
100
AcDbLine
 62
40
  6
CONTINUOUS
 10
272.3873223756
 20
751.4605993074
 11
271.9498230432
 21
751.4700844139
  0
LINE
  5
248
100
AcDbEntity
  8
0
100
AcDbLine
 62
40
  6
CONTINUOUS
 10
288.0498222087
 20
751.4702221071
 11
288.4873225425
 21
751.4607370006
  0
LINE
  5
249
100
AcDbEntity
  8
0
100
AcDbLine
 62
40
  6
CONTINUOUS
 10
289.6248222087
 20
751.8972337966
 11
289.1873223756
 21
751.9067189039
  0
LINE
  5
24A
100
AcDbEntity
  8
0
100
AcDbLine
 62
40
  6
CONTINUOUS
 10
288.1373223756
 20
751.5271559444
 11
288.4873225425
 21
751.5176700896
  0
LINE
  5
24B
100
AcDbEntity
  8
0
100
AcDbLine
 62
40
  6
CONTINUOUS
 10
289.5373225425
 20
751.8402999535
 11
289.1873223756
 21
751.8497858083
  0
LINE
  5
24C
100
AcDbEntity
  8
0
100
AcDbLine
 62
40
  6
CONTINUOUS
 10
272.299821708
 20
751.5080427998
 11
271.9060728346
 21
751.5222726639
  0
LINE
  5
24D
100
AcDbEntity
  8
0
100
AcDbLine
 62
40
  6
CONTINUOUS
 10
287.6998225425
 20
751.4891968101
 11
288.0498222087
 21
751.4702221071
  0
LINE
  5
24E
100
AcDbEntity
  8
0
100
AcDbLine
 62
40
  6
CONTINUOUS
 10
289.9748223756
 20
751.8782590911
 11
289.6248222087
 21
751.8972337966
  0
LINE
  5
24F
100
AcDbEntity
  8
0
100
AcDbLine
 62
40
  6
CONTINUOUS
 10
287.8748223756
 20
751.5461313957
 11
288.1373223756
 21
751.5271559444
  0
LINE
  5
250
100
AcDbEntity
  8
0
100
AcDbLine
 62
40
  6
CONTINUOUS
 10
289.7998225425
 20
751.8213244955
 11
289.5373225425
 21
751.8402999535
  0
LINE
  5
251
100
AcDbEntity
  8
0
100
AcDbLine
 62
40
  6
CONTINUOUS
 10
271.9498230432
 20
751.4700844139
 11
271.5998223756
 21
751.498547965
  0
LINE
  5
252
100
AcDbEntity
  8
0
100
AcDbLine
 62
40
  6
CONTINUOUS
 10
272.037321708
 20
751.517529403
 11
271.8623223756
 21
751.5365056027
  0
LINE
  5
253
100
AcDbEntity
  8
0
100
AcDbLine
 62
40
  6
CONTINUOUS
 10
287.3498223756
 20
751.5271492094
 11
287.6998225425
 21
751.4891968101
  0
LINE
  5
254
100
AcDbEntity
  8
0
100
AcDbLine
 62
40
  6
CONTINUOUS
 10
290.3248222922
 20
751.8403066885
 11
289.9748223756
 21
751.8782590911
  0
LINE
  5
255
100
AcDbEntity
  8
0
100
AcDbLine
 62
40
  6
CONTINUOUS
 10
271.5998223756
 20
751.498547965
 11
271.3373223756
 21
751.5365011127
  0
LINE
  5
256
100
AcDbEntity
  8
0
100
AcDbLine
 62
40
  6
CONTINUOUS
 10
287.6998225425
 20
751.5745964701
 11
287.8748223756
 21
751.5461313957
  0
LINE
  5
257
100
AcDbEntity
  8
0
100
AcDbLine
 62
40
  6
CONTINUOUS
 10
289.9748223756
 20
751.7928594477
 11
289.7998225425
 21
751.8213244955
  0
LINE
  5
258
100
AcDbEntity
  8
0
100
AcDbLine
 62
40
  6
CONTINUOUS
 10
293.2998223339
 20
751.6885105413
 11
291.9873224591
 21
751.9067428505
  0
LINE
  5
259
100
AcDbEntity
  8
0
100
AcDbLine
 62
40
  6
CONTINUOUS
 10
291.2873223756
 20
751.9067368639
 11
292.8623223756
 21
751.6410625588
  0
LINE
  5
25A
100
AcDbEntity
  8
0
100
AcDbLine
 62
40
  6
CONTINUOUS
 10
287.1748225425
 20
751.5651031054
 11
287.3498223756
 21
751.5271492094
  0
LINE
  5
25B
100
AcDbEntity
  8
0
100
AcDbLine
 62
40
  6
CONTINUOUS
 10
290.4998223756
 20
751.8023527858
 11
290.3248222922
 21
751.8403066885
  0
LINE
  5
25C
100
AcDbEntity
  8
0
100
AcDbLine
 62
40
  6
CONTINUOUS
 10
271.9498230432
 20
751.6883279481
 11
271.1623230432
 21
751.9065647474
  0
LINE
  5
25D
100
AcDbEntity
  8
0
100
AcDbLine
 62
40
  6
CONTINUOUS
 10
271.774821708
 20
751.9065699857
 11
272.4748230432
 21
751.7073101344
  0
LINE
  5
25E
100
AcDbEntity
  8
0
100
AcDbLine
 62
40
  6
CONTINUOUS
 10
271.3373223756
 20
751.5365011127
 11
271.249821708
 21
751.5649669088
  0
LINE
  5
25F
100
AcDbEntity
  8
0
100
AcDbLine
 62
40
  6
CONTINUOUS
 10
271.9060728346
 20
751.5222726639
 11
271.774821708
 21
751.5649713988
  0
LINE
  5
260
100
AcDbEntity
  8
0
100
AcDbLine
 62
40
  6
CONTINUOUS
 10
287.6123223756
 20
751.6125511144
 11
287.6998225425
 21
751.5745964701
  0
LINE
  5
261
100
AcDbEntity
  8
0
100
AcDbLine
 62
40
  6
CONTINUOUS
 10
290.0623225425
 20
751.7549048034
 11
289.9748223756
 21
751.7928594477
  0
LINE
  5
262
100
AcDbEntity
  8
0
100
AcDbLine
 62
40
  6
CONTINUOUS
 10
287.0873223756
 20
751.6125466244
 11
287.1748225425
 21
751.5651031054
  0
LINE
  5
263
100
AcDbEntity
  8
0
100
AcDbLine
 62
40
  6
CONTINUOUS
 10
290.5873222922
 20
751.7549092934
 11
290.4998223756
 21
751.8023527858
  0
LINE
  5
264
100
AcDbEntity
  8
0
100
AcDbLine
 62
7
  6
CONTINUOUS
 10
82.7998225722
 20
1336.6573915178
 11
82.7998225667
 21
1351.335743944
  0
LINE
  5
265
100
AcDbEntity
  8
0
100
AcDbLine
 62
7
  6
CONTINUOUS
 10
8.6543006823
 20
1293.0752559585
 11
-5.0313962703
 21
1336.6385348491
  0
LINE
  5
266
100
AcDbEntity
  8
0
100
AcDbLine
 62
7
  6
CONTINUOUS
 10
162.12610394
 20
1368.010470917
 11
162.12610394
 21
1356.4963492954
  0
LINE
  5
267
100
AcDbEntity
  8
0
100
AcDbLine
 62
7
  6
CONTINUOUS
 10
164.7148841598
 20
1328.6788824766
 11
164.7142254781
 21
1349.8987220685
  0
LINE
  5
268
100
AcDbEntity
  8
0
100
AcDbLine
 62
7
  6
CONTINUOUS
 10
172.7975526366
 20
1354.6318496959
 11
172.7975526366
 21
1352.5200273434
  0
LINE
  5
269
100
AcDbEntity
  8
0
100
AcDbLine
 62
7
  6
CONTINUOUS
 10
180.2975526369
 20
1351.7280939612
 11
180.2975210616
 21
1355.4237830778
  0
LINE
  5
26A
100
AcDbEntity
  8
0
100
AcDbLine
 62
40
  6
CONTINUOUS
 10
271.249821708
 20
751.5649669088
 11
271.249821708
 21
751.602922328
  0
LINE
  5
26B
100
AcDbEntity
  8
0
100
AcDbLine
 62
40
  6
CONTINUOUS
 10
271.774821708
 20
751.5649713988
 11
271.774821708
 21
751.5934379699
  0
LINE
  5
26C
100
AcDbEntity
  8
0
100
AcDbLine
 62
40
  6
CONTINUOUS
 10
273.9623223756
 20
751.5080570182
 11
273.9623223756
 21
751.906588694
  0
LINE
  5
26D
100
AcDbEntity
  8
0
100
AcDbLine
 62
40
  6
CONTINUOUS
 10
274.4873223756
 20
751.906593184
 11
274.4873223756
 21
751.4606172674
  0
LINE
  5
26E
100
AcDbEntity
  8
0
100
AcDbLine
 62
40
  6
CONTINUOUS
 10
275.187321708
 20
751.9065991707
 11
275.187321708
 21
751.8496660751
  0
LINE
  5
26F
100
AcDbEntity
  8
0
100
AcDbLine
 62
40
  6
CONTINUOUS
 10
275.187321708
 20
751.517556343
 11
275.187321708
 21
751.460623254
  0
LINE
  5
270
100
AcDbEntity
  8
0
100
AcDbLine
 62
40
  6
CONTINUOUS
 10
275.5373223756
 20
751.6978474779
 11
275.5373223756
 21
751.640914389
  0
LINE
  5
271
100
AcDbEntity
  8
0
100
AcDbLine
 62
40
  6
CONTINUOUS
 10
277.8123227094
 20
751.849688525
 11
277.8123227094
 21
751.517578793
  0
LINE
  5
272
100
AcDbEntity
  8
0
100
AcDbLine
 62
40
  6
CONTINUOUS
 10
278.3373227094
 20
751.460650194
 11
278.3373227094
 21
751.9066261106
  0
LINE
  5
273
100
AcDbEntity
  8
0
100
AcDbLine
 62
40
  6
CONTINUOUS
 10
279.0373220418
 20
751.9066320973
 11
279.0373220418
 21
751.8496990017
  0
LINE
  5
274
100
AcDbEntity
  8
0
100
AcDbLine
 62
40
  6
CONTINUOUS
 10
281.6623220418
 20
751.8497214517
 11
281.6623220418
 21
751.4606786306
  0
LINE
  5
275
100
AcDbEntity
  8
0
100
AcDbLine
 62
40
  6
CONTINUOUS
 10
282.1873220418
 20
751.4606831206
 11
282.1873220418
 21
751.9066590373
  0
LINE
  5
276
100
AcDbEntity
  8
0
100
AcDbLine
 62
40
  6
CONTINUOUS
 10
282.8873223756
 20
751.9066650239
 11
282.8873223756
 21
751.4606891073
  0
LINE
  5
277
100
AcDbEntity
  8
0
100
AcDbLine
 62
40
  6
CONTINUOUS
 10
283.4123223756
 20
751.4606935973
 11
283.4123223756
 21
751.9066695139
  0
LINE
  5
278
100
AcDbEntity
  8
0
100
AcDbLine
 62
40
  6
CONTINUOUS
 10
285.8623220418
 20
751.9066904672
 11
285.8623220418
 21
751.4607145506
  0
LINE
  5
279
100
AcDbEntity
  8
0
100
AcDbLine
 62
40
  6
CONTINUOUS
 10
286.3873225425
 20
751.4607190406
 11
286.3873225425
 21
751.9066949572
  0
LINE
  5
27A
100
AcDbEntity
  8
0
100
AcDbLine
 62
40
  6
CONTINUOUS
 10
287.0873223756
 20
751.7548793601
 11
287.0873223756
 21
751.6125466244
  0
LINE
  5
27B
100
AcDbEntity
  8
0
100
AcDbLine
 62
40
  6
CONTINUOUS
 10
287.6123223756
 20
751.7548838501
 11
287.6123223756
 21
751.6125511144
  0
LINE
  5
27C
100
AcDbEntity
  8
0
100
AcDbLine
 62
40
  6
CONTINUOUS
 10
290.0623225425
 20
751.6125720677
 11
290.0623225425
 21
751.7549048034
  0
LINE
  5
27D
100
AcDbEntity
  8
0
100
AcDbLine
 62
40
  6
CONTINUOUS
 10
290.5873222922
 20
751.6125765577
 11
290.5873222922
 21
751.7549092934
  0
LINE
  5
27E
100
AcDbEntity
  8
0
100
AcDbLine
 62
40
  6
CONTINUOUS
 10
293.9123223756
 20
751.9067593139
 11
293.9123223756
 21
751.75493773
  0
LINE
  5
27F
100
AcDbEntity
  8
0
100
AcDbLine
 62
40
  6
CONTINUOUS
 10
293.9123223756
 20
751.6790269315
 11
293.9123223756
 21
751.4607833972
  0
LINE
  5
280
100
AcDbEntity
  8
0
100
AcDbLine
 62
40
  6
CONTINUOUS
 10
294.4373223756
 20
751.4607878872
 11
294.4373223756
 21
751.9067638039
  0
LINE
  5
281
100
AcDbEntity
  8
0
100
AcDbLine
 62
7
  6
CONTINUOUS
 10
413.1291393178
 20
1347.1262791049
 11
410.7966296689
 21
1341.1691252501
  0
LINE
  5
282
100
AcDbEntity
  8
0
100
AcDbLine
 62
7
  6
CONTINUOUS
 10
400.8854196559
 20
1349.8987220208
 11
403.473541194
 21
1356.4963492952
  0
LINE
  5
283
100
AcDbEntity
  8
0
100
AcDbLine
 62
7
  6
CONTINUOUS
 10
1031.4127092785
 20
1021.1290779631
 11
1021.1257773339
 21
1021.1292869057
  0
LINE
  5
284
100
AcDbEntity
  8
0
100
AcDbLine
 62
7
  6
CONTINUOUS
 10
-467.2160668585
 20
1043.5368754219
 11
-455.5515350971
 21
1043.5357366231
  0
LINE
  5
285
100
AcDbEntity
  8
0
100
AcDbLine
 62
7
  6
CONTINUOUS
 10
-391.1692311674
 20
1043.550991809
 11
-439.9924854598
 21
1043.553512823
  0
LINE
  5
286
100
AcDbEntity
  8
0
100
AcDbLine
 62
7
  6
CONTINUOUS
 10
1021.1183715055
 20
1043.5357278587
 11
1032.7835840104
 21
1043.5368754219
  0
LINE
  5
287
100
AcDbEntity
  8
0
100
AcDbLine
 62
7
  6
CONTINUOUS
 10
162.12610394
 20
1356.4963492954
 11
164.7142254781
 21
1349.8987220211
  0
LINE
  5
288
100
AcDbEntity
  8
0
100
AcDbLine
 62
7
  6
CONTINUOUS
 10
385.2975526443
 20
1351.728093961
 11
385.297521069
 21
1355.4237830776
  0
LINE
  5
289
100
AcDbEntity
  8
0
100
AcDbLine
 62
7
  6
CONTINUOUS
 10
392.7975526446
 20
1352.5200273432
 11
392.7975526446
 21
1354.6318496957
  0
LINE
  5
28A
100
AcDbEntity
  8
0
100
AcDbLine
 62
7
  6
CONTINUOUS
 10
403.473541194
 20
1368.0104709167
 11
403.473541194
 21
1356.4963492952
  0
LINE
  5
28B
100
AcDbEntity
  8
0
100
AcDbLine
 62
7
  6
CONTINUOUS
 10
400.8848916873
 20
1328.6909038429
 11
400.8854196559
 21
1349.8987220683
  0
LINE
  5
28C
100
AcDbEntity
  8
0
100
AcDbLine
 62
7
  6
CONTINUOUS
 10
482.7998224868
 20
1351.3280636086
 11
482.79982256
 21
1336.6613170378
  0
LINE
  5
28D
100
AcDbEntity
  8
0
100
AcDbLine
 62
7
  6
CONTINUOUS
 10
556.94587053
 20
793.9984696107
 11
570.6312896866
 21
750.4351798109
  0
LINE
  5
28E
100
AcDbEntity
  8
0
100
AcDbLine
 62
40
  6
CONTINUOUS
 10
287.1748225425
 20
751.8023243492
 11
287.0873223756
 21
751.7548793601
  0
LINE
  5
28F
100
AcDbEntity
  8
0
100
AcDbLine
 62
40
  6
CONTINUOUS
 10
290.4998223756
 20
751.565131542
 11
290.5873222922
 21
751.6125765577
  0
LINE
  5
290
100
AcDbEntity
  8
0
100
AcDbLine
 62
40
  6
CONTINUOUS
 10
287.6998225425
 20
751.792839991
 11
287.6123223756
 21
751.7548838501
  0
LINE
  5
291
100
AcDbEntity
  8
0
100
AcDbLine
 62
40
  6
CONTINUOUS
 10
289.9748223756
 20
751.5746159267
 11
290.0623225425
 21
751.6125720677
  0
LINE
  5
292
100
AcDbEntity
  8
0
100
AcDbLine
 62
40
  6
CONTINUOUS
 10
271.249821708
 20
751.602922328
 11
271.3373223756
 21
751.6313896208
  0
LINE
  5
293
100
AcDbEntity
  8
0
100
AcDbLine
 62
40
  6
CONTINUOUS
 10
271.774821708
 20
751.5934379699
 11
271.8623223756
 21
751.6219052627
  0
LINE
  5
294
100
AcDbEntity
  8
0
100
AcDbLine
 62
7
  6
CONTINUOUS
 10
1021.1257773339
 20
1021.1292869057
 11
1005.0620309374
 21
1027.4011924707
  0
LINE
  5
295
100
AcDbEntity
  8
0
100
AcDbLine
 62
7
  6
CONTINUOUS
 10
632.783758554
 20
655.2006034453
 11
632.783758554
 21
736.2917761038
  0
LINE
  5
296
100
AcDbEntity
  8
0
100
AcDbLine
 62
7
  6
CONTINUOUS
 10
632.783758576
 20
1443.5368754201
 11
632.7998428626
 21
1350.7819473456
  0
LINE
  5
297
100
AcDbEntity
  8
0
100
AcDbLine
 62
7
  6
CONTINUOUS
 10
700.517052438
 20
1436.3693392723
 11
698.7679040769
 21
1426.2251177192
  0
LINE
  5
298
100
AcDbEntity
  8
0
100
AcDbLine
 62
7
  6
CONTINUOUS
 10
400.8848916873
 20
1328.6909027683
 11
164.7148841623
 21
1328.6785260129
  0
LINE
  5
299
100
AcDbEntity
  8
0
100
AcDbLine
 62
7
  6
CONTINUOUS
 10
82.799822576
 20
1336.6573915178
 11
140.5783198784
 21
1336.6579585444
  0
LINE
  5
29A
100
AcDbEntity
  8
0
100
AcDbLine
 62
7
  6
CONTINUOUS
 10
425.0213711358
 20
1336.6607500116
 11
482.799822549
 21
1336.6613170378
  0
LINE
  5
29B
100
AcDbEntity
  8
0
100
AcDbLine
 62
7
  6
CONTINUOUS
 10
400.8854422583
 20
1340.0555385667
 11
164.7142028757
 21
1340.055538567
  0
LINE
  5
29C
100
AcDbEntity
  8
0
100
AcDbLine
 62
7
  6
CONTINUOUS
 10
400.8854196559
 20
1349.8987220208
 11
164.7142254781
 21
1349.8987220211
  0
LINE
  5
29D
100
AcDbEntity
  8
0
100
AcDbLine
 62
7
  6
CONTINUOUS
 10
482.7998225669
 20
1351.3280636086
 11
424.70309977
 21
1351.3291791144
  0
LINE
  5
29E
100
AcDbEntity
  8
0
100
AcDbLine
 62
7
  6
CONTINUOUS
 10
140.8979023917
 20
1351.3346284122
 11
82.7998225664
 21
1351.335743944
  0
LINE
  5
29F
100
AcDbEntity
  8
0
100
AcDbLine
 62
7
  6
CONTINUOUS
 10
180.2975526369
 20
1351.7280939612
 11
385.2975526443
 21
1351.728093961
  0
LINE
  5
2A0
100
AcDbEntity
  8
0
100
AcDbLine
 62
7
  6
CONTINUOUS
 10
385.2975526443
 20
1355.4237830779
 11
180.2975526369
 21
1355.4237830781
  0
LINE
  5
2A1
100
AcDbEntity
  8
0
100
AcDbLine
 62
7
  6
CONTINUOUS
 10
162.12610394
 20
1356.4963492954
 11
403.473541194
 21
1356.4963492952
  0
LINE
  5
2A2
100
AcDbEntity
  8
0
100
AcDbLine
 62
7
  6
CONTINUOUS
 10
400.8848067269
 20
1338.534683508
 11
164.714798266
 21
1338.6307427659
  0
LINE
  5
2A3
100
AcDbEntity
  8
0
100
AcDbLine
 62
7
  6
CONTINUOUS
 10
1021.3547905089
 20
697.8525975532
 11
911.1331073598
 21
822.0416369739
  0
LINE
  5
2A4
100
AcDbEntity
  8
0
100
AcDbLine
 62
7
  6
CONTINUOUS
 10
973.2864369345
 20
654.9634258145
 11
866.8668449328
 21
787.376111172
  0
LINE
  5
2A5
100
AcDbEntity
  8
0
100
AcDbLine
 62
7
  6
CONTINUOUS
 10
677.9714463069
 20
655.1988165497
 11
665.1263708427
 21
736.5934549618
  0
LINE
  5
2A6
100
AcDbEntity
  8
0
100
AcDbLine
 62
7
  6
CONTINUOUS
 10
677.9750333724
 20
644.9069145455
 11
677.9767168558
 21
655.1972072642
  0
LINE
  5
2A7
100
AcDbEntity
  8
0
100
AcDbLine
 62
7
  6
CONTINUOUS
 10
692.2393513489
 20
1350.1883941976
 11
698.7679102241
 21
1426.2251276498
  0
LINE
  5
2A8
100
AcDbEntity
  8
0
100
AcDbLine
 62
7
  6
CONTINUOUS
 10
162.12610394
 20
1368.010470917
 11
403.473541194
 21
1368.0104709167
  0
LINE
  5
2A9
100
AcDbEntity
  8
0
100
AcDbLine
 62
7
  6
CONTINUOUS
 10
-67.200191121
 20
1431.8720439996
 11
632.7912657905
 21
1431.871741051
  0
LINE
  5
2AA
100
AcDbEntity
  8
0
100
AcDbLine
 62
7
  6
CONTINUOUS
 10
-67.216241424
 20
1442.1659556458
 11
632.783758576
 21
1442.1659556458
  0
LINE
  5
2AB
100
AcDbEntity
  8
0
100
AcDbLine
 62
7
  6
CONTINUOUS
 10
632.783758576
 20
1443.5368754201
 11
-67.216241424
 21
1443.5368754201
  0
LINE
  5
2AC
100
AcDbEntity
  8
0
100
AcDbLine
 62
7
  6
CONTINUOUS
 10
866.8668449328
 20
787.376111172
 11
866.2356160367
 21
786.9738021462
  0
LINE
  5
2AD
100
AcDbEntity
  8
0
100
AcDbLine
 62
7
  6
CONTINUOUS
 10
975.4608865044
 20
643.5367886128
 11
975.4504944667
 21
654.9627139775
  0
LINE
  5
2AE
100
AcDbEntity
  8
0
100
AcDbLine
 62
7
  6
CONTINUOUS
 10
973.2857867951
 20
644.9080290097
 11
973.2864379567
 21
654.9634258101
  0
LINE
  5
2AF
100
AcDbEntity
  8
0
100
AcDbLine
 62
7
  6
CONTINUOUS
 10
1032.7840836273
 20
700.8597397403
 11
1032.7835840104
 21
1043.5368754219
  0
ARC
  5
2B0
100
AcDbEntity
  8
0
100
AcDbCircle
 62
7
  6
CONTINUOUS
 10
281.88409171
 20
73541.2499615933
 40
72248.2814518607
100
AcDbArc
 50
269.8084466511
 51
270.1901695597
  0
ARC
  5
2B1
100
AcDbEntity
  8
0
100
AcDbCircle
 62
7
  6
CONTINUOUS
 10
283.7162237952
 20
-71454.1656961879
 40
72248.2709117081
100
AcDbArc
 50
89.8084469887
 51
90.1901697333
  0
ARC
  5
2B2
100
AcDbEntity
  8
0
100
AcDbCircle
 62
7
  6
CONTINUOUS
 10
25.0350438047
 20
31606.4111415924
 40
30856.0025317358
100
AcDbArc
 50
269.7846238221
 51
270.0348187907
  0
ARC
  5
2B3
100
AcDbEntity
  8
0
100
AcDbCircle
 62
7
  6
CONTINUOUS
 10
18.9264327951
 20
-28709.4223214235
 40
30046.0703796274
100
AcDbArc
 50
90.0456859289
 51
90.2095386856
  0
ARC
  5
2B4
100
AcDbEntity
  8
0
100
AcDbCircle
 62
7
  6
CONTINUOUS
 10
548.4342656508
 20
29423.202621696
 40
28672.7760014746
100
AcDbArc
 50
270.0443555211
 51
270.2269599055
  0
ARC
  5
2B5
100
AcDbEntity
  8
0
100
AcDbCircle
 62
7
  6
CONTINUOUS
 10
546.9376287434
 20
-24793.0729618598
 40
26129.7442988391
100
AcDbArc
 50
89.7341350947
 51
90.055089913
  0
ARC
  5
2B6
100
AcDbEntity
  8
0
100
AcDbCircle
 62
7
  6
CONTINUOUS
 10
438.9664686628
 20
-21046.6308387783
 40
22398.2517859602
100
AcDbArc
 50
89.3521022537
 51
89.5041588815
  0
ARC
  5
2B7
100
AcDbEntity
  8
0
100
AcDbCircle
 62
7
  6
CONTINUOUS
 10
493.4185696116
 20
-16332.3421516821
 40
17683.67340348
100
AcDbArc
 50
89.5483946572
 51
90.0344051494
  0
ARC
  5
2B8
100
AcDbEntity
  8
0
100
AcDbCircle
 62
7
  6
CONTINUOUS
 10
-10665.5768506694
 20
977.1859806887
 40
10710.5289897223
100
AcDbArc
 50
1.6916670338
 51
1.9233536903
  0
ARC
  5
2B9
100
AcDbEntity
  8
0
100
AcDbCircle
 62
7
  6
CONTINUOUS
 10
11231.1461191305
 20
1109.8832261819
 40
10710.4979151328
100
AcDbArc
 50
181.6916477495
 51
181.9233350982
  0
ARC
  5
2BA
100
AcDbEntity
  8
0
100
AcDbCircle
 62
7
  6
CONTINUOUS
 10
-6544.4874117706
 20
6030.7953887304
 40
8061.1504932182
100
AcDbArc
 50
319.0528406131
 51
319.991596503
  0
ARC
  5
2BB
100
AcDbEntity
  8
0
100
AcDbCircle
 62
7
  6
CONTINUOUS
 10
164.9649808792
 20
490.9650554335
 40
849.0905201672
100
AcDbArc
 50
90.0169222492
 51
90.3968674758
  0
ARC
  5
2BC
100
AcDbEntity
  8
0
100
AcDbCircle
 62
7
  6
CONTINUOUS
 10
401.406564356
 20
678.9558694101
 40
661.0998745479
100
AcDbArc
 50
89.4180423348
 51
90.0451642801
  0
ARC
  5
2BD
100
AcDbEntity
  8
0
100
AcDbCircle
 62
7
  6
CONTINUOUS
 10
1492.4213425876
 20
706.0531424763
 40
471.1117472986
100
AcDbArc
 50
180.6293739378
 51
180.9973297877
  0
ARC
  5
2BE
100
AcDbEntity
  8
0
100
AcDbCircle
 62
7
  6
CONTINUOUS
 10
-67.2162414241
 20
1043.5368754201
 40
400.0
100
AcDbArc
 50
90.0
 51
180.0
  0
ARC
  5
2BF
100
AcDbEntity
  8
0
100
AcDbCircle
 62
7
  6
CONTINUOUS
 10
632.783758576
 20
1043.5368754201
 40
400.0000000001
100
AcDbArc
 50
0.0
 51
90.0
  0
ARC
  5
2C0
100
AcDbEntity
  8
0
100
AcDbCircle
 62
7
  6
CONTINUOUS
 10
632.7837585759
 20
1043.5368754201
 40
398.6290431827
100
AcDbArc
 50
0.0000835362
 51
90.0
  0
ARC
  5
2C1
100
AcDbEntity
  8
0
100
AcDbCircle
 62
7
  6
CONTINUOUS
 10
-67.2162414241
 20
1043.5368754201
 40
398.6287322767
100
AcDbArc
 50
90.0
 51
179.9999164638
  0
ARC
  5
2C2
100
AcDbEntity
  8
0
100
AcDbCircle
 62
7
  6
CONTINUOUS
 10
-67.1401192995
 20
1041.6619333416
 40
390.2106443268
100
AcDbArc
 50
90.008821208
 51
94.3179383628
  0
ARC
  5
2C3
100
AcDbEntity
  8
0
100
AcDbCircle
 62
7
  6
CONTINUOUS
 10
632.7075910188
 20
1042.6254100988
 40
389.2463347017
100
AcDbArc
 50
80.2288440035
 51
89.9876833487
  0
ARC
  5
2C4
100
AcDbEntity
  8
0
100
AcDbCircle
 62
7
  6
CONTINUOUS
 10
-67.2229239496
 20
1043.5426574746
 40
388.3284689011
100
AcDbArc
 50
94.3266488883
 51
180.0010211341
  0
ARC
  5
2C5
100
AcDbEntity
  8
0
100
AcDbCircle
 62
7
  6
CONTINUOUS
 10
632.7916039236
 20
1043.5440412222
 40
388.3267676709
100
AcDbArc
 50
359.9987734022
 51
80.2180568553
  0
ARC
  5
2C6
100
AcDbEntity
  8
0
100
AcDbCircle
 62
7
  6
CONTINUOUS
 10
-143.088832563
 20
1035.9479899497
 40
294.5118944082
100
AcDbArc
 50
219.5863645443
 51
237.0029403983
  0
ARC
  5
2C7
100
AcDbEntity
  8
0
100
AcDbCircle
 62
7
  6
CONTINUOUS
 10
708.9006763773
 20
1034.7143240818
 40
293.4763510967
100
AcDbArc
 50
302.5649353842
 51
313.5585707093
  0
ARC
  5
2C8
100
AcDbEntity
  8
0
100
AcDbCircle
 62
7
  6
CONTINUOUS
 10
971.7567697095
 20
380.4015676608
 40
274.6186833014
100
AcDbArc
 50
89.2292342285
 51
89.6807892672
  0
ARC
  5
2C9
100
AcDbEntity
  8
0
100
AcDbCircle
 62
7
  6
CONTINUOUS
 10
-406.4474149441
 20
399.0896811636
 40
255.9309336308
100
AcDbArc
 50
90.7692496857
 51
91.0452875672
  0
ARC
  5
2CA
100
AcDbEntity
  8
0
100
AcDbCircle
 62
7
  6
CONTINUOUS
 10
15.2181963783
 20
1016.7882662339
 40
242.325135153
100
AcDbArc
 50
91.553006389
 51
107.1946025012
  0
CIRCLE
  5
2CB
100
AcDbEntity
  8
0
100
AcDbCircle
 62
7
  6
CONTINUOUS
 10
282.7998225667
 20
1043.5368754201
 40
59.5110603653
  0
ARC
  5
2CC
100
AcDbEntity
  8
0
100
AcDbCircle
 62
7
  6
CONTINUOUS
 10
-466.7559710539
 20
727.6344766196
 40
26.7786983085
100
AcDbArc
 50
269.0144601205
 51
271.9487136022
  0
ARC
  5
2CD
100
AcDbEntity
  8
0
100
AcDbCircle
 62
7
  6
CONTINUOUS
 10
1032.3234890986
 20
727.6340758705
 40
26.7782976034
100
AcDbArc
 50
268.0512552122
 51
270.9855527179
  0
CIRCLE
  5
2CE
100
AcDbEntity
  8
0
100
AcDbCircle
 62
7
  6
CONTINUOUS
 10
282.7998225667
 20
1043.5368754201
 40
26.7462498186
  0
SPLINE
  5
2CF
100
AcDbEntity
  8
DATUM_AXIS
100
AcDbSpline
 62
7
  6
CONTINUOUS
 70
0
 71
3
 72
19
 73
15
 74
0
 42
0.0000001
 43
0.0000001
 44
0.0000000001
 40
0.0
 40
0.0
 40
0.0
 40
0.0
 40
0.013874867
 40
0.0435002093
 40
0.0898788665
 40
0.1515854878
 40
0.311643086
 40
0.4999995943
 40
0.6883561695
 40
0.8484139577
 40
0.910120711
 40
0.9564995175
 40
0.9861250159
 40
1.0
 40
1.0
 40
1.0
 40
1.0
 10
142.5997587823
 20
754.1574388014
 30
0.0
 10
142.5997587823
 20
754.1085721553
 30
0.0
 10
142.7611733469
 20
754.0075821129
 30
0.0
 10
143.0437024047
 20
753.9313837412
 30
0.0
 10
143.5322747238
 20
753.8362345026
 30
0.0
 10
144.4638844751
 20
753.7252586538
 30
0.0
 10
145.9103816358
 20
753.6321291151
 30
0.0
 10
147.7997591245
 20
753.5956519404
 30
0.0
 10
149.6891366729
 20
753.6321611431
 30
0.0
 10
151.1356336147
 20
753.7253150176
 30
0.0
 10
152.0672431682
 20
753.8363068585
 30
0.0
 10
152.5558154426
 20
753.9314639523
 30
0.0
 10
152.8383446685
 20
754.0076679924
 30
0.0
 10
152.9997587819
 20
754.1086596958
 30
0.0
 10
152.9997587819
 20
754.1575267544
 30
0.0
  0
SPLINE
  5
2D0
100
AcDbEntity
  8
DATUM_AXIS
100
AcDbSpline
 62
7
  6
CONTINUOUS
 70
0
 71
3
 72
19
 73
15
 74
0
 42
0.0000001
 43
0.0000001
 44
0.0000000001
 40
0.0
 40
0.0
 40
0.0
 40
0.0
 40
0.0138749841
 40
0.0435004825
 40
0.089879289
 40
0.1515860423
 40
0.3116438305
 40
0.5000004057
 40
0.688356914
 40
0.8484145122
 40
0.9101211335
 40
0.9564997907
 40
0.986125133
 40
1.0
 40
1.0
 40
1.0
 40
1.0
 10
422.9998863707
 20
754.1598101507
 30
0.0
 10
422.9998863707
 20
754.1109430921
 30
0.0
 10
422.8384722572
 20
754.0099513887
 30
0.0
 10
422.5559430312
 20
753.9337473486
 30
0.0
 10
422.0673707567
 20
753.8385902548
 30
0.0
 10
421.1357612031
 20
753.7275984139
 30
0.0
 10
419.6892642611
 20
753.6344445394
 30
0.0
 10
417.7998867125
 20
753.5979353368
 30
0.0
 10
415.9105092236
 20
753.6344125114
 30
0.0
 10
414.4640120627
 20
753.7275420502
 30
0.0
 10
413.5324023113
 20
753.8385178989
 30
0.0
 10
413.0438299921
 20
753.9336671375
 30
0.0
 10
412.7613009342
 20
754.0098655092
 30
0.0
 10
412.5998863695
 20
754.1108555516
 30
0.0
 10
412.5998863695
 20
754.1597221977
 30
0.0
  0
SPLINE
  5
2D1
100
AcDbEntity
  8
0
100
AcDbSpline
 62
7
  6
CONTINUOUS
 70
0
 71
3
 72
15
 73
11
 74
0
 42
0.0000001
 43
0.0000001
 44
0.0000000001
 40
0.0
 40
0.0
 40
0.0
 40
0.0
 40
0.125298346
 40
0.2503626503
 40
0.3752242631
 40
0.5000056114
 40
0.6248737829
 40
0.7497553326
 40
0.8747016505
 40
1.0
 40
1.0
 40
1.0
 40
1.0
 10
-467.2162423959
 20
700.8591670161
 30
0.0
 10
-467.2093439533
 20
696.7863267232
 30
0.0
 10
-467.1711144874
 20
688.6685630476
 30
0.0
 10
-467.3840427226
 20
676.3805403513
 30
0.0
 10
-463.4059672464
 20
664.6041230824
 30
0.0
 10
-456.1366798629
 20
654.6117190417
 30
0.0
 10
-446.142477719
 20
647.3431236936
 30
0.0
 10
-434.3652975723
 20
643.3686063024
 30
0.0
 10
-422.0807756847
 20
643.582145847
 30
0.0
 10
-413.9667855662
 20
643.543819586
 30
0.0
 10
-409.8939452385
 20
643.5368744347
 30
0.0
  0
SPLINE
  5
2D2
100
AcDbEntity
  8
0
100
AcDbSpline
 62
7
  6
CONTINUOUS
 70
0
 71
3
 72
15
 73
11
 74
0
 42
0.0000001
 43
0.0000001
 44
0.0000000001
 40
0.0
 40
0.0
 40
0.0
 40
0.0
 40
0.1252983495
 40
0.2502446673
 40
0.3751262171
 40
0.4999943886
 40
0.6247757369
 40
0.7496373497
 40
0.8747016541
 40
1.0
 40
1.0
 40
1.0
 40
1.0
 10
975.4614632714
 20
643.5368744362
 30
0.0
 10
979.5343035992
 20
643.5438195893
 30
0.0
 10
987.6482937107
 20
643.5821458045
 30
0.0
 10
999.9328156126
 20
643.3686064122
 30
0.0
 10
1011.7099956605
 20
647.3431241126
 30
0.0
 10
1021.7041976428
 20
654.6117196696
 30
0.0
 10
1028.9734848157
 20
664.6041238696
 30
0.0
 10
1032.9515599836
 20
676.3805412344
 30
0.0
 10
1032.7386315973
 20
688.6685639139
 30
0.0
 10
1032.7768611084
 20
696.7863275944
 30
0.0
 10
1032.7837595493
 20
700.8591678862
 30
0.0
  0
SPLINE
  5
2D3
100
AcDbEntity
  8
0
100
AcDbSpline
 62
7
  6
CONTINUOUS
 70
0
 71
3
 72
13
 73
9
 74
0
 42
0.0000001
 43
0.0000001
 44
0.0000000001
 40
0.0
 40
0.0
 40
0.0
 40
0.0
 40
0.0277353578
 40
0.0870029441
 40
0.1797973711
 40
0.3031339095
 40
0.6232502661
 40
1.0
 40
1.0
 40
1.0
 40
1.0
 10
172.7975526366
 20
1354.6318496959
 30
0.0
 10
172.7975526366
 20
1354.7022956832
 30
0.0
 10
173.0298031315
 20
1354.848496875
 30
0.0
 10
173.43789648
 20
1354.9578377971
 30
0.0
 10
174.1423428623
 20
1355.0950412348
 30
0.0
 10
175.4860155061
 20
1355.2552430602
 30
0.0
 10
177.5724356587
 20
1355.3896977935
 30
0.0
 10
179.3406330571
 20
1355.4237830781
 30
0.0
 10
180.2975526369
 20
1355.4237830781
 30
0.0
  0
SPLINE
  5
2D4
100
AcDbEntity
  8
0
100
AcDbSpline
 62
7
  6
CONTINUOUS
 70
0
 71
3
 72
13
 73
9
 74
0
 42
0.0000001
 43
0.0000001
 44
0.0000000001
 40
0.0
 40
0.0
 40
0.0
 40
0.0
 40
0.3767497339
 40
0.6968660905
 40
0.8202026289
 40
0.9129970559
 40
0.9722646422
 40
1.0
 40
1.0
 40
1.0
 40
1.0
 10
385.2975526443
 20
1355.4237830779
 30
0.0
 10
386.2544722241
 20
1355.4237830779
 30
0.0
 10
388.0226696225
 20
1355.3896977933
 30
0.0
 10
390.109089775
 20
1355.25524306
 30
0.0
 10
391.4527624189
 20
1355.0950412346
 30
0.0
 10
392.1572088012
 20
1354.9578377969
 30
0.0
 10
392.5653021497
 20
1354.8484968748
 30
0.0
 10
392.7975526446
 20
1354.7022956829
 30
0.0
 10
392.7975526446
 20
1354.6318496957
 30
0.0
  0
LINE
  5
2D5
100
AcDbEntity
  8
0
100
AcDbLine
 62
7
  6
CONTINUOUS
 10
-465.8453637847
 20
700.8712653493
 11
-465.8453152107
 21
747.8178432646
  0
SPLINE
  5
2D6
100
AcDbEntity
  8
0
100
AcDbSpline
 62
7
  6
CONTINUOUS
 70
0
 71
3
 72
12
 73
8
 74
0
 42
0.0000001
 43
0.0000001
 44
0.0000000001
 40
0.0
 40
0.0
 40
0.0
 40
0.0
 40
0.0398865324
 40
0.1042248467
 40
0.3113263515
 40
0.615089889
 40
1.0
 40
1.0
 40
1.0
 40
1.0
 10
422.6690627414
 20
1330.7120429989
 30
0.0
 10
422.6354694422
 20
1330.6263679067
 30
0.0
 10
422.4373964457
 20
1330.4610469169
 30
0.0
 10
421.7869236041
 20
1330.1734504277
 30
0.0
 10
420.4804413786
 20
1329.8662233715
 30
0.0
 10
418.4440160656
 20
1329.5475998054
 30
0.0
 10
416.8615994879
 20
1329.3791549003
 30
0.0
 10
415.9773239641
 20
1329.2972585798
 30
0.0
  0
SPLINE
  5
2D7
100
AcDbEntity
  8
0
100
AcDbSpline
 62
7
  6
CONTINUOUS
 70
0
 71
3
 72
16
 73
12
 74
0
 42
0.0000001
 43
0.0000001
 44
0.0000000001
 40
0.0
 40
0.0
 40
0.0
 40
0.0
 40
0.1252641846
 40
0.2503520976
 40
0.37510006
 40
0.4998923913
 40
0.6247142877
 40
0.7494939466
 40
0.8121045159
 40
0.8747355858
 40
1.0
 40
1.0
 40
1.0
 40
1.0
 10
-411.1356046377
 20
644.9105043103
 30
0.0
 10
-415.0666647455
 20
644.9189186126
 30
0.0
 10
-422.9012792916
 20
644.9153909839
 30
0.0
 10
-434.7715499683
 20
644.8326150447
 30
0.0
 10
-446.068762158
 20
648.8865912308
 30
0.0
 10
-455.5969590484
 20
656.0491558565
 30
0.0
 10
-462.4609067802
 20
665.8108641243
 30
0.0
 10
-465.4831934488
 20
675.3296874359
 30
0.0
 10
-465.9049590032
 20
683.1833362622
 30
0.0
 10
-465.8062453719
 20
691.0429114813
 30
0.0
 10
-465.83841982
 20
696.9401948967
 30
0.0
 10
-465.845061466
 20
700.8712656065
 30
0.0
  0
LINE
  5
2D8
100
AcDbEntity
  8
0
100
AcDbLine
 62
7
  6
CONTINUOUS
 10
-409.8899622538
 20
644.9080894238
 11
-411.1356046377
 21
644.9105043103
  0
SPLINE
  5
2D9
100
AcDbEntity
  8
0
100
AcDbSpline
 62
7
  6
CONTINUOUS
 70
0
 71
3
 72
8
 73
4
 74
0
 42
0.0000001
 43
0.0000001
 44
0.0000000001
 40
0.0
 40
0.0
 40
0.0
 40
0.0
 40
1.0
 40
1.0
 40
1.0
 40
1.0
 10
425.0213711358
 20
1336.6607500116
 30
0.0
 10
424.242679217
 20
1334.6757165676
 30
0.0
 10
423.447739615
 20
1332.6970823449
 30
0.0
 10
422.6690627414
 20
1330.7120429989
 30
0.0
  0
SPLINE
  5
2DA
100
AcDbEntity
  8
0
100
AcDbSpline
 62
7
  6
CONTINUOUS
 70
0
 71
3
 72
8
 73
4
 74
0
 42
0.0000001
 43
0.0000001
 44
0.0000000001
 40
0.0
 40
0.0
 40
0.0
 40
0.0
 40
1.0
 40
1.0
 40
1.0
 40
1.0
 10
-104.0054969944
 20
644.9082464209
 30
0.0
 10
-205.9669854145
 20
644.9060892702
 30
0.0
 10
-307.9284738905
 20
644.9094584916
 30
0.0
 10
-409.8899623231
 20
644.9080091359
 30
0.0
  0
SPLINE
  5
2DB
100
AcDbEntity
  8
0
100
AcDbSpline
 62
7
  6
CONTINUOUS
 70
0
 71
3
 72
8
 73
4
 74
0
 42
0.0000001
 43
0.0000001
 44
0.0000000001
 40
0.0
 40
0.0
 40
0.0
 40
0.0
 40
1.0
 40
1.0
 40
1.0
 40
1.0
 10
973.2857867949
 20
644.9080290097
 30
0.0
 10
874.8488703424
 20
644.9087026613
 30
0.0
 10
776.4119538843
 20
644.9080040678
 30
0.0
 10
677.9750374308
 20
644.9085211045
 30
0.0
  0
LINE
  5
2DC
100
AcDbEntity
  8
0
100
AcDbLine
 62
7
  6
CONTINUOUS
 10
975.4574793796
 20
644.9080053219
 11
973.2857867949
 21
644.9080290097
  0
SPLINE
  5
2DD
100
AcDbEntity
  8
0
100
AcDbSpline
 62
7
  6
CONTINUOUS
 70
0
 71
3
 72
8
 73
4
 74
0
 42
0.0000001
 43
0.0000001
 44
0.0000000001
 40
0.0
 40
0.0
 40
0.0
 40
0.0
 40
1.0
 40
1.0
 40
1.0
 40
1.0
 10
482.799822549
 20
1336.6613170378
 30
0.0
 10
495.799658248
 20
1336.6614425856
 30
0.0
 10
508.7994940086
 20
1336.6626373982
 30
0.0
 10
521.7993296476
 20
1336.6613832968
 30
0.0
  0
SPLINE
  5
2DE
100
AcDbEntity
  8
0
100
AcDbSpline
 62
7
  6
CONTINUOUS
 70
0
 71
3
 72
19
 73
15
 74
0
 42
0.0000001
 43
0.0000001
 44
0.0000000001
 40
0.0
 40
0.0
 40
0.0
 40
0.0
 40
0.0625957547
 40
0.1251914704
 40
0.1877766569
 40
0.2503160725
 40
0.3750245127
 40
0.4997606493
 40
0.6245303489
 40
0.687087751
 40
0.7496348691
 40
0.8122130474
 40
0.8748086657
 40
1.0
 40
1.0
 40
1.0
 40
1.0
 10
1031.4061346096
 20
697.831581206
 30
0.0
 10
1031.401746953
 20
695.9033868926
 30
0.0
 10
1031.3885079172
 20
692.0467231618
 30
0.0
 10
1031.4399583058
 20
686.2636375162
 30
0.0
 10
1031.4146918615
 20
680.4771326794
 30
0.0
 10
1030.465420971
 20
672.8119884098
 30
0.0
 10
1026.865060664
 20
663.7123955733
 30
0.0
 10
1019.6034836374
 20
654.5514510634
 30
0.0
 10
1011.4852245187
 20
649.102416305
 30
0.0
 10
1004.284977262
 20
646.3168456835
 30
0.0
 10
998.5986745646
 20
645.1170338834
 30
0.0
 10
992.8092776764
 20
644.8501876036
 30
0.0
 10
985.0993186381
 20
644.9480509491
 30
0.0
 10
979.3138670878
 20
644.914562595
 30
0.0
 10
975.4574793101
 20
644.9080856631
 30
0.0
  0
SPLINE
  5
2DF
100
AcDbEntity
  8
0
100
AcDbSpline
 62
7
  6
CONTINUOUS
 70
0
 71
3
 72
8
 73
4
 74
0
 42
0.0000001
 43
0.0000001
 44
0.0000000001
 40
0.0
 40
0.0
 40
0.0
 40
0.0
 40
1.0
 40
1.0
 40
1.0
 40
1.0
 10
1031.4125785619
 20
700.8712658267
 30
0.0
 10
1031.4108638872
 20
699.8580367938
 30
0.0
 10
1031.4084334485
 20
698.8448090819
 30
0.0
 10
1031.4061346096
 20
697.831581206
 30
0.0
  0
SPLINE
  5
2E0
100
AcDbEntity
  8
0
100
AcDbSpline
 62
7
  6
CONTINUOUS
 70
0
 71
3
 72
8
 73
4
 74
0
 42
0.0000001
 43
0.0000001
 44
0.0000000001
 40
0.0
 40
0.0
 40
0.0
 40
0.0
 40
1.0
 40
1.0
 40
1.0
 40
1.0
 10
1031.4127092785
 20
1021.1290779626
 30
0.0
 10
1031.4126190762
 20
914.3764738315
 30
0.0
 10
1031.4116883656
 20
807.6238696937
 30
0.0
 10
1031.4128808885
 20
700.8712655692
 30
0.0
  0
LINE
  5
2E1
100
AcDbEntity
  8
0
100
AcDbLine
 62
7
  6
CONTINUOUS
 10
1031.4126922714
 20
1043.5374566137
 11
1031.4127092785
 21
1021.1290779626
  0
SPLINE
  5
2E2
100
AcDbEntity
  8
0
100
AcDbSpline
 62
7
  6
CONTINUOUS
 70
0
 71
3
 72
8
 73
4
 74
0
 42
0.0000001
 43
0.0000001
 44
0.0000000001
 40
0.0
 40
0.0
 40
0.0
 40
0.0
 40
1.0
 40
1.0
 40
1.0
 40
1.0
 10
38.9186182895
 20
1336.6569085707
 30
0.0
 10
53.5456862056
 20
1336.6592047836
 30
0.0
 10
68.1727544804
 20
1336.6572346281
 30
0.0
 10
82.799822576
 20
1336.6573915178
 30
0.0
  0
SPLINE
  5
2E3
100
AcDbEntity
  8
0
100
AcDbSpline
 62
7
  6
CONTINUOUS
 70
0
 71
3
 72
12
 73
8
 74
0
 42
0.0000001
 43
0.0000001
 44
0.0000000001
 40
0.0
 40
0.0
 40
0.0
 40
0.0
 40
0.0320910905
 40
0.0887764508
 40
0.2912852825
 40
0.6134416095
 40
1.0
 40
1.0
 40
1.0
 40
1.0
 10
140.5783198784
 20
1336.6579585444
 30
0.0
 10
140.5436748719
 20
1336.8112155686
 30
0.0
 10
140.5154905978
 20
1337.2476664327
 30
0.0
 10
140.4922038858
 20
1338.6714360838
 30
0.0
 10
140.5565675788
 20
1341.5199520206
 30
0.0
 10
140.5608641886
 20
1345.979446441
 30
0.0
 10
140.7124847397
 20
1349.4510687056
 30
0.0
 10
140.8979023917
 20
1351.3346284122
 30
0.0
  0
SPLINE
  5
2E4
100
AcDbEntity
  8
0
100
AcDbSpline
 62
7
  6
CONTINUOUS
 70
0
 71
3
 72
12
 73
8
 74
0
 42
0.0000001
 43
0.0000001
 44
0.0000000001
 40
0.0
 40
0.0
 40
0.0
 40
0.0
 40
0.3866027053
 40
0.7087919494
 40
0.9113589086
 40
0.9680042432
 40
1.0
 40
1.0
 40
1.0
 40
1.0
 10
424.70309977
 20
1351.3291791144
 30
0.0
 10
424.8869061874
 20
1349.4463167977
 30
0.0
 10
425.0383970282
 20
1345.976369587
 30
0.0
 10
425.0437506596
 20
1341.5187442819
 30
0.0
 10
425.107005573
 20
1338.6715115732
 30
0.0
 10
425.0844092882
 20
1337.2490027666
 30
0.0
 10
425.0563029056
 20
1336.8133724448
 30
0.0
 10
425.0213711358
 20
1336.6607500116
 30
0.0
  0
SPLINE
  5
2E5
100
AcDbEntity
  8
0
100
AcDbSpline
 62
7
  6
CONTINUOUS
 70
0
 71
3
 72
9
 73
5
 74
0
 42
0.0000001
 43
0.0000001
 44
0.0000000001
 40
0.0
 40
0.0
 40
0.0
 40
0.0
 40
0.4999999964
 40
1.0
 40
1.0
 40
1.0
 40
1.0
 10
43.8008948675
 20
750.4121620064
 30
0.0
 10
124.2810091069
 20
750.4045105164
 30
0.0
 10
285.2412394736
 20
750.4272732825
 30
0.0
 10
446.2014711461
 20
750.4041826947
 30
0.0
 10
526.6815859087
 20
750.4168135634
 30
0.0
  0
SPLINE
  5
2E6
100
AcDbEntity
  8
0
100
AcDbSpline
 62
7
  6
CONTINUOUS
 70
0
 71
3
 72
11
 73
7
 74
0
 42
0.0000001
 43
0.0000001
 44
0.0000000001
 40
0.0
 40
0.0
 40
0.0
 40
0.0
 40
0.1249908026
 40
0.2500240145
 40
0.5000091762
 40
1.0
 40
1.0
 40
1.0
 40
1.0
 10
142.9117894209
 20
1330.7095042362
 30
0.0
 10
142.8300429359
 20
1330.9628638513
 30
0.0
 10
142.6134932182
 20
1331.4507471169
 30
0.0
 10
142.2343377106
 20
1332.4456172587
 30
0.0
 10
141.5479232549
 20
1334.1785677014
 30
0.0
 10
140.9672281001
 20
1335.6665691264
 30
0.0
 10
140.5783198784
 20
1336.6579585444
 30
0.0
  0
SPLINE
  5
2E7
100
AcDbEntity
  8
DATUM_AXIS
100
AcDbSpline
 62
7
  6
CONTINUOUS
 70
0
 71
3
 72
19
 73
15
 74
0
 42
0.0000001
 43
0.0000001
 44
0.0000000001
 40
0.0
 40
0.0
 40
0.0
 40
0.0
 40
0.013874867
 40
0.0435002093
 40
0.0898788665
 40
0.1515854878
 40
0.311643086
 40
0.4999995943
 40
0.6883561695
 40
0.8484139577
 40
0.910120711
 40
0.9564995175
 40
0.9861250159
 40
1.0
 40
1.0
 40
1.0
 40
1.0
 10
152.9997587819
 20
754.1575267544
 30
0.0
 10
152.9997587819
 20
754.2063934005
 30
0.0
 10
152.8383442173
 20
754.3073834429
 30
0.0
 10
152.5558151595
 20
754.3835818147
 30
0.0
 10
152.0672428404
 20
754.4787310533
 30
0.0
 10
151.1356330891
 20
754.589706902
 30
0.0
 10
149.6891359285
 20
754.6828364408
 30
0.0
 10
147.7997584397
 20
754.7193136154
 30
0.0
 10
145.9103808913
 20
754.6828044127
 30
0.0
 10
144.4638839495
 20
754.5896505382
 30
0.0
 10
143.5322743961
 20
754.4786586973
 30
0.0
 10
143.0437021216
 20
754.3835016036
 30
0.0
 10
142.7611728957
 20
754.3072975634
 30
0.0
 10
142.5997587823
 20
754.20630586
 30
0.0
 10
142.5997587823
 20
754.1574388014
 30
0.0
  0
SPLINE
  5
2E8
100
AcDbEntity
  8
0
100
AcDbSpline
 62
7
  6
CONTINUOUS
 70
0
 71
3
 72
12
 73
8
 74
0
 42
0.0000001
 43
0.0000001
 44
0.0000000001
 40
0.0
 40
0.0
 40
0.0
 40
0.0
 40
0.3957731709
 40
0.7019741513
 40
0.9035959926
 40
0.9638635618
 40
1.0
 40
1.0
 40
1.0
 40
1.0
 10
152.7646313725
 20
1328.9653684385
 30
0.0
 10
151.4316309357
 20
1329.0445282459
 30
0.0
 10
149.0657053662
 20
1329.2228674104
 30
0.0
 10
146.0505202933
 20
1329.6085541125
 30
0.0
 10
144.1506081898
 20
1330.000609398
 30
0.0
 10
143.230885024
 20
1330.3777516944
 30
0.0
 10
142.9563146606
 20
1330.595999726
 30
0.0
 10
142.9117894209
 20
1330.7095042362
 30
0.0
  0
SPLINE
  5
2E9
100
AcDbEntity
  8
DATUM_AXIS
100
AcDbSpline
 62
7
  6
CONTINUOUS
 70
0
 71
3
 72
19
 73
15
 74
0
 42
0.0000001
 43
0.0000001
 44
0.0000000001
 40
0.0
 40
0.0
 40
0.0
 40
0.0
 40
0.0138749841
 40
0.0435004825
 40
0.089879289
 40
0.1515860423
 40
0.3116438305
 40
0.5000004057
 40
0.688356914
 40
0.8484145122
 40
0.9101211335
 40
0.9564997907
 40
0.986125133
 40
1.0
 40
1.0
 40
1.0
 40
1.0
 10
412.5998863695
 20
754.1597221977
 30
0.0
 10
412.5998863695
 20
754.2085892564
 30
0.0
 10
412.761300483
 20
754.3095809598
 30
0.0
 10
413.043829709
 20
754.3857849999
 30
0.0
 10
413.5324019835
 20
754.4809420936
 30
0.0
 10
414.4640115371
 20
754.5919339345
 30
0.0
 10
415.9105084792
 20
754.685087809
 30
0.0
 10
417.7998860277
 20
754.7215970117
 30
0.0
 10
419.6892635166
 20
754.6851198371
 30
0.0
 10
421.1357606775
 20
754.5919902983
 30
0.0
 10
422.067370429
 20
754.4810144496
 30
0.0
 10
422.5559427481
 20
754.385865211
 30
0.0
 10
422.838471806
 20
754.3096668393
 30
0.0
 10
422.9998863707
 20
754.2086767969
 30
0.0
 10
422.9998863707
 20
754.1598101507
 30
0.0
  0
SPLINE
  5
2EA
100
AcDbEntity
  8
0
100
AcDbSpline
 62
7
  6
CONTINUOUS
 70
0
 71
3
 72
12
 73
8
 74
0
 42
0.0000001
 43
0.0000001
 44
0.0000000001
 40
0.0
 40
0.0
 40
0.0
 40
0.0
 40
0.2500123359
 40
0.4999877655
 40
0.6249950715
 40
0.7499904256
 40
1.0
 40
1.0
 40
1.0
 40
1.0
 10
-59.1735893913
 20
804.2767347864
 30
0.0
 10
-50.8277199465
 20
801.9311596233
 30
0.0
 10
-33.9118254795
 20
798.0027707416
 30
0.0
 10
-12.4019173225
 20
795.1006198622
 30
0.0
 10
4.9073937622
 20
794.0071604244
 30
0.0
 10
22.2468022783
 20
793.7802935515
 30
0.0
 10
35.2492202517
 20
793.6985202794
 30
0.0
 10
43.9183310794
 20
793.7093309877
 30
0.0
  0
SPLINE
  5
2EB
100
AcDbEntity
  8
0
100
AcDbSpline
 62
7
  6
CONTINUOUS
 70
0
 71
3
 72
15
 73
11
 74
0
 42
0.0000001
 43
0.0000001
 44
0.0000000001
 40
0.0
 40
0.0
 40
0.0
 40
0.0
 40
0.1239534179
 40
0.2479074858
 40
0.3718607178
 40
0.4958634151
 40
0.619933306
 40
0.7455874309
 40
0.8702105817
 40
1.0
 40
1.0
 40
1.0
 40
1.0
 10
43.8008948675
 20
750.4121620064
 30
0.0
 10
43.8007199489
 20
752.2162967231
 30
0.0
 10
43.8168815814
 20
755.8247429711
 30
0.0
 10
43.7923374895
 20
761.2363667208
 30
0.0
 10
43.7309338036
 20
766.6521109692
 30
0.0
 10
44.0165027449
 20
772.0572389296
 30
0.0
 10
43.8421687799
 20
777.5203771109
 30
0.0
 10
42.8013103753
 20
782.8513983469
 30
0.0
 10
41.7346116619
 20
788.3822993819
 30
0.0
 10
43.0202833111
 20
792.0452774031
 30
0.0
 10
43.9182963017
 20
793.7072599451
 30
0.0
  0
SPLINE
  5
2EC
100
AcDbEntity
  8
0
100
AcDbSpline
 62
7
  6
CONTINUOUS
 70
0
 71
3
 72
11
 73
7
 74
0
 42
0.0000001
 43
0.0000001
 44
0.0000000001
 40
0.0
 40
0.0
 40
0.0
 40
0.0
 40
0.2086514409
 40
0.4436675767
 40
0.7047789124
 40
1.0
 40
1.0
 40
1.0
 40
1.0
 10
-59.1735894301
 20
804.2767347977
 30
0.0
 10
-62.7509137657
 20
801.063969797
 30
0.0
 10
-69.9346700126
 20
793.7641943872
 30
0.0
 10
-80.5318808573
 20
781.4500064497
 30
0.0
 10
-91.7034353444
 20
767.0240280763
 30
0.0
 10
-98.9177305718
 20
756.4143736309
 30
0.0
 10
-102.5835458838
 20
750.6833210481
 30
0.0
  0
SPLINE
  5
2ED
100
AcDbEntity
  8
0
100
AcDbSpline
 62
7
  6
CONTINUOUS
 70
0
 71
3
 72
13
 73
9
 74
0
 42
0.0000001
 43
0.0000001
 44
0.0000000001
 40
0.0
 40
0.0
 40
0.0
 40
0.0
 40
0.2494221056
 40
0.4989700154
 40
0.624182193
 40
0.7494243924
 40
0.8747008357
 40
1.0
 40
1.0
 40
1.0
 40
1.0
 10
-65.6769606973
 20
1280.8737631574
 30
0.0
 10
-90.3483822401
 20
1273.2291810103
 30
0.0
 10
-137.3555469152
 20
1249.1288801584
 30
0.0
 10
-183.0070725407
 20
1201.7564072468
 30
0.0
 10
-209.2986261747
 20
1156.9450406711
 30
0.0
 10
-223.6277790451
 20
1120.5967010577
 30
0.0
 10
-232.2530836684
 20
1082.5027728708
 30
0.0
 10
-234.1504001645
 20
1056.5120285594
 30
0.0
 10
-234.1505277769
 20
1043.5368069817
 30
0.0
  0
SPLINE
  5
2EE
100
AcDbEntity
  8
0
100
AcDbSpline
 62
7
  6
CONTINUOUS
 70
0
 71
3
 72
16
 73
12
 74
0
 42
0.0000001
 43
0.0000001
 44
0.0000000001
 40
0.0
 40
0.0
 40
0.0
 40
0.0
 40
0.1250575952
 40
0.2500829476
 40
0.3750853528
 40
0.5000666254
 40
0.6250323571
 40
0.7499881346
 40
0.874936549
 40
0.9374678796
 40
1.0
 40
1.0
 40
1.0
 40
1.0
 10
-234.1505277769
 20
1043.5368069817
 30
0.0
 10
-234.1504586514
 20
1030.2812283821
 30
0.0
 10
-232.1705962325
 20
1003.7282032694
 30
0.0
 10
-223.1649709946
 20
964.8480673759
 30
0.0
 10
-208.2209277611
 20
927.8350209458
 30
0.0
 10
-187.6080350147
 20
893.6567478437
 30
0.0
 10
-161.7564498624
 20
863.2428370139
 30
0.0
 10
-131.263861905
 20
837.4864840256
 30
0.0
 10
-102.5798942074
 20
820.5850438019
 30
0.0
 10
-78.1802124636
 20
810.1751999572
 30
0.0
 10
-65.5548330269
 20
806.0689339413
 30
0.0
 10
-59.1735881707
 20
804.2767358827
 30
0.0
  0
SPLINE
  5
2EF
100
AcDbEntity
  8
0
100
AcDbSpline
 62
7
  6
CONTINUOUS
 70
0
 71
3
 72
20
 73
16
 74
0
 42
0.0000001
 43
0.0000001
 44
0.0000000001
 40
0.0
 40
0.0
 40
0.0
 40
0.0
 40
0.1249819608
 40
0.2499462829
 40
0.3748874573
 40
0.4998081923
 40
0.6247133238
 40
0.6872466416
 40
0.7497849342
 40
0.8123230882
 40
0.8748629104
 40
0.9061459822
 40
0.9374302913
 40
0.9687150868
 40
1.0
 40
1.0
 40
1.0
 40
1.0
 10
-391.1692273539
 20
1043.5509918062
 30
0.0
 10
-391.1702378716
 20
1024.4627208276
 30
0.0
 10
-387.6891662986
 20
986.1938213586
 30
0.0
 10
-371.9560211081
 20
930.8027166251
 30
0.0
 10
-345.9023796662
 20
879.4094685171
 30
0.0
 10
-310.2039970576
 20
834.1832993757
 30
0.0
 10
-273.390054558
 20
803.268126715
 30
0.0
 10
-240.6745587567
 20
783.4803369985
 30
0.0
 10
-214.7138478561
 20
771.2282139836
 30
0.0
 10
-187.6344808247
 20
761.7109056287
 30
0.0
 10
-164.3677209589
 20
756.1326787195
 30
0.0
 10
-145.4940107133
 20
753.108276006
 30
0.0
 10
-131.237131796
 20
751.5705386996
 30
0.0
 10
-116.9201818651
 20
750.7254091825
 30
0.0
 10
-107.3615789562
 20
750.7090059215
 30
0.0
 10
-102.5835509255
 20
750.6849172294
 30
0.0
  0
SPLINE
  5
2F0
100
AcDbEntity
  8
0
100
AcDbSpline
 62
7
  6
CONTINUOUS
 70
0
 71
3
 72
15
 73
11
 74
0
 42
0.0000001
 43
0.0000001
 44
0.0000000001
 40
0.0
 40
0.0
 40
0.0
 40
0.0
 40
0.1249985043
 40
0.2499800703
 40
0.3749514316
 40
0.4999239281
 40
0.6249114487
 40
0.7499214537
 40
0.8749536382
 40
1.0
 40
1.0
 40
1.0
 40
1.0
 10
-112.239195109
 20
1336.3230169507
 30
0.0
 10
-130.9159557123
 20
1336.028319463
 30
0.0
 10
-168.3173786039
 20
1331.74130857
 30
0.0
 10
-221.9432161188
 20
1314.2907767309
 30
0.0
 10
-271.0024310027
 20
1286.4396608159
 30
0.0
 10
-313.4793141924
 20
1249.3286531283
 30
0.0
 10
-347.7671398556
 20
1204.5515910872
 30
0.0
 10
-372.7487763591
 20
1153.9979368106
 30
0.0
 10
-387.8298479929
 20
1099.6962833466
 30
0.0
 10
-391.1684905715
 20
1062.2372287978
 30
0.0
 10
-391.1692304161
 20
1043.5509918108
 30
0.0
  0
SPLINE
  5
2F1
100
AcDbEntity
  8
0
100
AcDbSpline
 62
7
  6
CONTINUOUS
 70
0
 71
3
 72
11
 73
7
 74
0
 42
0.0000001
 43
0.0000001
 44
0.0000000001
 40
0.0
 40
0.0
 40
0.0
 40
0.0
 40
0.2057435285
 40
0.4396357833
 40
0.7015280376
 40
1.0
 40
1.0
 40
1.0
 40
1.0
 10
-65.676960698
 20
1280.8737631572
 30
0.0
 10
-69.4823225836
 20
1284.0846809851
 30
0.0
 10
-77.1424921488
 20
1291.4999448988
 30
0.0
 10
-88.4662753356
 20
1304.1564137562
 30
0.0
 10
-100.4875475151
 20
1319.1693125458
 30
0.0
 10
-108.2694847946
 20
1330.2886829211
 30
0.0
 10
-112.2391962597
 20
1336.3231063638
 30
0.0
  0
SPLINE
  5
2F2
100
AcDbEntity
  8
0
100
AcDbSpline
 62
7
  6
CONTINUOUS
 70
0
 71
3
 72
9
 73
5
 74
0
 42
0.0000001
 43
0.0000001
 44
0.0000000001
 40
0.0
 40
0.0
 40
0.0
 40
0.0
 40
0.499949738
 40
1.0
 40
1.0
 40
1.0
 40
1.0
 10
8.6543006824
 20
1293.0752559585
 30
0.0
 10
-3.9244535161
 20
1292.7654923707
 30
0.0
 10
-29.0713988985
 20
1290.3797946194
 30
0.0
 10
-53.6466701609
 20
1284.5692206282
 30
0.0
 10
-65.6769824342
 20
1280.8737814987
 30
0.0
  0
SPLINE
  5
2F3
100
AcDbEntity
  8
0
100
AcDbSpline
 62
7
  6
CONTINUOUS
 70
0
 71
3
 72
9
 73
5
 74
0
 42
0.0000001
 43
0.0000001
 44
0.0000000001
 40
0.0
 40
0.0
 40
0.0
 40
0.0
 40
0.4999945537
 40
1.0
 40
1.0
 40
1.0
 40
1.0
 10
-90.9560069203
 20
1336.4471189293
 30
0.0
 10
-94.5031945344
 20
1336.4316146184
 30
0.0
 10
-101.597485796
 20
1336.3866912536
 30
0.0
 10
-108.692337391
 20
1336.3789750591
 30
0.0
 10
-112.2391946562
 20
1336.3230095435
 30
0.0
  0
SPLINE
  5
2F4
100
AcDbEntity
  8
0
100
AcDbSpline
 62
7
  6
CONTINUOUS
 70
0
 71
3
 72
10
 73
6
 74
0
 42
0.0000001
 43
0.0000001
 44
0.0000000001
 40
0.0
 40
0.0
 40
0.0
 40
0.0
 40
0.5000251264
 40
0.7500152987
 40
1.0
 40
1.0
 40
1.0
 40
1.0
 10
40.3414444037
 20
1293.3702207082
 30
0.0
 10
35.0596880607
 20
1293.3727221318
 30
0.0
 10
27.1371285133
 20
1293.3402103423
 30
0.0
 10
16.575036033
 20
1293.2093873806
 30
0.0
 10
11.2940697216
 20
1293.1409171595
 30
0.0
 10
8.6543021755
 20
1293.0752511394
 30
0.0
  0
SPLINE
  5
2F5
100
AcDbEntity
  8
0
100
AcDbSpline
 62
7
  6
CONTINUOUS
 70
0
 71
3
 72
9
 73
5
 74
0
 42
0.0000001
 43
0.0000001
 44
0.0000000001
 40
0.0
 40
0.0
 40
0.0
 40
0.0
 40
0.2494552587
 40
1.0
 40
1.0
 40
1.0
 40
1.0
 10
-5.0312951673
 20
1336.6431774035
 30
0.0
 10
-1.3767847451
 20
1336.6452288335
 30
0.0
 10
13.2731793157
 20
1336.6523000293
 30
0.0
 10
27.9231449957
 20
1336.6562235567
 30
0.0
 10
38.9185997362
 20
1336.6568782837
 30
0.0
  0
SPLINE
  5
2F6
100
AcDbEntity
  8
0
100
AcDbSpline
 62
7
  6
CONTINUOUS
 70
0
 71
3
 72
13
 73
9
 74
0
 42
0.0000001
 43
0.0000001
 44
0.0000000001
 40
0.0
 40
0.0
 40
0.0
 40
0.0
 40
0.1251027609
 40
0.2502201846
 40
0.3753826719
 40
0.5005655634
 40
0.750247192
 40
1.0
 40
1.0
 40
1.0
 40
1.0
 10
627.4124669292
 20
840.5530820531
 30
0.0
 10
637.7324342769
 20
844.0964129076
 30
0.0
 10
657.8027064719
 20
852.9789860297
 30
0.0
 10
685.243980152
 20
871.0903126922
 30
0.0
 10
709.4128722487
 20
893.4032063685
 30
0.0
 10
736.509207824
 20
927.7704996096
 30
0.0
 10
759.93608827
 20
977.9297672757
 30
0.0
 10
766.0945002119
 20
1021.7537191896
 30
0.0
 10
766.0950602139
 20
1043.5368754196
 30
0.0
  0
SPLINE
  5
2F7
100
AcDbEntity
  8
0
100
AcDbSpline
 62
7
  6
CONTINUOUS
 70
0
 71
3
 72
10
 73
6
 74
0
 42
0.0000001
 43
0.0000001
 44
0.0000000001
 40
0.0
 40
0.0
 40
0.0
 40
0.0
 40
0.4998208404
 40
0.7499156691
 40
1.0
 40
1.0
 40
1.0
 40
1.0
 10
556.949384409
 20
828.0493349656
 30
0.0
 10
568.9051808793
 20
828.3656320093
 30
0.0
 10
586.8453339306
 20
830.2064958831
 30
0.0
 10
610.2425262704
 20
835.2673813185
 30
0.0
 10
621.7525896562
 20
838.6099260067
 30
0.0
 10
627.4124669292
 20
840.5530820531
 30
0.0
  0
SPLINE
  5
2F8
100
AcDbEntity
  8
0
100
AcDbSpline
 62
7
  6
CONTINUOUS
 70
0
 71
3
 72
9
 73
5
 74
0
 42
0.0000001
 43
0.0000001
 44
0.0000000001
 40
0.0
 40
0.0
 40
0.0
 40
0.0
 40
0.5000032933
 40
1.0
 40
1.0
 40
1.0
 40
1.0
 10
526.1316646485
 20
827.6962232649
 30
0.0
 10
531.2683789129
 20
827.7037484272
 30
0.0
 10
541.541399401
 20
827.7853487356
 30
0.0
 10
551.8145301436
 20
827.9134432289
 30
0.0
 10
556.949384409
 20
828.0493349656
 30
0.0
  0
SPLINE
  5
2F9
100
AcDbEntity
  8
0
100
AcDbSpline
 62
7
  6
CONTINUOUS
 70
0
 71
3
 72
9
 73
5
 74
0
 42
0.0000001
 43
0.0000001
 44
0.0000000001
 40
0.0
 40
0.0
 40
0.0
 40
0.0
 40
0.5000012541
 40
1.0
 40
1.0
 40
1.0
 40
1.0
 10
43.0371588235
 20
827.6952699597
 30
0.0
 10
123.5530817505
 20
827.7648108179
 30
0.0
 10
284.5846126838
 20
827.6094967903
 30
0.0
 10
445.616147668
 20
827.7681049454
 30
0.0
 10
526.1316646485
 20
827.6962232649
 30
0.0
  0
SPLINE
  5
2FA
100
AcDbEntity
  8
0
100
AcDbSpline
 62
7
  6
CONTINUOUS
 70
0
 71
3
 72
14
 73
10
 74
0
 42
0.0000001
 43
0.0000001
 44
0.0000000001
 40
0.0
 40
0.0
 40
0.0
 40
0.0
 40
0.2499699196
 40
0.4999232591
 40
0.6249331603
 40
0.6874433935
 40
0.7499542052
 40
0.8749764028
 40
1.0
 40
1.0
 40
1.0
 40
1.0
 10
-50.765584973
 20
837.1202236731
 30
0.0
 10
-43.1748716016
 20
834.9872524365
 30
0.0
 10
-27.7837149561
 20
831.4311742739
 30
0.0
 10
-8.2062974503
 20
828.8710270163
 30
0.0
 10
5.5763667434
 20
828.0881402962
 30
0.0
 10
13.4621813281
 20
827.9527325317
 30
0.0
 10
21.3479768111
 20
827.8188211026
 30
0.0
 10
31.2064838623
 20
827.7167509612
 30
0.0
 10
39.0935910713
 20
827.6981137135
 30
0.0
 10
43.0371588235
 20
827.6952699597
 30
0.0
  0
SPLINE
  5
2FB
100
AcDbEntity
  8
0
100
AcDbSpline
 62
7
  6
CONTINUOUS
 70
0
 71
3
 72
16
 73
12
 74
0
 42
0.0000001
 43
0.0000001
 44
0.0000000001
 40
0.0
 40
0.0
 40
0.0
 40
0.0
 40
0.1250635958
 40
0.2500986421
 40
0.3751148576
 40
0.5001101034
 40
0.6250842076
 40
0.7500368687
 40
0.8749665347
 40
0.9374842676
 40
1.0
 40
1.0
 40
1.0
 40
1.0
 10
-200.4948363674
 20
1043.5368754206
 30
0.0
 10
-200.4947131066
 20
1032.1319906802
 30
0.0
 10
-198.8229830358
 20
1009.2868317039
 30
0.0
 10
-191.1903115032
 20
975.8103206807
 30
0.0
 10
-178.4905092928
 20
943.9021438495
 30
0.0
 10
-160.9272948862
 20
914.3919829858
 30
0.0
 10
-138.8414895917
 20
888.0913604274
 30
0.0
 10
-112.7226660333
 20
865.7943622754
 30
0.0
 10
-88.0930690845
 20
851.1703349402
 30
0.0
 10
-67.1168863683
 20
842.1848535185
 30
0.0
 10
-56.2539901786
 20
838.6624787408
 30
0.0
 10
-50.765584973
 20
837.1202236731
 30
0.0
  0
SPLINE
  5
2FC
100
AcDbEntity
  8
0
100
AcDbSpline
 62
7
  6
CONTINUOUS
 70
0
 71
3
 72
11
 73
7
 74
0
 42
0.0000001
 43
0.0000001
 44
0.0000000001
 40
0.0
 40
0.0
 40
0.0
 40
0.0
 40
0.2496983579
 40
0.4996071062
 40
0.7497093381
 40
1.0
 40
1.0
 40
1.0
 40
1.0
 10
-56.4174893759
 20
1248.2829738482
 30
0.0
 10
-77.635512184
 20
1241.724155348
 30
0.0
 10
-118.0287104866
 20
1220.8275999691
 30
0.0
 10
-164.7809043158
 20
1171.7355657304
 30
0.0
 10
-194.0461778633
 20
1110.6011494669
 30
0.0
 10
-200.4942474911
 20
1065.7981712448
 30
0.0
 10
-200.4948363674
 20
1043.5368754206
 30
0.0
  0
SPLINE
  5
2FD
100
AcDbEntity
  8
0
100
AcDbSpline
 62
7
  6
CONTINUOUS
 70
0
 71
3
 72
9
 73
5
 74
0
 42
0.0000001
 43
0.0000001
 44
0.0000000001
 40
0.0
 40
0.0
 40
0.0
 40
0.0
 40
0.5000032933
 40
1.0
 40
1.0
 40
1.0
 40
1.0
 10
39.4681944744
 20
1259.3775036794
 30
0.0
 10
34.3315277072
 20
1259.3699771361
 30
0.0
 10
24.0586021661
 20
1259.2883776111
 30
0.0
 10
13.7855666011
 20
1259.1602767952
 30
0.0
 10
8.6507597012
 20
1259.0243905061
 30
0.0
  0
SPLINE
  5
2FE
100
AcDbEntity
  8
0
100
AcDbSpline
 62
7
  6
CONTINUOUS
 70
0
 71
3
 72
9
 73
5
 74
0
 42
0.0000001
 43
0.0000001
 44
0.0000000001
 40
0.0
 40
0.0
 40
0.0
 40
0.0
 40
0.5000012538
 40
1.0
 40
1.0
 40
1.0
 40
1.0
 10
522.5629783039
 20
1259.3784556756
 30
0.0
 10
442.0470090862
 20
1259.3089110022
 30
0.0
 10
281.01538548
 20
1259.4642295041
 30
0.0
 10
119.9837578287
 20
1259.3056215507
 30
0.0
 10
39.4681944744
 20
1259.3775036794
 30
0.0
  0
SPLINE
  5
2FF
100
AcDbEntity
  8
0
100
AcDbSpline
 62
7
  6
CONTINUOUS
 70
0
 71
3
 72
14
 73
10
 74
0
 42
0.0000001
 43
0.0000001
 44
0.0000000001
 40
0.0
 40
0.0
 40
0.0
 40
0.0
 40
0.2499699432
 40
0.4999232854
 40
0.6249331794
 40
0.6874434094
 40
0.7499542179
 40
0.8749764092
 40
1.0
 40
1.0
 40
1.0
 40
1.0
 10
616.3666097381
 20
1249.9533285394
 30
0.0
 10
608.7757880403
 20
1252.0861960405
 30
0.0
 10
593.3845333137
 20
1255.6424773083
 30
0.0
 10
573.8069205614
 20
1258.202662967
 30
0.0
 10
560.0241272338
 20
1258.9855844003
 30
0.0
 10
552.1382373965
 20
1259.1209932332
 30
0.0
 10
544.2523668747
 20
1259.2549060801
 30
0.0
 10
534.3937659318
 20
1259.3569787299
 30
0.0
 10
526.5065836088
 20
1259.375613263
 30
0.0
 10
522.5629783039
 20
1259.3784556756
 30
0.0
  0
SPLINE
  5
300
100
AcDbEntity
  8
0
100
AcDbSpline
 62
7
  6
CONTINUOUS
 70
0
 71
3
 72
16
 73
12
 74
0
 42
0.0000001
 43
0.0000001
 44
0.0000000001
 40
0.0
 40
0.0
 40
0.0
 40
0.0
 40
0.1250603306
 40
0.2500934445
 40
0.3751082984
 40
0.5001031744
 40
0.6250776915
 40
0.7500315081
 40
0.8749638706
 40
0.9374829432
 40
1.0
 40
1.0
 40
1.0
 40
1.0
 10
766.0950602139
 20
1043.5368754196
 30
0.0
 10
766.0949509812
 20
1054.9414282338
 30
0.0
 10
764.4232582356
 20
1077.786038288
 30
0.0
 10
756.7910063303
 20
1111.2619120854
 30
0.0
 10
744.0916607351
 20
1143.1698048417
 30
0.0
 10
726.5287814954
 20
1172.6798940965
 30
0.0
 10
704.4433526733
 20
1198.9808457907
 30
0.0
 10
678.3244633213
 20
1221.2782105921
 30
0.0
 10
653.6946878704
 20
1235.9027219291
 30
0.0
 10
632.7181592596
 20
1244.8884370839
 30
0.0
 10
621.855141263
 20
1248.4111397195
 30
0.0
 10
616.3666097381
 20
1249.9533285394
 30
0.0
  0
LINE
  5
301
100
AcDbEntity
  8
0
100
AcDbLine
 62
7
  6
CONTINUOUS
 10
-73.9357609645
 20
1350.7257437509
 11
-67.2001834854
 21
1350.7848172256
  0
SPLINE
  5
302
100
AcDbEntity
  8
0
100
AcDbSpline
 62
7
  6
CONTINUOUS
 70
0
 71
3
 72
9
 73
5
 74
0
 42
0.0000001
 43
0.0000001
 44
0.0000000001
 40
0.0
 40
0.0
 40
0.0
 40
0.0
 40
0.4999993646
 40
1.0
 40
1.0
 40
1.0
 40
1.0
 10
-73.9357609645
 20
1350.7257437509
 30
0.0
 10
-75.8220312363
 20
1350.6238132165
 30
0.0
 10
-79.6035994791
 20
1350.7886530359
 30
0.0
 10
-83.3816102585
 20
1350.5527173375
 30
0.0
 10
-85.269389553
 20
1350.621367518
 30
0.0
  0
SPLINE
  5
303
100
AcDbEntity
  8
0
100
AcDbSpline
 62
7
  6
CONTINUOUS
 70
0
 71
3
 72
8
 73
4
 74
0
 42
0.0000001
 43
0.0000001
 44
0.0000000001
 40
0.0
 40
0.0
 40
0.0
 40
0.0
 40
1.0
 40
1.0
 40
1.0
 40
1.0
 10
-93.5152251414
 20
1350.5431602615
 30
0.0
 10
-90.7666202172
 20
1350.5699509282
 30
0.0
 10
-88.0180082131
 20
1350.5960252455
 30
0.0
 10
-85.269389553
 20
1350.621367518
 30
0.0
  0
SPLINE
  5
304
100
AcDbEntity
  8
0
100
AcDbSpline
 62
7
  6
CONTINUOUS
 70
0
 71
3
 72
9
 73
5
 74
0
 42
0.0000001
 43
0.0000001
 44
0.0000000001
 40
0.0
 40
0.0
 40
0.0
 40
0.0
 40
0.5000000102
 40
1.0
 40
1.0
 40
1.0
 40
1.0
 10
-455.7851311031
 20
747.8178370352
 30
0.0
 10
-455.7717430145
 20
797.104169696
 30
0.0
 10
-455.7456716092
 20
895.6768462675
 30
0.0
 10
-455.5561683868
 20
994.2494043697
 30
0.0
 10
-455.5515350971
 20
1043.5357366229
 30
0.0
  0
SPLINE
  5
305
100
AcDbEntity
  8
0
100
AcDbSpline
 62
7
  6
CONTINUOUS
 70
0
 71
3
 72
16
 73
12
 74
0
 42
0.0000001
 43
0.0000001
 44
0.0000000001
 40
0.0
 40
0.0
 40
0.0
 40
0.0
 40
0.1251051706
 40
0.187685808
 40
0.2502617464
 40
0.3752310377
 40
0.500173721
 40
0.6251202367
 40
0.7500746615
 40
0.8750359364
 40
1.0
 40
1.0
 40
1.0
 40
1.0
 10
-93.5152642718
 20
1350.5434943944
 30
0.0
 10
-115.1980219775
 20
1350.9855268794
 30
0.0
 10
-147.8424919556
 20
1349.8928761026
 30
0.0
 10
-190.7819800961
 20
1343.3952220404
 30
0.0
 10
-232.9883341659
 20
1333.2449632803
 30
0.0
 10
-283.5578479753
 20
1312.6649116114
 30
0.0
 10
-337.5321561381
 20
1275.5425586664
 30
0.0
 10
-381.9633835681
 20
1227.4034860565
 30
0.0
 10
-415.026682662
 20
1170.8801234486
 30
0.0
 10
-435.4051664686
 20
1108.6791425224
 30
0.0
 10
-439.9818825383
 20
1065.2163099251
 30
0.0
 10
-439.9926980021
 20
1043.5535108877
 30
0.0
  0
SPLINE
  5
306
100
AcDbEntity
  8
0
100
AcDbSpline
 62
7
  6
CONTINUOUS
 70
0
 71
3
 72
11
 73
7
 74
0
 42
0.0000001
 43
0.0000001
 44
0.0000000001
 40
0.0
 40
0.0
 40
0.0
 40
0.0
 40
0.249989846
 40
0.4999869259
 40
0.749995958
 40
1.0
 40
1.0
 40
1.0
 40
1.0
 10
-370.0450303109
 20
848.284560481
 30
0.0
 10
-381.2746250017
 20
861.849900316
 30
0.0
 10
-401.3793246549
 20
891.0283233923
 30
0.0
 10
-423.4664738743
 20
939.3033265247
 30
0.0
 10
-436.9520198801
 20
990.6455756003
 30
0.0
 10
-439.9873223679
 20
1025.9422180368
 30
0.0
 10
-439.9785444804
 20
1043.553503829
 30
0.0
  0
SPLINE
  5
307
100
AcDbEntity
  8
0
100
AcDbSpline
 62
7
  6
CONTINUOUS
 70
0
 71
3
 72
22
 73
18
 74
0
 42
0.0000001
 43
0.0000001
 44
0.0000000001
 40
0.0
 40
0.0
 40
0.0
 40
0.0
 40
0.0625638573
 40
0.1251276451
 40
0.1876913157
 40
0.2502367412
 40
0.3127077717
 40
0.3751942285
 40
0.4997109849
 40
0.5622165798
 40
0.624733366
 40
0.6872453495
 40
0.749749342
 40
0.8123084946
 40
0.8748723298
 40
0.9374361377
 40
1.0
 40
1.0
 40
1.0
 40
1.0
 10
-411.1160589424
 20
654.9648383133
 30
0.0
 10
-412.7542450052
 20
654.9676244189
 30
0.0
 10
-416.0305143938
 20
654.973688861
 30
0.0
 10
-420.945535135
 20
654.9699698388
 30
0.0
 10
-425.8578481305
 20
654.9101259338
 30
0.0
 10
-430.7756174904
 20
654.9878479581
 30
0.0
 10
-435.6413134884
 20
655.854851681
 30
0.0
 10
-441.7475656905
 20
658.2543667003
 30
0.0
 10
-447.160835839
 20
662.1834837515
 30
0.0
 10
-451.2499009972
 20
667.3170257814
 30
0.0
 10
-453.6152457491
 20
671.6457871606
 30
0.0
 10
-455.2230578293
 20
676.319355045
 30
0.0
 10
-455.8233692337
 20
681.2212339999
 30
0.0
 10
-455.824596181
 20
686.1353196269
 30
0.0
 10
-455.7768299306
 20
691.0492780025
 30
0.0
 10
-455.7817407089
 20
695.9639770708
 30
0.0
 10
-455.7911055587
 20
699.2403104228
 30
0.0
 10
-455.7940192556
 20
700.8784963951
 30
0.0
  0
SPLINE
  5
308
100
AcDbEntity
  8
0
100
AcDbSpline
 62
7
  6
CONTINUOUS
 70
0
 71
3
 72
11
 73
7
 74
0
 42
0.0000001
 43
0.0000001
 44
0.0000000001
 40
0.0
 40
0.0
 40
0.0
 40
0.0
 40
0.2500027652
 40
0.5000079202
 40
0.7500006694
 40
1.0
 40
1.0
 40
1.0
 40
1.0
 10
-455.7755191727
 20
700.8782927667
 30
0.0
 10
-455.732466404
 20
704.7897298209
 30
0.0
 10
-455.791615578
 20
712.6134675315
 30
0.0
 10
-455.8061015273
 20
724.3482026478
 30
0.0
 10
-455.7809934575
 20
736.0830881491
 30
0.0
 10
-455.7917035004
 20
743.9062165936
 30
0.0
 10
-455.7919334746
 20
747.8178368331
 30
0.0
  0
SPLINE
  5
309
100
AcDbEntity
  8
0
100
AcDbSpline
 62
7
  6
CONTINUOUS
 70
0
 71
3
 72
8
 73
4
 74
0
 42
0.0000001
 43
0.0000001
 44
0.0000000001
 40
0.0
 40
0.0
 40
0.0
 40
0.0
 40
1.0
 40
1.0
 40
1.0
 40
1.0
 10
-104.0027871042
 20
655.1981734964
 30
0.0
 10
-205.9628706585
 20
655.1712123325
 30
0.0
 10
-307.9228766755
 20
654.9974441848
 30
0.0
 10
-409.8829579144
 20
654.9628168589
 30
0.0
  0
SPLINE
  5
30A
100
AcDbEntity
  8
0
100
AcDbSpline
 62
7
  6
CONTINUOUS
 70
0
 71
3
 72
14
 73
10
 74
0
 42
0.0000001
 43
0.0000001
 44
0.0000000001
 40
0.0
 40
0.0
 40
0.0
 40
0.0
 40
0.0371132541
 40
0.1057967285
 40
0.2039048983
 40
0.3283657489
 40
0.4751248459
 40
0.6395461276
 40
1.0
 40
1.0
 40
1.0
 40
1.0
 10
-65.6772513793
 20
1280.8736731089
 30
0.0
 10
-65.6382189795
 20
1280.4562388298
 30
0.0
 10
-65.3664719699
 20
1279.2873632754
 30
0.0
 10
-64.822847379
 20
1277.0523077404
 30
0.0
 10
-63.9602801395
 20
1273.8753349103
 30
0.0
 10
-62.8361823393
 20
1269.8581110173
 30
0.0
 10
-61.471464503
 20
1265.1295497994
 30
0.0
 10
-59.327821813
 20
1257.8515380133
 30
0.0
 10
-57.6112965061
 20
1252.175960659
 30
0.0
 10
-56.4174893759
 20
1248.2829738482
 30
0.0
  0
SPLINE
  5
30B
100
AcDbEntity
  8
0
100
AcDbSpline
 62
7
  6
CONTINUOUS
 70
0
 71
3
 72
14
 73
10
 74
0
 42
0.0000001
 43
0.0000001
 44
0.0000000001
 40
0.0
 40
0.0
 40
0.0
 40
0.0
 40
0.0357896347
 40
0.1035882994
 40
0.2012793881
 40
0.3257553082
 40
0.4728891422
 40
0.6379502772
 40
1.0
 40
1.0
 40
1.0
 40
1.0
 10
8.6545205042
 20
1293.0752614208
 30
0.0
 10
8.5607803607
 20
1292.6798402733
 30
0.0
 10
8.4968382569
 20
1291.4970623148
 30
0.0
 10
8.3896794597
 20
1289.2197474421
 30
0.0
 10
8.3456241927
 20
1285.9244280221
 30
0.0
 10
8.3249039172
 20
1281.7323154006
 30
0.0
 10
8.3487834598
 20
1276.7736333891
 30
0.0
 10
8.4340825539
 20
1269.1184057491
 30
0.0
 10
8.5515779509
 20
1263.1341590723
 30
0.0
 10
8.6507597011
 20
1259.0243905061
 30
0.0
  0
SPLINE
  5
30C
100
AcDbEntity
  8
0
100
AcDbSpline
 62
7
  6
CONTINUOUS
 70
0
 71
3
 72
14
 73
10
 74
0
 42
0.0000001
 43
0.0000001
 44
0.0000000001
 40
0.0
 40
0.0
 40
0.0
 40
0.0
 40
0.036370728
 40
0.1045579584
 40
0.2024381704
 40
0.3269178396
 40
0.4738975841
 40
0.6386827929
 40
1.0
 40
1.0
 40
1.0
 40
1.0
 10
40.3217386606
 20
1293.3712324419
 30
0.0
 10
40.2215607093
 20
1292.971177691
 30
0.0
 10
40.1271106956
 20
1291.7820718325
 30
0.0
 10
39.9668446766
 20
1289.4971151104
 30
0.0
 10
39.840803067
 20
1286.2022940306
 30
0.0
 10
39.7164676678
 20
1282.0171795174
 30
0.0
 10
39.6162008283
 20
1277.0712158973
 30
0.0
 10
39.5088363798
 20
1269.4400265432
 30
0.0
 10
39.4740785543
 20
1263.4744671644
 30
0.0
 10
39.4681944744
 20
1259.3775036794
 30
0.0
  0
SPLINE
  5
30D
100
AcDbEntity
  8
0
100
AcDbSpline
 62
7
  6
CONTINUOUS
 70
0
 71
3
 72
14
 73
10
 74
0
 42
0.0000001
 43
0.0000001
 44
0.0000000001
 40
0.0
 40
0.0
 40
0.0
 40
0.0
 40
0.0363613522
 40
0.104546171
 40
0.2024253833
 40
0.3269044527
 40
0.4738842679
 40
0.6386710017
 40
1.0
 40
1.0
 40
1.0
 40
1.0
 10
521.6682913837
 20
1293.3664275722
 30
0.0
 10
521.7665020858
 20
1292.9660614994
 30
0.0
 10
521.860601891
 20
1291.7776487557
 30
0.0
 10
522.0211763546
 20
1289.4929543887
 30
0.0
 10
522.1504330172
 20
1286.1989687125
 30
0.0
 10
522.2797369194
 20
1282.0146273244
 30
0.0
 10
522.3869232599
 20
1277.0695965389
 30
0.0
 10
522.5058687748
 20
1269.4396191784
 30
0.0
 10
522.5502253941
 20
1263.4749165834
 30
0.0
 10
522.5630040319
 20
1259.3784788557
 30
0.0
  0
SPLINE
  5
30E
100
AcDbEntity
  8
0
100
AcDbSpline
 62
7
  6
CONTINUOUS
 70
0
 71
3
 72
14
 73
10
 74
0
 42
0.0000001
 43
0.0000001
 44
0.0000000001
 40
0.0
 40
0.0
 40
0.0
 40
0.0
 40
0.0367517568
 40
0.1051911558
 40
0.2031778237
 40
0.3276321702
 40
0.4744840516
 40
0.6390765686
 40
1.0
 40
1.0
 40
1.0
 40
1.0
 10
624.7740211411
 20
1282.7969883405
 30
0.0
 10
624.7495080857
 20
1282.3822647097
 30
0.0
 10
624.5101089374
 20
1281.2119941487
 30
0.0
 10
624.0297091668
 20
1278.9697169723
 30
0.0
 10
623.2516409271
 20
1275.7728704016
 30
0.0
 10
622.2331982356
 20
1271.7251999996
 30
0.0
 10
620.9908676365
 20
1266.9566000641
 30
0.0
 10
619.0338605817
 20
1259.6124078174
 30
0.0
 10
617.4617570015
 20
1253.8835331749
 30
0.0
 10
616.3666097381
 20
1249.9533285395
 30
0.0
  0
SPLINE
  5
30F
100
AcDbEntity
  8
0
100
AcDbSpline
 62
7
  6
CONTINUOUS
 70
0
 71
3
 72
13
 73
9
 74
0
 42
0.0000001
 43
0.0000001
 44
0.0000000001
 40
0.0
 40
0.0
 40
0.0
 40
0.0
 40
0.0375077726
 40
0.1064565142
 40
0.2046956973
 40
0.3291620789
 40
0.6400522749
 40
1.0
 40
1.0
 40
1.0
 40
1.0
 10
637.6870685669
 20
808.296818615
 30
0.0
 10
637.6308468698
 20
808.7164298076
 30
0.0
 10
637.3201672284
 20
809.8817265878
 30
0.0
 10
636.7011996345
 20
812.104763137
 30
0.0
 10
635.7378918108
 20
815.2543275411
 30
0.0
 10
633.931574573
 20
820.9991657539
 30
0.0
 10
631.138522664
 20
829.5312125631
 30
0.0
 10
628.7235905404
 20
836.707622389
 30
0.0
 10
627.4124669292
 20
840.5530820531
 30
0.0
  0
SPLINE
  5
310
100
AcDbEntity
  8
0
100
AcDbSpline
 62
7
  6
CONTINUOUS
 70
0
 71
3
 72
14
 73
10
 74
0
 42
0.0000001
 43
0.0000001
 44
0.0000000001
 40
0.0
 40
0.0
 40
0.0
 40
0.0
 40
0.0357896371
 40
0.1035883048
 40
0.2012793954
 40
0.3257553163
 40
0.4728891497
 40
0.637950283
 40
1.0
 40
1.0
 40
1.0
 40
1.0
 10
556.9456502937
 20
793.9984641323
 30
0.0
 10
557.0393896104
 20
794.3938855016
 30
0.0
 10
557.1033304498
 20
795.5766634855
 30
0.0
 10
557.2104869375
 20
797.8539786012
 30
0.0
 10
557.2545394596
 20
801.149298064
 30
0.0
 10
557.2752564138
 20
805.3414107125
 30
0.0
 10
557.2513731689
 20
810.3000926511
 30
0.0
 10
557.1660685521
 20
817.9553200905
 30
0.0
 10
557.0485689723
 20
823.9395665595
 30
0.0
 10
556.949384409
 20
828.0493349656
 30
0.0
  0
SPLINE
  5
311
100
AcDbEntity
  8
0
100
AcDbSpline
 62
7
  6
CONTINUOUS
 70
0
 71
3
 72
14
 73
10
 74
0
 42
0.0000001
 43
0.0000001
 44
0.0000000001
 40
0.0
 40
0.0
 40
0.0
 40
0.0
 40
0.0363707302
 40
0.1045579626
 40
0.2024381758
 40
0.3269178454
 40
0.4738975896
 40
0.6386827973
 40
1.0
 40
1.0
 40
1.0
 40
1.0
 10
525.2781136939
 20
793.7024942088
 30
0.0
 10
525.3782916273
 20
794.1025489963
 30
0.0
 10
525.472741826
 20
795.2916548846
 30
0.0
 10
525.6330082136
 20
797.5766116849
 30
0.0
 10
525.759050469
 20
800.8714328166
 30
0.0
 10
525.8833867094
 20
805.0565473767
 30
0.0
 10
525.9836545765
 20
810.0025110273
 30
0.0
 10
526.0910206296
 20
817.6337003916
 30
0.0
 10
526.1257797053
 20
823.5992597777
 30
0.0
 10
526.1316646485
 20
827.6962232649
 30
0.0
  0
SPLINE
  5
312
100
AcDbEntity
  8
0
100
AcDbSpline
 62
7
  6
CONTINUOUS
 70
0
 71
3
 72
14
 73
10
 74
0
 42
0.0000001
 43
0.0000001
 44
0.0000000001
 40
0.0
 40
0.0
 40
0.0
 40
0.0
 40
0.0363613534
 40
0.1045461733
 40
0.202425386
 40
0.3269044551
 40
0.4738842695
 40
0.6386710025
 40
1.0
 40
1.0
 40
1.0
 40
1.0
 10
43.931842754
 20
793.7072970192
 30
0.0
 10
43.8336323175
 20
794.1076631823
 30
0.0
 10
43.7395327735
 20
795.296075964
 30
0.0
 10
43.5789587445
 20
797.5807704756
 30
0.0
 10
43.4497024429
 20
800.8747562472
 30
0.0
 10
43.3203989208
 20
805.0590977505
 30
0.0
 10
43.2132129271
 20
810.0041286446
 30
0.0
 10
43.0942678565
 20
817.6341061785
 30
0.0
 10
43.0499115176
 20
823.5988089069
 30
0.0
 10
43.0371330404
 20
827.6952467298
 30
0.0
  0
SPLINE
  5
313
100
AcDbEntity
  8
0
100
AcDbSpline
 62
7
  6
CONTINUOUS
 70
0
 71
3
 72
14
 73
10
 74
0
 42
0.0000001
 43
0.0000001
 44
0.0000000001
 40
0.0
 40
0.0
 40
0.0
 40
0.0
 40
0.0367518115
 40
0.1051912463
 40
0.2031779286
 40
0.3276322703
 40
0.4744841323
 40
0.6390766212
 40
1.0
 40
1.0
 40
1.0
 40
1.0
 10
-59.1735477511
 20
804.2767230947
 30
0.0
 10
-59.1490256142
 20
804.6914465873
 30
0.0
 10
-58.9096054551
 20
805.8617129548
 30
0.0
 10
-58.4291655801
 20
808.1039817092
 30
0.0
 10
-57.6510427773
 20
811.3008136211
 30
0.0
 10
-56.6325317817
 20
815.3484644816
 30
0.0
 10
-55.3901217871
 20
820.1170404067
 30
0.0
 10
-53.4329934164
 20
827.4611949929
 30
0.0
 10
-51.860796161
 20
833.1900397121
 30
0.0
 10
-50.7655849731
 20
837.1202236731
 30
0.0
  0
SPLINE
  5
314
100
AcDbEntity
  8
0
100
AcDbSpline
 62
7
  6
CONTINUOUS
 70
0
 71
3
 72
11
 73
7
 74
0
 42
0.0000001
 43
0.0000001
 44
0.0000000001
 40
0.0
 40
0.0
 40
0.0
 40
0.0
 40
0.2500579956
 40
0.5001085315
 40
0.7500629796
 40
1.0
 40
1.0
 40
1.0
 40
1.0
 10
-93.5479799585
 20
736.5312227355
 30
0.0
 10
-111.8430635725
 20
736.1119506108
 30
0.0
 10
-148.5127888476
 20
737.0286268607
 30
0.0
 10
-202.9693934082
 20
745.2438224231
 30
0.0
 10
-255.5387322392
 20
761.846847913
 30
0.0
 10
-288.1518776253
 20
778.9549817219
 30
0.0
 10
-303.4802111939
 20
788.9351677825
 30
0.0
  0
SPLINE
  5
315
100
AcDbEntity
  8
0
100
AcDbSpline
 62
7
  6
CONTINUOUS
 70
0
 71
3
 72
8
 73
4
 74
0
 42
0.0000001
 43
0.0000001
 44
0.0000000001
 40
0.0
 40
0.0
 40
0.0
 40
0.0
 40
1.0
 40
1.0
 40
1.0
 40
1.0
 10
-93.5480179272
 20
736.5304586087
 30
0.0
 10
-89.4214077725
 20
736.4905519189
 30
0.0
 10
-85.2947876001
 20
736.4516683801
 30
0.0
 10
-81.1681583004
 20
736.413793112
 30
0.0
  0
SPLINE
  5
316
100
AcDbEntity
  8
0
100
AcDbSpline
 62
7
  6
CONTINUOUS
 70
0
 71
3
 72
8
 73
4
 74
0
 42
0.0000001
 43
0.0000001
 44
0.0000000001
 40
0.0
 40
0.0
 40
0.0
 40
0.0
 40
1.0
 40
1.0
 40
1.0
 40
1.0
 10
-81.1681583004
 20
736.413793112
 30
0.0
 10
-78.1681183993
 20
736.3862561294
 30
0.0
 10
-75.1680734955
 20
736.3592589899
 30
0.0
 10
-72.1680239284
 20
736.3327960301
 30
0.0
  0
SPLINE
  5
317
100
AcDbEntity
  8
0
100
AcDbSpline
 62
7
  6
CONTINUOUS
 70
0
 71
3
 72
8
 73
4
 74
0
 42
0.0000001
 43
0.0000001
 44
0.0000000001
 40
0.0
 40
0.0
 40
0.0
 40
0.0
 40
1.0
 40
1.0
 40
1.0
 40
1.0
 10
-72.1680239284
 20
736.3327960301
 30
0.0
 10
-70.5174296141
 20
736.3182348541
 30
0.0
 10
-68.8668338627
 20
736.3038356972
 30
0.0
 10
-67.2162367297
 20
736.2895976269
 30
0.0
  0
SPLINE
  5
318
100
AcDbEntity
  8
0
100
AcDbSpline
 62
7
  6
CONTINUOUS
 70
0
 71
3
 72
8
 73
4
 74
0
 42
0.0000001
 43
0.0000001
 44
0.0000000001
 40
0.0
 40
0.0
 40
0.0
 40
0.0
 40
1.0
 40
1.0
 40
1.0
 40
1.0
 10
632.7837514364
 20
736.2917781684
 30
0.0
 10
634.9626202242
 20
736.310704465
 30
0.0
 10
637.1414865573
 20
736.3299155556
 30
0.0
 10
639.3203502873
 20
736.3494154212
 30
0.0
  0
SPLINE
  5
319
100
AcDbEntity
  8
0
100
AcDbSpline
 62
7
  6
CONTINUOUS
 70
0
 71
3
 72
8
 73
4
 74
0
 42
0.0000001
 43
0.0000001
 44
0.0000000001
 40
0.0
 40
0.0
 40
0.0
 40
0.0
 40
1.0
 40
1.0
 40
1.0
 40
1.0
 10
639.3203502873
 20
736.3494154212
 30
0.0
 10
642.4474945568
 20
736.377390342
 30
0.0
 10
645.5746335141
 20
736.405965388
 30
0.0
 10
648.701766871
 20
736.4351346605
 30
0.0
  0
SPLINE
  5
31A
100
AcDbEntity
  8
0
100
AcDbSpline
 62
7
  6
CONTINUOUS
 70
0
 71
3
 72
8
 73
4
 74
0
 42
0.0000001
 43
0.0000001
 44
0.0000000001
 40
0.0
 40
0.0
 40
0.0
 40
0.0
 40
1.0
 40
1.0
 40
1.0
 40
1.0
 10
648.701766871
 20
736.4351346605
 30
0.0
 10
654.1766510794
 20
736.486197892
 30
0.0
 10
659.6515199621
 20
736.5389353791
 30
0.0
 10
665.1263708427
 20
736.5934549618
 30
0.0
  0
SPLINE
  5
31B
100
AcDbEntity
  8
0
100
AcDbSpline
 62
7
  6
CONTINUOUS
 70
0
 71
3
 72
8
 73
4
 74
0
 42
0.0000001
 43
0.0000001
 44
0.0000000001
 40
0.0
 40
0.0
 40
0.0
 40
0.0
 40
1.0
 40
1.0
 40
1.0
 40
1.0
 10
973.2864369345
 20
654.9634258145
 30
0.0
 10
874.8482439891
 20
654.9918903518
 30
0.0
 10
776.4101285848
 20
655.1632365639
 30
0.0
 10
677.9719367194
 20
655.1952188731
 30
0.0
  0
SPLINE
  5
31C
100
AcDbEntity
  8
0
100
AcDbSpline
 62
7
  6
CONTINUOUS
 70
0
 71
3
 72
11
 73
7
 74
0
 42
0.0000001
 43
0.0000001
 44
0.0000000001
 40
0.0
 40
0.0
 40
0.0
 40
0.0
 40
0.2498911056
 40
0.4998234918
 40
0.7498447157
 40
1.0
 40
1.0
 40
1.0
 40
1.0
 10
866.2357707107
 20
786.9735586854
 30
0.0
 10
851.4583920195
 20
777.5818382025
 30
0.0
 10
820.1806996059
 20
761.3562805438
 30
0.0
 10
769.8613261699
 20
745.4790276926
 30
0.0
 10
717.7656075454
 20
737.3647838425
 30
0.0
 10
682.6598058093
 20
736.2846203743
 30
0.0
 10
665.1339514517
 20
736.5459898409
 30
0.0
  0
SPLINE
  5
31D
100
AcDbEntity
  8
0
100
AcDbSpline
 62
7
  6
CONTINUOUS
 70
0
 71
3
 72
21
 73
17
 74
0
 42
0.0000001
 43
0.0000001
 44
0.0000000001
 40
0.0
 40
0.0
 40
0.0
 40
0.0
 40
0.1251243999
 40
0.1876852505
 40
0.250214601
 40
0.3126887491
 40
0.3751811056
 40
0.4997178333
 40
0.5622281758
 40
0.6247437985
 40
0.6872424639
 40
0.7497538496
 40
0.8123124835
 40
0.8748750203
 40
0.9374375044
 40
1.0
 40
1.0
 40
1.0
 40
1.0
 10
1021.3547905089
 20
697.8525975532
 30
0.0
 10
1021.3470707683
 20
694.6508944478
 30
0.0
 10
1021.3452620608
 20
689.8472198522
 30
0.0
 10
1021.4155102847
 20
683.4477141318
 30
0.0
 10
1021.2008433466
 20
678.6391510302
 30
0.0
 10
1020.0790945404
 20
673.9402482698
 30
0.0
 10
1017.5036377557
 20
668.0743540996
 30
0.0
 10
1013.4756643657
 20
662.9290493498
 30
0.0
 10
1008.3432404464
 20
659.0858794149
 30
0.0
 10
1004.0589345223
 20
656.8784620898
 30
0.0
 10
999.4563728375
 20
655.4154906339
 30
0.0
 10
994.6591094091
 20
654.9211755057
 30
0.0
 10
989.8580657826
 20
654.9299683997
 30
0.0
 10
985.055695197
 20
654.9750947739
 30
0.0
 10
980.2530691686
 20
654.9715727444
 30
0.0
 10
977.0513558282
 20
654.964934805
 30
0.0
 10
975.4504935985
 20
654.962713979
 30
0.0
  0
SPLINE
  5
31E
100
AcDbEntity
  8
0
100
AcDbSpline
 62
7
  6
CONTINUOUS
 70
0
 71
3
 72
10
 73
6
 74
0
 42
0.0000001
 43
0.0000001
 44
0.0000000001
 40
0.0
 40
0.0
 40
0.0
 40
0.0
 40
0.2499999997
 40
0.5000000002
 40
1.0
 40
1.0
 40
1.0
 40
1.0
 10
1021.1257773339
 20
1021.1292869057
 30
0.0
 10
1021.1427501132
 20
994.4417184502
 30
0.0
 10
1021.2290316554
 20
941.0666295793
 30
0.0
 10
1021.3302809934
 20
834.3163819607
 30
0.0
 10
1021.3642144105
 20
754.2536553793
 30
0.0
 10
1021.3615308782
 20
700.8785076888
 30
0.0
  0
SPLINE
  5
31F
100
AcDbEntity
  8
0
100
AcDbSpline
 62
7
  6
CONTINUOUS
 70
0
 71
3
 72
12
 73
8
 74
0
 42
0.0000001
 43
0.0000001
 44
0.0000000001
 40
0.0
 40
0.0
 40
0.0
 40
0.0
 40
0.2500006762
 40
0.3751110229
 40
0.5002230691
 40
0.7501496537
 40
1.0
 40
1.0
 40
1.0
 40
1.0
 10
1005.0620309374
 20
1027.4011924707
 30
0.0
 10
1003.98706991
 20
1008.1832406526
 30
0.0
 10
999.6463899122
 20
979.4158265754
 30
0.0
 10
988.8123426175
 20
942.4180153835
 30
0.0
 10
974.5148439082
 20
906.6050840058
 30
0.0
 10
950.4166841904
 20
864.6217382063
 30
0.0
 10
925.0715431823
 20
835.2990607131
 30
0.0
 10
911.1333623173
 20
822.0413496587
 30
0.0
  0
SPLINE
  5
320
100
AcDbEntity
  8
0
100
AcDbSpline
 62
7
  6
CONTINUOUS
 70
0
 71
3
 72
8
 73
4
 74
0
 42
0.0000001
 43
0.0000001
 44
0.0000000001
 40
0.0
 40
0.0
 40
0.0
 40
0.0
 40
1.0
 40
1.0
 40
1.0
 40
1.0
 10
1021.1183715055
 20
1043.5357278564
 30
0.0
 10
1021.1190406137
 20
1036.0669138296
 30
0.0
 10
1021.120785682
 20
1028.5980992987
 30
0.0
 10
1021.1257773339
 20
1021.1292869099
 30
0.0
  0
SPLINE
  5
321
100
AcDbEntity
  8
0
100
AcDbSpline
 62
7
  6
CONTINUOUS
 70
0
 71
3
 72
15
 73
11
 74
0
 42
0.0000001
 43
0.0000001
 44
0.0000000001
 40
0.0
 40
0.0
 40
0.0
 40
0.0
 40
0.1212701464
 40
0.2467915879
 40
0.3723095916
 40
0.4978216156
 40
0.6233204964
 40
0.748831392
 40
0.8743788302
 40
1.0
 40
1.0
 40
1.0
 40
1.0
 10
1004.9198224111
 20
1027.4566774451
 30
0.0
 10
1005.9854392007
 20
1047.7598567322
 30
0.0
 10
1004.0503400714
 20
1089.4072047865
 30
0.0
 10
988.6147940629
 20
1150.3254427336
 30
0.0
 10
960.74373235
 20
1207.4670721596
 30
0.0
 10
921.7400371445
 20
1257.6995791744
 30
0.0
 10
872.8818776307
 20
1298.4367028799
 30
0.0
 10
816.5251539928
 20
1327.9359023934
 30
0.0
 10
755.3592018842
 20
1345.1549057484
 30
0.0
 10
713.2851647573
 20
1349.400463998
 30
0.0
 10
692.2393513073
 20
1350.1889940202
 30
0.0
  0
SPLINE
  5
322
100
AcDbEntity
  8
0
100
AcDbSpline
 62
7
  6
CONTINUOUS
 70
0
 71
3
 72
11
 73
7
 74
0
 42
0.0000001
 43
0.0000001
 44
0.0000000001
 40
0.0
 40
0.0
 40
0.0
 40
0.0
 40
0.2499995994
 40
0.5000000141
 40
0.7500003902
 40
1.0
 40
1.0
 40
1.0
 40
1.0
 10
632.783758554
 20
736.2917761038
 30
0.0
 10
574.4524744842
 20
735.7913350807
 30
0.0
 10
457.7839997572
 20
735.5881680761
 30
0.0
 10
282.7837647207
 20
735.697062259
 30
0.0
 10
107.7835188201
 20
735.591453472
 30
0.0
 10
-8.8849325724
 20
735.7922773396
 30
0.0
 10
-67.2162459358
 20
736.2895759675
 30
0.0
  0
SPLINE
  5
323
100
AcDbEntity
  8
0
100
AcDbSpline
 62
7
  6
CONTINUOUS
 70
0
 71
3
 72
11
 73
7
 74
0
 42
0.0000001
 43
0.0000001
 44
0.0000000001
 40
0.0
 40
0.0
 40
0.0
 40
0.0
 40
0.2499605249
 40
0.4999423423
 40
0.7499562185
 40
1.0
 40
1.0
 40
1.0
 40
1.0
 10
140.8979023917
 20
1351.3346284122
 30
0.0
 10
141.481149757
 20
1353.6754267371
 30
0.0
 10
143.4307426163
 20
1358.2007396949
 30
0.0
 10
148.3858262423
 20
1363.6526543373
 30
0.0
 10
154.8483593366
 20
1367.195258053
 30
0.0
 10
159.7129334841
 20
1368.010461654
 30
0.0
 10
162.12610394
 20
1368.010470917
 30
0.0
  0
SPLINE
  5
324
100
AcDbEntity
  8
0
100
AcDbSpline
 62
7
  6
CONTINUOUS
 70
0
 71
3
 72
9
 73
5
 74
0
 42
0.0000001
 43
0.0000001
 44
0.0000000001
 40
0.0
 40
0.0
 40
0.0
 40
0.0
 40
0.4999996797
 40
1.0
 40
1.0
 40
1.0
 40
1.0
 10
-67.2001774321
 20
1350.78431404
 30
0.0
 10
-42.2008841691
 20
1350.9974452443
 30
0.0
 10
7.7991602655
 20
1351.2661306295
 30
0.0
 10
57.7996095789
 20
1351.3034882646
 30
0.0
 10
82.7998225664
 20
1351.335743944
 30
0.0
  0
SPLINE
  5
325
100
AcDbEntity
  8
0
100
AcDbSpline
 62
7
  6
CONTINUOUS
 70
0
 71
3
 72
11
 73
7
 74
0
 42
0.0000001
 43
0.0000001
 44
0.0000000001
 40
0.0
 40
0.0
 40
0.0
 40
0.0
 40
0.2500436834
 40
0.500057442
 40
0.7500399596
 40
1.0
 40
1.0
 40
1.0
 40
1.0
 10
403.473541194
 20
1368.0104709167
 30
0.0
 10
405.8871723646
 20
1368.0104647184
 30
0.0
 10
410.7526901005
 20
1367.1949398225
 30
0.0
 10
417.2161641397
 20
1363.6510061764
 30
0.0
 10
422.17135811
 20
1358.1972165764
 30
0.0
 10
424.1203288305
 20
1353.6705668681
 30
0.0
 10
424.70309977
 20
1351.3291791144
 30
0.0
  0
SPLINE
  5
326
100
AcDbEntity
  8
0
100
AcDbSpline
 62
7
  6
CONTINUOUS
 70
0
 71
3
 72
12
 73
8
 74
0
 42
0.0000001
 43
0.0000001
 44
0.0000000001
 40
0.0
 40
0.0
 40
0.0
 40
0.0
 40
0.0551102933
 40
0.1308937625
 40
0.3431991449
 40
0.628499493
 40
1.0
 40
1.0
 40
1.0
 40
1.0
 10
686.4374546123
 20
1336.0578540651
 30
0.0
 10
686.464424706
 20
1336.3417067512
 30
0.0
 10
686.7543798171
 20
1336.9795448318
 30
0.0
 10
687.781233246
 20
1338.4165671338
 30
0.0
 10
689.5922380108
 20
1340.7794361798
 30
0.0
 10
691.5967462066
 20
1344.8540332308
 30
0.0
 10
692.167967615
 20
1348.2676453606
 30
0.0
 10
692.2393218569
 20
1350.1883995144
 30
0.0
  0
SPLINE
  5
327
100
AcDbEntity
  8
0
100
AcDbSpline
 62
7
  6
CONTINUOUS
 70
0
 71
3
 72
12
 73
8
 74
0
 42
0.0000001
 43
0.0000001
 44
0.0000000001
 40
0.0
 40
0.0
 40
0.0
 40
0.0
 40
0.0493420618
 40
0.1189629741
 40
0.3215447273
 40
0.6119679863
 40
1.0
 40
1.0
 40
1.0
 40
1.0
 10
-90.9618263375
 20
1336.4470957858
 30
0.0
 10
-90.9696430116
 20
1336.68353179
 30
0.0
 10
-91.0965596241
 20
1337.2456191298
 30
0.0
 10
-91.5628180856
 20
1338.711570361
 30
0.0
 10
-92.3995522523
 20
1341.2800424926
 30
0.0
 10
-93.2635015302
 20
1345.425307426
 30
0.0
 10
-93.4971591895
 20
1348.6825075695
 30
0.0
 10
-93.5151889844
 20
1350.5427977351
 30
0.0
  0
SPLINE
  5
328
100
AcDbEntity
  8
0
100
AcDbSpline
 62
7
  6
CONTINUOUS
 70
0
 71
3
 72
12
 73
8
 74
0
 42
0.0000001
 43
0.0000001
 44
0.0000000001
 40
0.0
 40
0.0
 40
0.0
 40
0.0
 40
0.0502396518
 40
0.1208276082
 40
0.324874228
 40
0.614438484
 40
1.0
 40
1.0
 40
1.0
 40
1.0
 10
662.0108946739
 20
750.6515677466
 30
0.0
 10
662.0202427378
 20
750.4083863924
 30
0.0
 10
662.1752009857
 20
749.8349523714
 30
0.0
 10
662.7445212355
 20
748.3728535595
 30
0.0
 10
663.7655059844
 20
745.8318894454
 30
0.0
 10
664.8265580573
 20
741.6915477322
 30
0.0
 10
665.1081570986
 20
738.4137690094
 30
0.0
 10
665.1268234353
 20
736.5462016368
 30
0.0
  0
SPLINE
  5
329
100
AcDbEntity
  8
0
100
AcDbSpline
 62
7
  6
CONTINUOUS
 70
0
 71
3
 72
12
 73
8
 74
0
 42
0.0000001
 43
0.0000001
 44
0.0000000001
 40
0.0
 40
0.0
 40
0.0
 40
0.0
 40
0.0493867683
 40
0.1194782617
 40
0.3231587282
 40
0.6132962616
 40
1.0
 40
1.0
 40
1.0
 40
1.0
 10
-90.9542615297
 20
750.6265967002
 30
0.0
 10
-90.9621017942
 20
750.3894156351
 30
0.0
 10
-91.1037729762
 20
749.8254096654
 30
0.0
 10
-91.6176482196
 20
748.3646887179
 30
0.0
 10
-92.5250546729
 20
745.8058366144
 30
0.0
 10
-93.415764237
 20
741.6546717196
 30
0.0
 10
-93.5862564593
 20
738.3888879883
 30
0.0
 10
-93.5479818978
 20
736.5311144412
 30
0.0
  0
SPLINE
  5
32A
100
AcDbEntity
  8
0
100
AcDbSpline
 62
7
  6
CONTINUOUS
 70
0
 71
3
 72
9
 73
5
 74
0
 42
0.0000001
 43
0.0000001
 44
0.0000000001
 40
0.0
 40
0.0
 40
0.0
 40
0.0
 40
0.2587763979
 40
1.0
 40
1.0
 40
1.0
 40
1.0
 10
164.7148841623
 20
1328.6785260129
 30
0.0
 10
163.6837049942
 20
1328.6785160306
 30
0.0
 10
159.6991219384
 20
1328.6958801523
 30
0.0
 10
155.713140337
 20
1328.7912127884
 30
0.0
 10
152.7646313725
 20
1328.9653684385
 30
0.0
  0
SPLINE
  5
32B
100
AcDbEntity
  8
0
100
AcDbSpline
 62
7
  6
CONTINUOUS
 70
0
 71
3
 72
9
 73
5
 74
0
 42
0.0000001
 43
0.0000001
 44
0.0000000001
 40
0.0
 40
0.0
 40
0.0
 40
0.0
 40
0.2206061419
 40
1.0
 40
1.0
 40
1.0
 40
1.0
 10
415.9773239641
 20
1329.2972585798
 30
0.0
 10
414.8711180968
 20
1329.1948092225
 30
0.0
 10
409.8489606586
 20
1328.8157438229
 30
0.0
 10
404.8098036027
 20
1328.6909292112
 30
0.0
 10
400.8848916873
 20
1328.6909027683
 30
0.0
  0
SPLINE
  5
32C
100
AcDbEntity
  8
0
100
AcDbSpline
 62
7
  6
CONTINUOUS
 70
0
 71
3
 72
8
 73
4
 74
0
 42
0.0000001
 43
0.0000001
 44
0.0000000001
 40
0.0
 40
0.0
 40
0.0
 40
0.0
 40
1.0
 40
1.0
 40
1.0
 40
1.0
 10
-465.8453152107
 20
747.8178432646
 30
0.0
 10
-465.8451782749
 20
846.3910477142
 30
0.0
 10
-465.8467403579
 20
944.9642521764
 30
0.0
 10
-465.845173045
 20
1043.5374566136
 30
0.0
  0
SPLINE
  5
32D
100
AcDbEntity
  8
0
100
AcDbSpline
 62
7
  6
CONTINUOUS
 70
0
 71
3
 72
12
 73
8
 74
0
 42
0.0000001
 43
0.0000001
 44
0.0000000001
 40
0.0
 40
0.0
 40
0.0
 40
0.0
 40
0.25001236
 40
0.4999877909
 40
0.6249950901
 40
0.7499904381
 40
1.0
 40
1.0
 40
1.0
 40
1.0
 10
624.7740618857
 20
1282.796976901
 30
0.0
 10
616.428123985
 20
1285.1424154579
 30
0.0
 10
599.5122178035
 20
1289.0709591663
 30
0.0
 10
578.0022273211
 20
1291.9730941926
 30
0.0
 10
560.6928628822
 20
1293.0665738379
 30
0.0
 10
543.3533983767
 20
1293.2934341343
 30
0.0
 10
530.3509391207
 20
1293.3752109442
 30
0.0
 10
521.6818006214
 20
1293.3643978381
 30
0.0
  0
SPLINE
  5
32E
100
AcDbEntity
  8
0
100
AcDbSpline
 62
7
  6
CONTINUOUS
 70
0
 71
3
 72
15
 73
11
 74
0
 42
0.0000001
 43
0.0000001
 44
0.0000000001
 40
0.0
 40
0.0
 40
0.0
 40
0.0
 40
0.12395884
 40
0.2479183261
 40
0.3718769841
 40
0.4958847207
 40
0.6199596047
 40
0.7456098698
 40
0.8702340334
 40
1.0
 40
1.0
 40
1.0
 40
1.0
 10
521.7993296476
 20
1336.6613832968
 30
0.0
 10
521.7995062634
 20
1334.857256998
 30
0.0
 10
521.7833992751
 20
1331.2488287261
 30
0.0
 10
521.8079106877
 20
1325.8372250196
 30
0.0
 10
521.8688925808
 20
1320.4215288773
 30
0.0
 10
521.5843841048
 20
1315.0163745015
 30
0.0
 10
521.7584319148
 20
1309.5535493406
 30
0.0
 10
522.7964774403
 20
1304.2221305604
 30
0.0
 10
523.8597743593
 20
1298.6918018805
 30
0.0
 10
522.577630112
 20
1295.0291522396
 30
0.0
 10
521.6818352812
 20
1293.3664646392
 30
0.0
  0
SPLINE
  5
32F
100
AcDbEntity
  8
0
100
AcDbSpline
 62
7
  6
CONTINUOUS
 70
0
 71
3
 72
13
 73
9
 74
0
 42
0.0000001
 43
0.0000001
 44
0.0000000001
 40
0.0
 40
0.0
 40
0.0
 40
0.0
 40
0.3767497339
 40
0.6968660905
 40
0.8202026289
 40
0.9129970559
 40
0.9722646422
 40
1.0
 40
1.0
 40
1.0
 40
1.0
 10
180.2975526369
 20
1351.7280939612
 30
0.0
 10
179.3406330571
 20
1351.7280939612
 30
0.0
 10
177.5724356587
 20
1351.7621792458
 30
0.0
 10
175.4860155061
 20
1351.8966339791
 30
0.0
 10
174.1423428623
 20
1352.0568358045
 30
0.0
 10
173.43789648
 20
1352.1940392422
 30
0.0
 10
173.0298031315
 20
1352.3033801643
 30
0.0
 10
172.7975526366
 20
1352.4495813562
 30
0.0
 10
172.7975526366
 20
1352.5200273434
 30
0.0
  0
SPLINE
  5
330
100
AcDbEntity
  8
0
100
AcDbSpline
 62
7
  6
CONTINUOUS
 70
0
 71
3
 72
11
 73
7
 74
0
 42
0.0000001
 43
0.0000001
 44
0.0000000001
 40
0.0
 40
0.0
 40
0.0
 40
0.0
 40
0.2086528916
 40
0.443669551
 40
0.7047804997
 40
1.0
 40
1.0
 40
1.0
 40
1.0
 10
624.7740619794
 20
1282.7969768737
 30
0.0
 10
628.3515235587
 20
1286.0097328305
 30
0.0
 10
635.5355301649
 20
1293.3095168241
 30
0.0
 10
646.1330200132
 20
1305.6237945117
 30
0.0
 10
657.3047458793
 20
1320.0499010294
 30
0.0
 10
664.5190850331
 20
1330.6596743886
 30
0.0
 10
668.1849054212
 20
1336.3907855065
 30
0.0
  0
SPLINE
  5
331
100
AcDbEntity
  8
0
100
AcDbSpline
 62
7
  6
CONTINUOUS
 70
0
 71
3
 72
13
 73
9
 74
0
 42
0.0000001
 43
0.0000001
 44
0.0000000001
 40
0.0
 40
0.0
 40
0.0
 40
0.0
 40
0.0277353578
 40
0.0870029441
 40
0.1797973711
 40
0.3031339095
 40
0.6232502661
 40
1.0
 40
1.0
 40
1.0
 40
1.0
 10
392.7975526446
 20
1352.5200273432
 30
0.0
 10
392.7975526446
 20
1352.4495813559
 30
0.0
 10
392.5653021497
 20
1352.3033801641
 30
0.0
 10
392.1572088012
 20
1352.194039242
 30
0.0
 10
391.4527624189
 20
1352.0568358043
 30
0.0
 10
390.109089775
 20
1351.8966339789
 30
0.0
 10
388.0226696225
 20
1351.7621792456
 30
0.0
 10
386.2544722241
 20
1351.728093961
 30
0.0
 10
385.2975526443
 20
1351.728093961
 30
0.0
  0
SPLINE
  5
332
100
AcDbEntity
  8
0
100
AcDbSpline
 62
7
  6
CONTINUOUS
 70
0
 71
3
 72
15
 73
11
 74
0
 42
0.0000001
 43
0.0000001
 44
0.0000000001
 40
0.0
 40
0.0
 40
0.0
 40
0.0
 40
0.1249609993
 40
0.2499209526
 40
0.3749121001
 40
0.4999149589
 40
0.6249277277
 40
0.7499452812
 40
0.8749759582
 40
1.0
 40
1.0
 40
1.0
 40
1.0
 10
637.6870239912
 20
808.2968032904
 30
0.0
 10
649.6802723691
 20
812.419929932
 30
0.0
 10
673.0152757689
 20
822.710465169
 30
0.0
 10
704.9821785509
 20
843.6388029434
 30
0.0
 10
733.1999449635
 20
869.4118910255
 30
0.0
 10
757.0278840811
 20
899.2860799816
 30
0.0
 10
775.9759209959
 20
932.4676862532
 30
0.0
 10
789.6861141598
 20
968.1336825241
 30
0.0
 10
797.9366196799
 20
1005.43088823
 30
0.0
 10
799.7506245624
 20
1030.8483155371
 30
0.0
 10
799.7507515403
 20
1043.5369130077
 30
0.0
  0
SPLINE
  5
333
100
AcDbEntity
  8
0
100
AcDbSpline
 62
7
  6
CONTINUOUS
 70
0
 71
3
 72
16
 73
12
 74
0
 42
0.0000001
 43
0.0000001
 44
0.0000000001
 40
0.0
 40
0.0
 40
0.0
 40
0.0
 40
0.125054449
 40
0.250078062
 40
0.3750791939
 40
0.5000601536
 40
0.6250262533
 40
0.7499831378
 40
0.8749340789
 40
0.9374666549
 40
1.0
 40
1.0
 40
1.0
 40
1.0
 10
799.7507515403
 20
1043.5369130077
 30
0.0
 10
799.7506894794
 20
1056.7921490073
 30
0.0
 10
797.7708775327
 20
1083.3446286752
 30
0.0
 10
788.7656988013
 20
1122.2241633981
 30
0.0
 10
773.8220136666
 20
1159.236939696
 30
0.0
 10
753.2095563167
 20
1193.4152886131
 30
0.0
 10
727.3581248488
 20
1223.8294643226
 30
0.0
 10
696.8654234481
 20
1249.5862972067
 30
0.0
 10
668.1811337431
 20
1266.4881805828
 30
0.0
 10
643.781025058
 20
1276.8983315623
 30
0.0
 10
631.1554180238
 20
1281.0047152515
 30
0.0
 10
624.7740606009
 20
1282.7969757472
 30
0.0
  0
SPLINE
  5
334
100
AcDbEntity
  8
0
100
AcDbSpline
 62
7
  6
CONTINUOUS
 70
0
 71
3
 72
9
 73
5
 74
0
 42
0.0000001
 43
0.0000001
 44
0.0000000001
 40
0.0
 40
0.0
 40
0.0
 40
0.0
 40
0.4999697604
 40
1.0
 40
1.0
 40
1.0
 40
1.0
 10
686.4373427963
 20
1336.0578512021
 30
0.0
 10
683.397938544
 20
1336.1972945071
 30
0.0
 10
677.3136152879
 20
1336.3758590863
 30
0.0
 10
671.2278278331
 20
1336.373732667
 30
0.0
 10
668.1849020742
 20
1336.3900197927
 30
0.0
  0
SPLINE
  5
335
100
AcDbEntity
  8
0
100
AcDbSpline
 62
7
  6
CONTINUOUS
 70
0
 71
3
 72
23
 73
19
 74
0
 42
0.0000001
 43
0.0000001
 44
0.0000000001
 40
0.0
 40
0.0
 40
0.0
 40
0.0
 40
0.0624983783
 40
0.1249883257
 40
0.1874755357
 40
0.2499620784
 40
0.3124565026
 40
0.3749614185
 40
0.4374779576
 40
0.500000256
 40
0.5625233435
 40
0.6250392994
 40
0.6875441471
 40
0.7500388527
 40
0.8125259455
 40
0.875011089
 40
0.9375020518
 40
1.0
 40
1.0
 40
1.0
 40
1.0
 10
687.3176214847
 20
751.056355376
 30
0.0
 10
705.5997850634
 20
751.9582110591
 30
0.0
 10
742.0897498742
 20
757.3129502673
 30
0.0
 10
794.1288598707
 20
775.8734744184
 30
0.0
 10
841.5235489463
 20
804.303261793
 30
0.0
 10
882.4104798594
 20
841.4762694612
 30
0.0
 10
915.3203295868
 20
885.8579659734
 30
0.0
 10
939.2417911584
 20
935.6508102215
 30
0.0
 10
953.6424744747
 20
988.9682855645
 30
0.0
 10
958.3715181817
 20
1043.9799576091
 30
0.0
 10
953.4879258464
 20
1098.9781208572
 30
0.0
 10
938.9327472946
 20
1152.2540531731
 30
0.0
 10
914.8614702969
 20
1201.9748943668
 30
0.0
 10
881.8143047576
 20
1246.2550916644
 30
0.0
 10
840.8105008974
 20
1283.2986510489
 30
0.0
 10
793.3260656966
 20
1311.5786588509
 30
0.0
 10
741.2288011582
 20
1329.9714824524
 30
0.0
 10
704.7223457007
 20
1335.2182557552
 30
0.0
 10
686.4373435645
 20
1336.0578592907
 30
0.0
  0
SPLINE
  5
336
100
AcDbEntity
  8
0
100
AcDbSpline
 62
7
  6
CONTINUOUS
 70
0
 71
3
 72
11
 73
7
 74
0
 42
0.0000001
 43
0.0000001
 44
0.0000000001
 40
0.0
 40
0.0
 40
0.0
 40
0.0
 40
0.2028769536
 40
0.4356957531
 40
0.6983765341
 40
1.0
 40
1.0
 40
1.0
 40
1.0
 10
637.6843026766
 20
808.2958406445
 30
0.0
 10
641.7005502954
 20
805.090599356
 30
0.0
 10
649.810352091
 20
797.5677157471
 30
0.0
 10
661.8360882469
 20
784.5878851239
 30
0.0
 10
674.6970506296
 20
769.0073505887
 30
0.0
 10
683.044250147
 20
757.3901148695
 30
0.0
 10
687.3175245202
 20
751.0575553946
 30
0.0
  0
SPLINE
  5
337
100
AcDbEntity
  8
0
100
AcDbSpline
 62
7
  6
CONTINUOUS
 70
0
 71
3
 72
10
 73
6
 74
0
 42
0.0000001
 43
0.0000001
 44
0.0000000001
 40
0.0
 40
0.0
 40
0.0
 40
0.0
 40
0.4997819618
 40
0.7498902626
 40
1.0
 40
1.0
 40
1.0
 40
1.0
 10
556.9458705302
 20
793.9984696107
 30
0.0
 10
570.645305037
 20
794.3358298127
 30
0.0
 10
591.2058228163
 20
796.4197339267
 30
0.0
 10
618.0184397933
 20
802.2138374394
 30
0.0
 10
631.2011927403
 20
806.0689641068
 30
0.0
 10
637.6870278847
 20
808.2968001737
 30
0.0
  0
SPLINE
  5
338
100
AcDbEntity
  8
0
100
AcDbSpline
 62
7
  6
CONTINUOUS
 70
0
 71
3
 72
14
 73
10
 74
0
 42
0.0000001
 43
0.0000001
 44
0.0000000001
 40
0.0
 40
0.0
 40
0.0
 40
0.0
 40
0.3682325705
 40
0.5358781925
 40
0.6844404872
 40
0.8088719815
 40
0.9050139639
 40
0.9693375676
 40
1.0
 40
1.0
 40
1.0
 40
1.0
 10
140.8979023917
 20
1351.3346284321
 30
0.0
 10
142.31384057
 20
1350.9822602522
 30
0.0
 10
144.3775469151
 20
1350.4813147525
 30
0.0
 10
147.0198497289
 20
1349.8712667494
 30
0.0
 10
148.7248255198
 20
1349.4912815907
 30
0.0
 10
150.1551415684
 20
1349.1950021742
 30
0.0
 10
151.2667307289
 20
1348.9701791203
 30
0.0
 10
152.0082874531
 20
1348.8715329847
 30
0.0
 10
152.3915044577
 20
1348.8049999553
 30
0.0
 10
152.509865096
 20
1348.8324415529
 30
0.0
  0
SPLINE
  5
339
100
AcDbEntity
  8
0
100
AcDbSpline
 62
7
  6
CONTINUOUS
 70
0
 71
3
 72
11
 73
7
 74
0
 42
0.0000001
 43
0.0000001
 44
0.0000000001
 40
0.0
 40
0.0
 40
0.0
 40
0.0
 40
0.2503144736
 40
0.5006412427
 40
0.7506020436
 40
1.0
 40
1.0
 40
1.0
 40
1.0
 10
140.5783198784
 20
1336.6579537622
 30
0.0
 10
142.0133812928
 20
1336.6642427204
 30
0.0
 10
144.9073670406
 20
1337.2004156645
 30
0.0
 10
148.6688859532
 20
1339.4702385023
 30
0.0
 10
151.395927456
 20
1342.9085752352
 30
0.0
 10
152.287866352
 20
1345.7066926495
 30
0.0
 10
152.4705161754
 20
1347.1247992508
 30
0.0
  0
SPLINE
  5
33A
100
AcDbEntity
  8
0
100
AcDbSpline
 62
7
  6
CONTINUOUS
 70
0
 71
3
 72
11
 73
7
 74
0
 42
0.0000001
 43
0.0000001
 44
0.0000000001
 40
0.0
 40
0.0
 40
0.0
 40
0.0
 40
0.2503145475
 40
0.5006410483
 40
0.7506017358
 40
1.0
 40
1.0
 40
1.0
 40
1.0
 10
142.9117894224
 20
1330.7094999049
 30
0.0
 10
144.3467379791
 20
1330.7162624954
 30
0.0
 10
147.2402986942
 20
1331.2530995418
 30
0.0
 10
151.0012681659
 20
1333.5230085914
 30
0.0
 10
153.7283264442
 20
1336.9607896818
 30
0.0
 10
154.620876459
 20
1339.7584022949
 30
0.0
 10
154.8039854166
 20
1341.1763398251
 30
0.0
  0
SPLINE
  5
33B
100
AcDbEntity
  8
0
100
AcDbSpline
 62
7
  6
CONTINUOUS
 70
0
 71
3
 72
11
 73
7
 74
0
 42
0.0000001
 43
0.0000001
 44
0.0000000001
 40
0.0
 40
0.0
 40
0.0
 40
0.0
 40
0.1751639228
 40
0.4085677823
 40
0.6921033003
 40
1.0
 40
1.0
 40
1.0
 40
1.0
 10
152.7642499502
 20
1328.9657225116
 30
0.0
 10
153.529318159
 20
1329.1094707184
 30
0.0
 10
155.1473765291
 20
1330.1522049083
 30
0.0
 10
156.931717385
 20
1332.685783223
 30
0.0
 10
158.3505928784
 20
1336.0941620238
 30
0.0
 10
158.9088914304
 20
1338.6780415199
 30
0.0
 10
159.083368391
 20
1340.0352125422
 30
0.0
  0
SPLINE
  5
33C
100
AcDbEntity
  8
0
100
AcDbSpline
 62
7
  6
CONTINUOUS
 70
0
 71
3
 72
10
 73
6
 74
0
 42
0.0000001
 43
0.0000001
 44
0.0000000001
 40
0.0
 40
0.0
 40
0.0
 40
0.0
 40
0.4379139863
 40
0.712143456
 40
1.0
 40
1.0
 40
1.0
 40
1.0
 10
415.977335784
 20
1329.2972482576
 30
0.0
 10
413.9497087815
 20
1329.5413032393
 30
0.0
 10
411.0388899168
 20
1331.9844544447
 30
0.0
 10
408.9338167112
 20
1336.1046330036
 30
0.0
 10
408.2845789305
 20
1338.6891583564
 30
0.0
 10
408.1212914711
 20
1340.0216426638
 30
0.0
  0
SPLINE
  5
33D
100
AcDbEntity
  8
0
100
AcDbSpline
 62
7
  6
CONTINUOUS
 70
0
 71
3
 72
11
 73
7
 74
0
 42
0.0000001
 43
0.0000001
 44
0.0000000001
 40
0.0
 40
0.0
 40
0.0
 40
0.0
 40
0.2503149879
 40
0.5006420717
 40
0.7506026615
 40
1.0
 40
1.0
 40
1.0
 40
1.0
 10
422.6690628654
 20
1330.7120881246
 30
0.0
 10
421.2357831638
 20
1330.7183449783
 30
0.0
 10
418.3453558214
 20
1331.254098129
 30
0.0
 10
414.5890571311
 20
1333.5221963549
 30
0.0
 10
411.8669714981
 20
1336.9576224603
 30
0.0
 10
410.9780071797
 20
1339.7529355735
 30
0.0
 10
410.7966835209
 20
1341.1694160469
 30
0.0
  0
SPLINE
  5
33E
100
AcDbEntity
  8
0
100
AcDbSpline
 62
7
  6
CONTINUOUS
 70
0
 71
3
 72
11
 73
7
 74
0
 42
0.0000001
 43
0.0000001
 44
0.0000000001
 40
0.0
 40
0.0
 40
0.0
 40
0.0
 40
0.2503143891
 40
0.5006411202
 40
0.7506019607
 40
1.0
 40
1.0
 40
1.0
 40
1.0
 10
425.0213711358
 20
1336.6607500116
 30
0.0
 10
423.586402239
 20
1336.6670140586
 30
0.0
 10
420.692597074
 20
1337.2030678921
 30
0.0
 10
416.931211799
 20
1339.4725422031
 30
0.0
 10
414.2040931114
 20
1342.9104432643
 30
0.0
 10
413.3119355437
 20
1345.7082834519
 30
0.0
 10
413.1291393178
 20
1347.1262791049
 30
0.0
  0
SPLINE
  5
33F
100
AcDbEntity
  8
0
100
AcDbSpline
 62
7
  6
CONTINUOUS
 70
0
 71
3
 72
14
 73
10
 74
0
 42
0.0000001
 43
0.0000001
 44
0.0000000001
 40
0.0
 40
0.0
 40
0.0
 40
0.0
 40
0.3682368319
 40
0.5358841527
 40
0.6844474325
 40
0.8088789492
 40
0.9050198191
 40
0.9693410662
 40
1.0
 40
1.0
 40
1.0
 40
1.0
 10
424.70309977
 20
1351.3291791154
 30
0.0
 10
423.2870413363
 20
1350.9771613139
 30
0.0
 10
421.2231635879
 20
1350.4767275091
 30
0.0
 10
418.5806517882
 20
1349.8673380557
 30
0.0
 10
416.8755506882
 20
1349.4877791171
 30
0.0
 10
415.4451458863
 20
1349.1918643848
 30
0.0
 10
414.3334977501
 20
1348.9673191026
 30
0.0
 10
413.5919412323
 20
1348.8688826123
 30
0.0
 10
413.2087178921
 20
1348.8024367474
 30
0.0
 10
413.0903807377
 20
1348.8299238294
 30
0.0
  0
SPLINE
  5
340
100
AcDbEntity
  8
0
100
AcDbSpline
 62
7
  6
CONTINUOUS
 70
0
 71
3
 72
9
 73
5
 74
0
 42
0.0000001
 43
0.0000001
 44
0.0000000001
 40
0.0
 40
0.0
 40
0.0
 40
0.0
 40
0.4599011346
 40
1.0
 40
1.0
 40
1.0
 40
1.0
 10
408.1212914704
 20
1340.0216426634
 30
0.0
 10
407.1129619172
 20
1339.4897321298
 30
0.0
 10
404.7047309695
 20
1338.7554611023
 30
0.0
 10
402.2236297395
 20
1338.5352663313
 30
0.0
 10
400.8848067269
 20
1338.534683508
 30
0.0
  0
SPLINE
  5
341
100
AcDbEntity
  8
0
100
AcDbSpline
 62
7
  6
CONTINUOUS
 70
0
 71
3
 72
9
 73
5
 74
0
 42
0.0000001
 43
0.0000001
 44
0.0000000001
 40
0.0
 40
0.0
 40
0.0
 40
0.0
 40
0.2636021164
 40
1.0
 40
1.0
 40
1.0
 40
1.0
 10
164.714798266
 20
1338.6307427659
 30
0.0
 10
164.2025609058
 20
1338.6309521421
 30
0.0
 10
162.2563004973
 20
1338.8135253326
 30
0.0
 10
160.4151153584
 20
1339.5108055335
 30
0.0
 10
159.0836800271
 20
1340.0352066803
 30
0.0
  0
SPLINE
  5
342
100
AcDbEntity
  8
0
100
AcDbSpline
 62
7
  6
CONTINUOUS
 70
0
 71
3
 72
11
 73
7
 74
0
 42
0.0000001
 43
0.0000001
 44
0.0000000001
 40
0.0
 40
0.0
 40
0.0
 40
0.0
 40
0.1097971529
 40
0.315508836
 40
0.614923148
 40
1.0
 40
1.0
 40
1.0
 40
1.0
 10
410.7966833724
 20
1341.1694156315
 30
0.0
 10
410.7572982925
 20
1341.0690215637
 30
0.0
 10
410.4849794137
 20
1340.8745971438
 30
0.0
 10
409.9626213396
 20
1340.601435659
 30
0.0
 10
409.133661069
 20
1340.2950659614
 30
0.0
 10
408.4884529591
 20
1340.1124933686
 30
0.0
 10
408.1213025426
 20
1340.021642133
 30
0.0
  0
SPLINE
  5
343
100
AcDbEntity
  8
0
100
AcDbSpline
 62
7
  6
CONTINUOUS
 70
0
 71
3
 72
9
 73
5
 74
0
 42
0.0000001
 43
0.0000001
 44
0.0000000001
 40
0.0
 40
0.0
 40
0.0
 40
0.0
 40
0.4993379528
 40
1.0
 40
1.0
 40
1.0
 40
1.0
 10
410.7966296689
 20
1341.1691252501
 30
0.0
 10
410.49842345
 20
1343.4984610207
 30
0.0
 10
408.097738824
 20
1348.0931045068
 30
0.0
 10
403.2399709144
 20
1349.888423512
 30
0.0
 10
400.8854196561
 20
1349.8987220213
 30
0.0
  0
SPLINE
  5
344
100
AcDbEntity
  8
0
100
AcDbSpline
 62
7
  6
CONTINUOUS
 70
0
 71
3
 72
9
 73
5
 74
0
 42
0.0000001
 43
0.0000001
 44
0.0000000001
 40
0.0
 40
0.0
 40
0.0
 40
0.0
 40
0.5632284844
 40
1.0
 40
1.0
 40
1.0
 40
1.0
 10
413.0903811247
 20
1348.8299239266
 30
0.0
 10
413.1654604293
 20
1348.5152586729
 30
0.0
 10
413.2788827657
 20
1347.9504661297
 30
0.0
 10
413.2207314375
 20
1347.3598269314
 30
0.0
 10
413.1291393178
 20
1347.1262791049
 30
0.0
  0
SPLINE
  5
345
100
AcDbEntity
  8
0
100
AcDbSpline
 62
7
  6
CONTINUOUS
 70
0
 71
3
 72
9
 73
5
 74
0
 42
0.0000001
 43
0.0000001
 44
0.0000000001
 40
0.0
 40
0.0
 40
0.0
 40
0.0
 40
0.5018652687
 40
1.0
 40
1.0
 40
1.0
 40
1.0
 10
403.473541194
 20
1356.4963492952
 30
0.0
 10
405.6535168388
 20
1356.5077356426
 30
0.0
 10
410.1428920109
 20
1354.9624559336
 30
0.0
 10
412.5883452336
 20
1350.9346788329
 30
0.0
 10
413.0903811247
 20
1348.8299239266
 30
0.0
  0
SPLINE
  5
346
100
AcDbEntity
  8
0
100
AcDbSpline
 62
7
  6
CONTINUOUS
 70
0
 71
3
 72
9
 73
5
 74
0
 42
0.0000001
 43
0.0000001
 44
0.0000000001
 40
0.0
 40
0.0
 40
0.0
 40
0.0
 40
0.25002596
 40
1.0
 40
1.0
 40
1.0
 40
1.0
 10
154.8039898811
 20
1341.1763392728
 30
0.0
 10
154.6023986001
 20
1341.6692454037
 30
0.0
 10
153.842587576
 20
1343.6592797862
 30
0.0
 10
153.0538631958
 20
1345.6377350156
 30
0.0
 10
152.4705167898
 20
1347.124799175
 30
0.0
  0
SPLINE
  5
347
100
AcDbEntity
  8
0
100
AcDbSpline
 62
7
  6
CONTINUOUS
 70
0
 71
3
 72
9
 73
5
 74
0
 42
0.0000001
 43
0.0000001
 44
0.0000000001
 40
0.0
 40
0.0
 40
0.0
 40
0.0
 40
0.4981349384
 40
1.0
 40
1.0
 40
1.0
 40
1.0
 10
152.5098648618
 20
1348.8324416118
 30
0.0
 10
153.012338533
 20
1350.9366751355
 30
0.0
 10
155.458056047
 20
1354.963092794
 30
0.0
 10
159.9465386478
 20
1356.5077337048
 30
0.0
 10
162.12610394
 20
1356.4963492954
 30
0.0
  0
SPLINE
  5
348
100
AcDbEntity
  8
0
100
AcDbSpline
 62
7
  6
CONTINUOUS
 70
0
 71
3
 72
9
 73
5
 74
0
 42
0.0000001
 43
0.0000001
 44
0.0000000001
 40
0.0
 40
0.0
 40
0.0
 40
0.0
 40
0.0989386122
 40
1.0
 40
1.0
 40
1.0
 40
1.0
 10
152.4705167898
 20
1347.124799175
 30
0.0
 10
152.4498256041
 20
1347.1775366856
 30
0.0
 10
152.2883236797
 20
1347.7293346971
 30
0.0
 10
152.3899970495
 20
1348.3306200297
 30
0.0
 10
152.5098648618
 20
1348.8324416118
 30
0.0
  0
SPLINE
  5
349
100
AcDbEntity
  8
0
100
AcDbSpline
 62
7
  6
CONTINUOUS
 70
0
 71
3
 72
9
 73
5
 74
0
 42
0.0000001
 43
0.0000001
 44
0.0000000001
 40
0.0
 40
0.0
 40
0.0
 40
0.0
 40
0.4993398212
 40
1.0
 40
1.0
 40
1.0
 40
1.0
 10
154.8039898811
 20
1341.1763392728
 30
0.0
 10
155.1038288353
 20
1343.5043175437
 30
0.0
 10
157.5056395157
 20
1348.0948642177
 30
0.0
 10
162.3608333071
 20
1349.888428894
 30
0.0
 10
164.7142254781
 20
1349.8987220211
 30
0.0
  0
SPLINE
  5
34A
100
AcDbEntity
  8
0
100
AcDbSpline
 62
7
  6
CONTINUOUS
 70
0
 71
3
 72
11
 73
7
 74
0
 42
0.0000001
 43
0.0000001
 44
0.0000000001
 40
0.0
 40
0.0
 40
0.0
 40
0.0
 40
0.3920205735
 40
0.6974757166
 40
0.9015833162
 40
1.0
 40
1.0
 40
1.0
 40
1.0
 10
159.0833603316
 20
1340.0352142626
 30
0.0
 10
158.5096349417
 20
1340.1394761995
 30
0.0
 10
157.497515536
 20
1340.3281096551
 30
0.0
 10
156.1580316938
 20
1340.6038321648
 30
0.0
 10
155.3406845651
 20
1340.8518971593
 30
0.0
 10
154.8574459506
 20
1341.0400874361
 30
0.0
 10
154.8039838522
 20
1341.1763688396
 30
0.0
  0
SPLINE
  5
34B
100
AcDbEntity
  8
0
100
AcDbSpline
 62
7
  6
CONTINUOUS
 70
0
 71
3
 72
8
 73
4
 74
0
 42
0.0000001
 43
0.0000001
 44
0.0000000001
 40
0.0
 40
0.0
 40
0.0
 40
0.0
 40
1.0
 40
1.0
 40
1.0
 40
1.0
 10
662.0125003649
 20
750.6515818388
 30
0.0
 10
670.4485219021
 20
750.6921278589
 30
0.0
 10
678.8917467658
 20
750.6407156264
 30
0.0
 10
687.3176200534
 20
751.0563629473
 30
0.0
  0
SPLINE
  5
34C
100
AcDbEntity
  8
0
100
AcDbSpline
 62
7
  6
CONTINUOUS
 70
0
 71
3
 72
10
 73
6
 74
0
 42
0.0000001
 43
0.0000001
 44
0.0000000001
 40
0.0
 40
0.0
 40
0.0
 40
0.0
 40
0.5000251265
 40
0.7500152983
 40
1.0
 40
1.0
 40
1.0
 40
1.0
 10
525.2584101701
 20
793.7035058601
 30
0.0
 10
530.540219289
 20
793.7010030709
 30
0.0
 10
538.4628580197
 20
793.7335131646
 30
0.0
 10
549.025056008
 20
793.864337829
 30
0.0
 10
554.3060751724
 20
793.9328052827
 30
0.0
 10
556.9458690373
 20
793.9984744292
 30
0.0
  0
SPLINE
  5
34D
100
AcDbEntity
  8
0
100
AcDbSpline
 62
7
  6
CONTINUOUS
 70
0
 71
3
 72
9
 73
5
 74
0
 42
0.0000001
 43
0.0000001
 44
0.0000000001
 40
0.0
 40
0.0
 40
0.0
 40
0.0
 40
0.7505439105
 40
1.0
 40
1.0
 40
1.0
 40
1.0
 10
526.6816043388
 20
750.4168283165
 30
0.0
 10
537.6769690831
 20
750.4174825824
 30
0.0
 10
552.3268310723
 20
750.4214037629
 30
0.0
 10
566.9766914453
 20
750.4284691579
 30
0.0
 10
570.6311881738
 20
750.430519475
 30
0.0
  0
ENDSEC
  0
SECTION
  2
OBJECTS
  0
DICTIONARY
  5
C
100
AcDbDictionary
280
0
281
1
  3
ACAD_GROUP
350
D
  3
ACAD_MLINESTYLE
350
17
  3
ACAD_LAYOUT
350
1A
  3
ACAD_PLOTSETTINGS
350
19
  3
ACAD_PLOTSTYLENAME
350
E
  0
DICTIONARY
  5
D
102
{ACAD_REACTORS
330
C
102
}
100
AcDbDictionary
280
0
281
1
  0
ACDBDICTIONARYWDFLT
  5
E
102
{ACAD_REACTORS
330
C
102
}
100
AcDbDictionary
281
1
  3
Normal
350
F
100
AcDbDictionaryWithDefault
340
F
  0
DICTIONARY
  5
17
102
{ACAD_REACTORS
330
C
102
}
100
AcDbDictionary
280
0
281
1
  3
Standard
350
18
  0
DICTIONARY
  5
19
102
{ACAD_REACTORS
330
C
102
}
100
AcDbDictionary
281
1
  0
DICTIONARY
  5
1A
102
{ACAD_REACTORS
330
C
102
}
100
AcDbDictionary
281
1
  3
Model
350
34E
  3
Layout1
350
34F
  0
ACDBPLACEHOLDER
  5
F
102
{ACAD_REACTORS
330
E
102
}
  0
MLINESTYLE
  5
18
102
{ACAD_REACTORS
330
17
102
}
100
AcDbMlineStyle
  2
STANDARD
 70
0
  3

 62
256
 51
90.0
 52
90.0
 71
2
 49
0.5
 62
256
  6
BYLAYER
 49
-0.5
 62
256
  6
BYLAYER
  0
LAYOUT
  5
34E
102
{ACAD_REACTORS
330
1A
102
}
100
AcDbPlotSettings
  1

  2
none_device
  4
ANSI_C_(22.00_x_17.00_Inches)
  6

 40
0.0
 41
0.0
 42
0.0
 43
0.0
 44
558.8
 45
431.8
 46
0.0
 47
0.0
 48
0.0
 49
0.0
140
0.0
141
0.0
142
1.0
143
1.0
 70
1024
 72
1
 73
0
 74
0
  7

 75
0
147
1.0
148
0.0
149
0.0
100
AcDbLayout
  1
Model
 70
0
 71
0
 10
0.0
 20
0.0
 11
558.8
 21
431.8
 12
0.0
 22
0.0
 32
0.0
 14
0.0
 24
0.0
 34
0.0
 15
0.0
 25
0.0
 35
0.0
146
0.0
 13
0.0
 23
0.0
 33
0.0
 16
1.0
 26
0.0
 36
0.0
 17
0.0
 27
1.0
 37
0.0
 76
0
330
206
345
0
346
0
  0
LAYOUT
  5
34F
102
{ACAD_REACTORS
330
1A
102
}
100
AcDbPlotSettings
  1

  2
none_device
  4
ANSI_C_(22.00_x_17.00_Inches)
  6

 40
0.0
 41
0.0
 42
0.0
 43
0.0
 44
558.8
 45
431.8
 46
0.0
 47
0.0
 48
0.0
 49
0.0
140
0.0
141
0.0
142
1.0
143
1.0
 70
0
 72
1
 73
0
 74
0
  7

 75
0
147
1.0
148
0.0
149
0.0
100
AcDbLayout
  1
Layout1
 70
0
 71
1
 10
0.0
 20
0.0
 11
558.8
 21
431.8
 12
0.0
 22
0.0
 32
0.0
 14
0.0
 24
0.0
 34
0.0
 15
0.0
 25
0.0
 35
0.0
146
0.0
 13
0.0
 23
0.0
 33
0.0
 16
1.0
 26
0.0
 36
0.0
 17
0.0
 27
1.0
 37
0.0
 76
0
330
207
345
0
346
0
  0
ENDSEC
  0
EOF
