999
DXF file: 20613-front.dxf
999
Pro/ENGINEER 2016130 by Parametric Technology Corporation
  0
SECTION
  2
HEADER
  9
$ACADVER
  1
AC1027
  9
$DWGCODEPAGE
  3
ANSI_1252
  9
$EXTMAX
 10
558.8
 20
431.8
 30
0.0
  9
$EXTMIN
 10
0.0
 20
0.0
 30
0.0
  9
$LIMMIN
 10
0.0
 20
0.0
  9
$LIMMAX
 10
558.8
 20
431.8
  9
$VIEWCTR
 10
279.4
 20
215.9
  9
$VIEWSIZE
 40
431.8
  9
$CLAYER
  8
0
  9
$LTSCALE
 40
30.734
  9
$CELTYPE
  6
BYLAYER
  9
$DIMSCALE
 40
1.0
  9
$DIMASZ
 40
4.7625
  9
$DIMEXO
 40
1.5875
  9
$DIMDLI
 40
21.2344
  9
$DIMEXE
 40
3.175
  9
$DIMCEN
 40
5.0292
  9
$DIMLFAC
 40
1.0
  9
$DIMBLK
  1
_FILLED
  9
$DIMALT
 70
0
  9
$DIMALTF
 40
0.0393700787
  9
$DIMTXT
 40
3.96875
  9
$DIMTOL
 70
1
  9
$DIMLIM
 70
0
  9
$DIMTFAC
 40
1.0
  9
$DIMTP
 40
0.01
  9
$DIMTM
 40
0.01
  9
$DIMGAP
 40
0.625
  9
$DIMDSEP
 70
46
  9
$AUNITS
 70
0
  9
$PDMODE
 70
3
  9
$PDSIZE
 40
7.9375
  9
$HANDSEED
  5
34B
  9
$TILEMODE
 70
1
  9
$MEASUREMENT
 70
1
  9
$INSUNITS
 70
4
  0
ENDSEC
  0
SECTION
  2
CLASSES
  0
CLASS
  1
ACDBDICTIONARYWDFLT
  2
AcDbDictionaryWithDefault
  3
AutoCAD 2000
 90
0
 91
1
280
0
281
0
  0
CLASS
  1
ACDBPLACEHOLDER
  2
AcDbPlaceHolder
  3
AutoCAD 2000
 90
0
 91
1
280
0
281
0
  0
CLASS
  1
LAYOUT
  2
AcDbLayout
  3
AutoCAD 2000
 90
0
 91
0
280
0
281
0
  0
ENDSEC
  0
SECTION
  2
TABLES
  0
TABLE
  2
VPORT
  5
8
100
AcDbSymbolTable
 70
2
  0
VPORT
  5
1F4
100
AcDbSymbolTableRecord
100
AcDbViewportTableRecord
  2
*ACTIVE
 70
0
 10
0.0
 20
0.0
 11
1.0
 21
1.0
 12
279.4
 22
215.9
 13
0.0
 23
0.0
 14
1.0
 24
1.0
 15
0.0
 25
0.0
 16
0.0
 26
0.0
 36
1.0
 17
0.0
 27
0.0
 37
0.0
 40
431.8
 41
1.2941176471
 42
50.0
 43
0.0
 44
0.0
 50
0.0
 51
0.0
 71
0
 72
100
 73
1
 74
1
 75
0
 76
0
 77
0
 78
0
  0
ENDTAB
  0
TABLE
  2
LTYPE
  5
5
100
AcDbSymbolTable
 70
6
  0
LTYPE
  5
14
100
AcDbSymbolTableRecord
100
AcDbLinetypeTableRecord
  2
BYBLOCK
 70
0
  3

 72
65
 73
0
 40
0.0
  0
LTYPE
  5
15
100
AcDbSymbolTableRecord
100
AcDbLinetypeTableRecord
  2
BYLAYER
 70
0
  3

 72
65
 73
0
 40
0.0
  0
LTYPE
  5
16
100
AcDbSymbolTableRecord
100
AcDbLinetypeTableRecord
  2
CONTINUOUS
 70
64
  3
Solid line
 72
65
 73
0
 40
0.0
  0
LTYPE
  5
1F5
100
AcDbSymbolTableRecord
100
AcDbLinetypeTableRecord
  2
CENTER
 70
64
  3
____ _ ____ _ ____ _ ____ _ ____ _ ____ _ ____
 72
65
 73
4
 40
0.6
 49
0.375
 74
0
 49
-0.075
 74
0
 49
0.075
 74
0
 49
-0.075
 74
0
  0
LTYPE
  5
1F6
100
AcDbSymbolTableRecord
100
AcDbLinetypeTableRecord
  2
HIDDEN
 70
64
  3
- - - - - - - - - - - - - - - - - - - -
 72
65
 73
2
 40
0.2
 49
0.1
 74
0
 49
-0.1
 74
0
  0
LTYPE
  5
1F7
100
AcDbSymbolTableRecord
100
AcDbLinetypeTableRecord
  2
PHANTOM
 70
64
  3
_____ _ _ _____ _ _ _____ _ _ _____
 72
65
 73
6
 40
0.8
 49
0.45
 74
0
 49
-0.05
 74
0
 49
0.1
 74
0
 49
-0.05
 74
0
 49
0.1
 74
0
 49
-0.05
 74
0
  0
LTYPE
  5
1F8
100
AcDbSymbolTableRecord
100
AcDbLinetypeTableRecord
  2
DOT
 70
64
  3
. . . . . . . . . . . . . . . . . . . .
 72
65
 73
2
 40
0.2
 49
0.1
 74
0
 49
-0.1
 74
0
  0
LTYPE
  5
1F9
100
AcDbSymbolTableRecord
100
AcDbLinetypeTableRecord
  2
DASHED
 70
64
  3
- - - - - - - - - - - - - - - - - - - -
 72
65
 73
2
 40
0.2
 49
0.1
 74
0
 49
-0.1
 74
0
  0
ENDTAB
  0
TABLE
  2
LAYER
  5
2
100
AcDbSymbolTable
 70
36
  0
LAYER
  5
10
100
AcDbSymbolTableRecord
100
AcDbLayerTableRecord
  2
0
 70
0
 62
7
  6
CONTINUOUS
370
-3
390
F
  0
LAYER
  5
1FA
100
AcDbSymbolTableRecord
100
AcDbLayerTableRecord
  2
DEFAULT_1
 70
0
 62
7
  6
CENTER
370
-3
390
F
  0
LAYER
  5
1FB
100
AcDbSymbolTableRecord
100
AcDbLayerTableRecord
  2
DEFAULT_2
 70
0
 62
8
  6
HIDDEN
370
-3
390
F
  0
LAYER
  5
1FC
100
AcDbSymbolTableRecord
100
AcDbLayerTableRecord
  2
DEFAULT_3
 70
0
 62
7
  6
PHANTOM
370
-3
390
F
  0
LAYER
  5
1FD
100
AcDbSymbolTableRecord
100
AcDbLayerTableRecord
  2
DATUM_AXIS
 70
0
 62
7
  6
CONTINUOUS
370
-3
390
F
  0
LAYER
  5
1FE
100
AcDbSymbolTableRecord
100
AcDbLayerTableRecord
  2
DATUM_CSYS
 70
0
 62
7
  6
CONTINUOUS
370
-3
390
F
  0
LAYER
  5
1FF
100
AcDbSymbolTableRecord
100
AcDbLayerTableRecord
  2
DATUM_PLANE
 70
0
 62
7
  6
CONTINUOUS
370
-3
390
F
  0
LAYER
  5
200
100
AcDbSymbolTableRecord
100
AcDbLayerTableRecord
  2
DATUM_POINT
 70
0
 62
7
  6
CONTINUOUS
370
-3
390
F
  0
LAYER
  5
201
100
AcDbSymbolTableRecord
100
AcDbLayerTableRecord
  2
DEFAULT
 70
0
 62
7
  6
CONTINUOUS
370
-3
390
F
  0
LAYER
  5
202
100
AcDbSymbolTableRecord
100
AcDbLayerTableRecord
  2
LAY0001
 70
0
 62
7
  6
CONTINUOUS
370
-3
390
F
  0
LAYER
  5
203
100
AcDbSymbolTableRecord
100
AcDbLayerTableRecord
  2
_CURVE
 70
0
 62
7
  6
CONTINUOUS
370
-3
390
F
  0
LAYER
  5
204
100
AcDbSymbolTableRecord
100
AcDbLayerTableRecord
  2
_SURFACE
 70
0
 62
7
  6
CONTINUOUS
370
-3
390
F
  0
ENDTAB
  0
TABLE
  2
STYLE
  5
3
100
AcDbSymbolTable
 70
1
  0
STYLE
  5
11
100
AcDbSymbolTableRecord
100
AcDbTextStyleTableRecord
  2
STANDARD
 70
0
 40
0.0
 41
0.8
 50
0.0
 71
0
 42
0.2
  3
txt
  4

  0
STYLE
  5
205
100
AcDbSymbolTableRecord
100
AcDbTextStyleTableRecord
  2
TEXTSTYLE_1
 70
0
 40
0.0
 41
0.8
 50
0.0
 71
0
 42
0.2
  3
gdt
  4

  0
ENDTAB
  0
TABLE
  2
VIEW
  5
6
100
AcDbSymbolTable
 70
0
  0
ENDTAB
  0
TABLE
  2
UCS
  5
7
100
AcDbSymbolTable
 70
0
  0
ENDTAB
  0
TABLE
  2
APPID
  5
9
100
AcDbSymbolTable
 70
1
  0
APPID
  5
206
100
AcDbSymbolTableRecord
100
AcDbRegAppTableRecord
  2
ACAD
 70
0
  0
ENDTAB
  0
TABLE
  2
BLOCK_RECORD
  5
1
100
AcDbSymbolTable
 70
0
  0
BLOCK_RECORD
  5
207
100
AcDbSymbolTableRecord
100
AcDbBlockTableRecord
  2
*Model_Space
  0
BLOCK_RECORD
  5
208
100
AcDbSymbolTableRecord
100
AcDbBlockTableRecord
  2
*Paper_Space
  0
ENDTAB
  0
TABLE
  2
DIMSTYLE
  5
A
100
AcDbSymbolTable
 70
1
100
AcDbDimStyleTable
 71
0
  0
DIMSTYLE
105
209
100
AcDbSymbolTableRecord
100
AcDbDimStyleTableRecord
  2
STANDARD
 70
0
  3

  4

 40
1.0
 41
4.7625
 42
1.5875
 43
0.38
 44
3.175
 45
0.0
 46
0.0
 47
0.01
 48
0.01
140
3.96875
141
0.09
142
0.0
143
25.4
144
1.0
145
0.0
146
1.0
147
0.625
 71
1.0
 72
0.0
 73
1
 74
1
 75
0
 76
0
 77
0
 78
8
170
0
171
2
172
0
173
0
174
0
175
0
176
0
177
0
178
0
270
2
271
3
272
3
273
2
274
2
275
0
280
0
281
0
282
0
283
1
284
8
285
0
286
0
287
3
288
0
340
11
278
46
  0
ENDTAB
  0
ENDSEC
  0
SECTION
  2
BLOCKS
  0
BLOCK
  5
20
100
AcDbEntity
  8
0
100
AcDbBlockBegin
  2
*Model_Space
 70
0
 10
0.0
 20
0.0
 30
0.0
  3
*Model_Space
  1

  0
ENDBLK
  5
21
100
AcDbEntity
  8
0
100
AcDbBlockEnd
  0
BLOCK
  5
1C
100
AcDbEntity
  8
0
100
AcDbBlockBegin
  2
*Paper_Space
 70
0
 10
0.0
 20
0.0
 30
0.0
  3
*Paper_Space
  1

  0
ENDBLK
  5
1D
100
AcDbEntity
  8
0
100
AcDbBlockEnd
  0
ENDSEC
  0
SECTION
  2
ENTITIES
  0
LINE
  5
20A
100
AcDbEntity
  8
0
100
AcDbLine
 62
7
  6
CONTINUOUS
 10
0.0
 20
0.0
 11
0.0
 21
431.8
  0
LINE
  5
20B
100
AcDbEntity
  8
0
100
AcDbLine
 62
7
  6
CONTINUOUS
 10
0.0
 20
0.0
 11
558.8
 21
0.0
  0
LINE
  5
20C
100
AcDbEntity
  8
0
100
AcDbLine
 62
7
  6
CONTINUOUS
 10
0.0
 20
431.8
 11
558.8
 21
431.8
  0
LINE
  5
20D
100
AcDbEntity
  8
0
100
AcDbLine
 62
7
  6
CONTINUOUS
 10
558.8
 20
0.0
 11
558.8
 21
431.8
  0
LINE
  5
20E
100
AcDbEntity
  8
0
100
AcDbLine
 62
7
  6
CONTINUOUS
 10
-431.1507306233
 20
1140.6500096769
 11
-431.2670792994
 21
1140.163984417
  0
LWPOLYLINE
  5
20F
100
AcDbEntity
  8
0
100
AcDbPolyline
 62
7
  6
CONTINUOUS
 90
6
 70
0
 10
-431.0382298157
 20
1141.0797359756
 10
-431.1538100083
 20
1140.6840996929
 10
-431.2540010992
 20
1140.2795538309
 10
-431.3380716189
 20
1139.8666630292
 10
-431.405383042
 20
1139.4454672639
 10
-431.4444856898
 20
1139.1237082753
  0
LWPOLYLINE
  5
210
100
AcDbEntity
  8
0
100
AcDbPolyline
 62
7
  6
CONTINUOUS
 90
3
 70
0
 10
-430.9140879294
 20
1141.4047285672
 10
-431.1530895342
 20
1140.6275674433
 10
-431.3256024902
 20
1139.8418982414
  0
LWPOLYLINE
  5
211
100
AcDbEntity
  8
0
100
AcDbPolyline
 62
7
  6
CONTINUOUS
 90
3
 70
0
 10
-430.9370611394
 20
1141.3848593022
 10
-431.0835989858
 20
1140.9324001764
 10
-431.2098562904
 20
1140.4678118726
  0
LWPOLYLINE
  5
212
100
AcDbEntity
  8
0
100
AcDbPolyline
 62
7
  6
CONTINUOUS
 90
3
 70
0
 10
-430.754421087
 20
1141.8359513281
 10
-431.16678969
 20
1140.5889185782
 10
-431.3807865387
 20
1139.4637365096
  0
LWPOLYLINE
  5
213
100
AcDbEntity
  8
0
100
AcDbPolyline
 62
7
  6
CONTINUOUS
 90
3
 70
0
 10
-430.7827043084
 20
1141.7567505856
 10
-431.1076086546
 20
1140.7951234587
 10
-431.3340796732
 20
1139.7959886174
  0
LINE
  5
214
100
AcDbEntity
  8
0
100
AcDbLine
 62
7
  6
CONTINUOUS
 10
-430.852734434
 20
1141.5835864256
 11
-431.012252971
 21
1141.1233393339
  0
LINE
  5
215
100
AcDbEntity
  8
0
100
AcDbLine
 62
7
  6
CONTINUOUS
 10
-430.7713667453
 20
1141.8244224991
 11
-430.9370611394
 21
1141.3848593022
  0
LINE
  5
216
100
AcDbEntity
  8
0
100
AcDbLine
 62
7
  6
CONTINUOUS
 10
-430.6198787071
 20
1142.1438937297
 11
-430.9140879294
 21
1141.4047285672
  0
LINE
  5
217
100
AcDbEntity
  8
_SURFACE
100
AcDbLine
 62
7
  6
CONTINUOUS
 10
-431.4447217314
 20
1139.1237200937
 11
-432.8160424103
 21
1126.0774565336
  0
LINE
  5
218
100
AcDbEntity
  8
0
100
AcDbLine
 62
7
  6
CONTINUOUS
 10
-431.3600483845
 20
1139.6662479544
 11
-431.4319378324
 21
1139.1249153709
  0
LINE
  5
219
100
AcDbEntity
  8
0
100
AcDbLine
 62
7
  6
CONTINUOUS
 10
-431.3147265991
 20
1139.9919501254
 11
-431.3971273154
 21
1139.5057613602
  0
LWPOLYLINE
  5
21A
100
AcDbEntity
  8
0
100
AcDbPolyline
 62
7
  6
CONTINUOUS
 90
5
 70
0
 10
-430.25253635
 20
1142.9136786063
 10
-430.435369069
 20
1142.5668024779
 10
-430.6058806088
 20
1142.2099010507
 10
-430.7636561816
 20
1141.8428179708
 10
-430.9080021091
 20
1141.4659495868
  0
LWPOLYLINE
  5
21B
100
AcDbEntity
  8
0
100
AcDbPolyline
 62
7
  6
CONTINUOUS
 90
4
 70
0
 10
-429.4097105197
 20
1144.1959496334
 10
-429.6361612928
 20
1143.8913602218
 10
-429.8524614557
 20
1143.5760108417
 10
-430.0580204484
 20
1143.2501841627
  0
LWPOLYLINE
  5
21C
100
AcDbEntity
  8
0
100
AcDbPolyline
 62
7
  6
CONTINUOUS
 90
7
 70
0
 10
-429.1706557504
 20
1144.4934883484
 10
-429.4386544811
 20
1144.1586828402
 10
-429.6954016542
 20
1143.807905711
 10
-429.9397985098
 20
1143.4413682968
 10
-430.1707270811
 20
1143.0593556169
 10
-430.3870575251
 20
1142.6622249204
 10
-430.5876515668
 20
1142.2504095867
  0
LINE
  5
21D
100
AcDbEntity
  8
0
100
AcDbLine
 62
7
  6
CONTINUOUS
 10
-428.9282834303
 20
1144.7723675883
 11
-429.1736912021
 21
1144.4895403538
  0
LWPOLYLINE
  5
21E
100
AcDbEntity
  8
0
100
AcDbPolyline
 62
7
  6
CONTINUOUS
 90
4
 70
0
 10
-428.0073226003
 20
1145.671038665
 10
-428.3099332599
 20
1145.4008264844
 10
-428.6052498534
 20
1145.1146110999
 10
-428.8924811809
 20
1144.8121802437
  0
LWPOLYLINE
  5
21F
100
AcDbEntity
  8
0
100
AcDbPolyline
 62
7
  6
CONTINUOUS
 90
13
 70
0
 10
-427.3656770497
 20
1146.1689887751
 10
-427.7013239163
 20
1145.9140772295
 10
-428.029090315
 20
1145.6425170207
 10
-428.3480968577
 20
1145.3543383508
 10
-428.6575628537
 20
1145.0494859258
 10
-428.9564350208
 20
1144.7281818414
 10
-429.2437668227
 20
1144.3905819261
 10
-429.5188428967
 20
1144.0365501158
 10
-429.7805756038
 20
1143.6663876375
 10
-430.0278726268
 20
1143.2804587773
 10
-430.2598853977
 20
1142.8787428198
 10
-430.4754472336
 20
1142.4617190851
 10
-430.6733903075
 20
1142.0299487272
  0
LWPOLYLINE
  5
220
100
AcDbEntity
  8
0
100
AcDbPolyline
 62
7
  6
CONTINUOUS
 90
5
 70
0
 10
-427.2836814863
 20
1146.23560396
 10
-427.5756548754
 20
1146.0204991647
 10
-427.8617471201
 20
1145.7932091806
 10
-428.1406222223
 20
1145.5544847716
 10
-428.4114060378
 20
1145.3048644572
  0
LINE
  5
221
100
AcDbEntity
  8
0
100
AcDbLine
 62
7
  6
CONTINUOUS
 10
-426.9074306597
 20
1146.480204153
 11
-427.0339560442
 21
1146.3971490809
  0
LINE
  5
222
100
AcDbEntity
  8
0
100
AcDbLine
 62
7
  6
CONTINUOUS
 10
-426.6745519608
 20
1146.6286799083
 11
-427.0231276863
 21
1146.407177528
  0
LINE
  5
223
100
AcDbEntity
  8
0
100
AcDbLine
 62
7
  6
CONTINUOUS
 10
-426.3789292448
 20
1146.8069936516
 11
-426.6841295155
 21
1146.6292267778
  0
LWPOLYLINE
  5
224
100
AcDbEntity
  8
0
100
AcDbPolyline
 62
7
  6
CONTINUOUS
 90
3
 70
0
 10
-426.1108725333
 20
1146.9440953068
 10
-426.8102578599
 20
1146.5423337408
 10
-427.4577322763
 20
1146.0962678004
  0
LWPOLYLINE
  5
225
100
AcDbEntity
  8
0
100
AcDbPolyline
 62
7
  6
CONTINUOUS
 90
5
 70
0
 10
-426.083875751
 20
1146.9656613486
 10
-426.4145386781
 20
1146.7871483546
 10
-426.7414126679
 20
1146.5943995567
 10
-427.0648337905
 20
1146.3866462351
 10
-427.3841773247
 20
1146.1636007866
  0
LINE
  5
226
100
AcDbEntity
  8
0
100
AcDbLine
 62
7
  6
CONTINUOUS
 10
-425.9628017779
 20
1147.021919507
 11
-426.3208271311
 21
1146.8335582781
  0
LINE
  5
227
100
AcDbEntity
  8
0
100
AcDbLine
 62
7
  6
CONTINUOUS
 10
-425.7496339336
 20
1147.1302669986
 11
-426.083875751
 21
1146.9656613486
  0
LINE
  5
228
100
AcDbEntity
  8
0
100
AcDbLine
 62
7
  6
CONTINUOUS
 10
-425.2370281351
 20
1147.349745163
 11
-425.6012684256
 21
1147.1939231168
  0
LWPOLYLINE
  5
229
100
AcDbEntity
  8
0
100
AcDbPolyline
 62
7
  6
CONTINUOUS
 90
4
 70
0
 10
-424.8352080602
 20
1147.5055481652
 10
-425.1432260778
 20
1147.3908182486
 10
-425.4522453858
 20
1147.2639043717
 10
-425.7618487511
 20
1147.1243876199
  0
LINE
  5
22A
100
AcDbEntity
  8
0
100
AcDbLine
 62
7
  6
CONTINUOUS
 10
-57.7995864313
 20
1148.0762846864
 11
-57.7996463777
 21
1126.0778181211
  0
LWPOLYLINE
  5
22B
100
AcDbEntity
  8
_SURFACE
100
AcDbPolyline
 62
6
  6
CONTINUOUS
 90
18
 70
0
 10
-362.2818300541
 20
1117.5338076848
 10
-347.3881782698
 20
1100.5317868037
 10
-333.077619701
 20
1082.4307818879
 10
-319.3788251732
 20
1063.2459626876
 10
-306.3129020437
 20
1042.9952117912
 10
-293.8904681107
 20
1021.6911503278
 10
-282.1213825471
 20
999.3528611568
 10
-271.0169967119
 20
976.0169766734
 10
-260.5822967822
 20
951.7306365677
 10
-250.7882530943
 20
926.4768355616
 10
-241.6666846594
 20
900.3351596385
 10
-233.3771072767
 20
873.4463973976
 10
-225.9802163492
 20
845.5878029483
 10
-219.5285280257
 20
816.4771631971
 10
-214.1817782447
 20
786.4595931859
 10
-209.9792844344
 20
755.6813501917
 10
-206.8670802684
 20
723.7671955948
 10
-204.8343313556
 20
690.5770755378
  0
LINE
  5
22C
100
AcDbEntity
  8
0
100
AcDbLine
 62
7
  6
CONTINUOUS
 10
-32.7959345802
 20
1139.1215087922
 11
-32.7959265714
 21
1148.076211419
  0
LINE
  5
22D
100
AcDbEntity
  8
_SURFACE
100
AcDbLine
 62
6
  6
CONTINUOUS
 10
-32.7954141113
 20
1148.3955595433
 11
-32.7998385837
 21
1145.2382648155
  0
LWPOLYLINE
  5
22E
100
AcDbEntity
  8
0
100
AcDbPolyline
 62
7
  6
CONTINUOUS
 90
19
 70
0
 10
-362.2818310465
 20
1117.5338087607
 10
-357.036978244
 20
1111.7450143322
 10
-341.5884399802
 20
1093.4177826596
 10
-326.8085193644
 20
1073.8923800113
 10
-312.7276662175
 20
1053.1936681008
 10
-299.3643892077
 20
1031.3453863878
 10
-286.7256024797
 20
1008.3638343623
 10
-274.8091058883
 20
984.2561398674
 10
-263.6333496085
 20
959.0916456068
 10
-253.2229888037
 20
933.0003982808
 10
-243.5276182191
 20
905.9164395744
 10
-234.654450026
 20
877.8397928893
 10
-226.8182504292
 20
848.9880718411
 10
-220.0520990336
 20
819.0731748447
 10
-214.4021189312
 20
787.8544969831
 10
-209.9849916031
 20
755.7302372223
 10
-206.7901158254
 20
722.7864703919
 10
-204.7529675705
 20
688.6965422603
 10
-203.8971788149
 20
658.0776525156
  0
LWPOLYLINE
  5
22F
100
AcDbEntity
  8
_SURFACE
100
AcDbPolyline
 62
6
  6
CONTINUOUS
 90
3
 70
0
 10
-368.427569446
 20
1123.4047137538
 10
-365.2873029319
 20
1120.5830411916
 10
-362.2814250078
 20
1117.5338956762
  0
LINE
  5
230
100
AcDbEntity
  8
0
100
AcDbLine
 62
7
  6
CONTINUOUS
 10
78.209244052
 20
1126.0778181211
 11
78.2065091458
 21
1119.2570795697
  0
LINE
  5
231
100
AcDbEntity
  8
_SURFACE
100
AcDbLine
 62
6
  6
CONTINUOUS
 10
831.7155015101
 20
690.3135026406
 11
317.1996494327
 21
672.3447941776
  0
LINE
  5
232
100
AcDbEntity
  8
0
100
AcDbLine
 62
7
  6
CONTINUOUS
 10
559.6380546999
 20
684.5912683408
 11
559.0264766847
 21
684.5765541111
  0
LINE
  5
233
100
AcDbEntity
  8
0
100
AcDbLine
 62
7
  6
CONTINUOUS
 10
-203.8415276326
 20
658.0776524616
 11
838.239396278
 21
658.0766422991
  0
LINE
  5
234
100
AcDbEntity
  8
0
100
AcDbLine
 62
7
  6
CONTINUOUS
 10
-22.7950430887
 20
686.9527179674
 11
-23.2965785806
 21
686.9623781994
  0
LINE
  5
235
100
AcDbEntity
  8
0
100
AcDbLine
 62
7
  6
CONTINUOUS
 10
82.1326749562
 20
684.4147994989
 11
81.8329069194
 21
684.4219426522
  0
LINE
  5
236
100
AcDbEntity
  8
_SURFACE
100
AcDbLine
 62
6
  6
CONTINUOUS
 10
-197.3155899098
 20
690.3144799702
 11
317.1996494327
 21
672.3447941776
  0
LINE
  5
237
100
AcDbEntity
  8
_SURFACE
100
AcDbLine
 62
7
  6
CONTINUOUS
 10
167.2001084106
 20
1145.8252115866
 11
167.2000145679
 21
1049.0173733669
  0
LINE
  5
238
100
AcDbEntity
  8
0
100
AcDbLine
 62
7
  6
CONTINUOUS
 10
-431.4445089333
 20
1139.1236216028
 11
-431.4447219515
 21
1139.1237180005
  0
LWPOLYLINE
  5
239
100
AcDbEntity
  8
_SURFACE
100
AcDbPolyline
 62
6
  6
CONTINUOUS
 90
9
 70
0
 10
-393.6062961905
 20
1137.7306449318
 10
-390.5031200897
 20
1136.6355012632
 10
-387.3528207481
 20
1135.3351426937
 10
-384.2018345949
 20
1133.8484492528
 10
-381.0509578353
 20
1132.1751433293
 10
-377.8651619097
 20
1130.2884772002
 10
-374.7134060868
 20
1128.2188561698
 10
-371.5871511944
 20
1125.9485236469
 10
-368.4280688654
 20
1123.4051373523
  0
LINE
  5
23A
100
AcDbEntity
  8
_SURFACE
100
AcDbLine
 62
6
  6
CONTINUOUS
 10
-396.7031776128
 20
1138.6311637871
 11
-393.6081881046
 21
1137.7312550501
  0
LINE
  5
23B
100
AcDbEntity
  8
0
100
AcDbLine
 62
7
  6
CONTINUOUS
 10
1065.8454169809
 20
1139.1222624949
 11
1065.8452335332
 21
1139.1222256924
  0
LINE
  5
23C
100
AcDbEntity
  8
_SURFACE
100
AcDbLine
 62
7
  6
CONTINUOUS
 10
467.2001084104
 20
1145.8249207755
 11
467.2000145678
 21
1049.0170825557
  0
LINE
  5
23D
100
AcDbEntity
  8
_SURFACE
100
AcDbLine
 62
7
  6
CONTINUOUS
 10
167.2000145679
 20
1049.0173733669
 11
467.2000145678
 21
1049.0170825557
  0
LINE
  5
23E
100
AcDbEntity
  8
_SURFACE
100
AcDbLine
 62
6
  6
CONTINUOUS
 10
167.2000293446
 20
1064.2609659152
 11
467.2000293444
 21
1064.2606751041
  0
LINE
  5
23F
100
AcDbEntity
  8
_SURFACE
100
AcDbLine
 62
6
  6
CONTINUOUS
 10
167.2000327308
 20
1067.7541431075
 11
467.2000327306
 21
1067.7538522963
  0
LINE
  5
240
100
AcDbEntity
  8
_SURFACE
100
AcDbLine
 62
6
  6
CONTINUOUS
 10
1039.8852329298
 20
1140.0180334897
 11
1055.5585959082
 21
1140.565094188
  0
LINE
  5
241
100
AcDbEntity
  8
_SURFACE
100
AcDbLine
 62
6
  6
CONTINUOUS
 10
167.2000442461
 20
1079.6333749819
 11
467.200044246
 21
1079.6330841708
  0
LINE
  5
242
100
AcDbEntity
  8
_CURVE
100
AcDbLine
 62
40
  6
CONTINUOUS
 10
560.9439345394
 20
1094.0777689105
 11
78.2285583936
 21
1094.0777689124
  0
LINE
  5
243
100
AcDbEntity
  8
0
100
AcDbLine
 62
7
  6
CONTINUOUS
 10
561.0423783889
 20
1119.2570490658
 11
78.2080296329
 21
1119.2570795696
  0
LINE
  5
244
100
AcDbEntity
  8
_SURFACE
100
AcDbLine
 62
6
  6
CONTINUOUS
 10
-421.1578852225
 20
1140.5665258352
 11
-405.518272056
 21
1140.0206127771
  0
LWPOLYLINE
  5
245
100
AcDbEntity
  8
_SURFACE
100
AcDbPolyline
 62
6
  6
CONTINUOUS
 90
4
 70
0
 10
-405.8530695478
 20
1140.0322993323
 10
-402.8671958632
 20
1139.802459333
 10
-399.8061381525
 20
1139.3295381927
 10
-396.7016243703
 20
1138.6307619387
  0
LINE
  5
246
100
AcDbEntity
  8
0
100
AcDbLine
 62
7
  6
CONTINUOUS
 10
561.0447785261
 20
1126.077818121
 11
561.0442782939
 21
1119.2570490652
  0
LINE
  5
247
100
AcDbEntity
  8
_SURFACE
100
AcDbLine
 62
6
  6
CONTINUOUS
 10
1039.6483858981
 20
1147.5143339277
 11
1065.1883495155
 21
1148.40577672
  0
LWPOLYLINE
  5
248
100
AcDbEntity
  8
0
100
AcDbPolyline
 62
7
  6
CONTINUOUS
 90
3
 70
0
 10
-421.6305740407
 20
1148.0781887622
 10
-421.676840189
 20
1148.0773456384
 10
-421.7426305693
 20
1148.075836221
  0
LINE
  5
249
100
AcDbEntity
  8
_SURFACE
100
AcDbLine
 62
6
  6
CONTINUOUS
 10
1044.4259568438
 20
1140.4583338139
 11
1055.6214434286
 21
1140.5750070489
  0
LINE
  5
24A
100
AcDbEntity
  8
_SURFACE
100
AcDbLine
 62
6
  6
CONTINUOUS
 10
1043.9022271984
 20
1147.9533218104
 11
1064.5665621273
 21
1148.1654928119
  0
LINE
  5
24B
100
AcDbEntity
  8
0
100
AcDbLine
 62
7
  6
CONTINUOUS
 10
1055.7764217067
 20
1148.0754215075
 11
1055.7764847806
 21
1148.07542215
  0
LINE
  5
24C
100
AcDbEntity
  8
0
100
AcDbLine
 62
7
  6
CONTINUOUS
 10
-421.4675450635
 20
1148.0800185542
 11
-421.5885149388
 21
1148.0788136374
  0
LINE
  5
24D
100
AcDbEntity
  8
0
100
AcDbLine
 62
7
  6
CONTINUOUS
 10
-421.2076258528
 20
1148.0810406833
 11
-421.4675450635
 21
1148.0800185542
  0
LWPOLYLINE
  5
24E
100
AcDbEntity
  8
0
100
AcDbPolyline
 62
7
  6
CONTINUOUS
 90
3
 70
0
 10
-421.5997571969
 20
1148.0786466103
 10
-421.6306986258
 20
1148.0785871845
 10
-421.9248123699
 20
1148.0695336062
  0
LINE
  5
24F
100
AcDbEntity
  8
_SURFACE
100
AcDbLine
 62
7
  6
CONTINUOUS
 10
667.1961340681
 20
1148.1389175817
 11
1064.8963483497
 21
1148.3948968067
  0
LINE
  5
250
100
AcDbEntity
  8
_SURFACE
100
AcDbLine
 62
7
  6
CONTINUOUS
 10
-32.7956124842
 20
1148.3955926279
 11
-430.4938484927
 21
1148.1405001906
  0
LINE
  5
251
100
AcDbEntity
  8
0
100
AcDbLine
 62
7
  6
CONTINUOUS
 10
-432.8451076193
 20
1126.0777980993
 11
1067.2236234214
 21
1126.0777980994
  0
LINE
  5
252
100
AcDbEntity
  8
_SURFACE
100
AcDbLine
 62
6
  6
CONTINUOUS
 10
167.1996345209
 20
1129.3424420553
 11
467.1996345093
 21
1129.3405991839
  0
LINE
  5
253
100
AcDbEntity
  8
_SURFACE
100
AcDbLine
 62
6
  6
CONTINUOUS
 10
167.2000984327
 20
1135.5321106037
 11
467.2000984326
 21
1135.5318197926
  0
LINE
  5
254
100
AcDbEntity
  8
_SURFACE
100
AcDbLine
 62
7
  6
CONTINUOUS
 10
167.1996915484
 20
1137.7641058984
 11
467.1996915484
 21
1137.7638302261
  0
LINE
  5
255
100
AcDbEntity
  8
0
100
AcDbLine
 62
7
  6
CONTINUOUS
 10
1065.845231245
 20
1139.1222474577
 11
-431.444500099
 21
1139.1237051064
  0
LINE
  5
256
100
AcDbEntity
  8
_SURFACE
100
AcDbLine
 62
7
  6
CONTINUOUS
 10
667.1966307539
 20
1140.5673153295
 11
1055.6421922636
 21
1140.5775530591
  0
LINE
  5
257
100
AcDbEntity
  8
_SURFACE
100
AcDbLine
 62
7
  6
CONTINUOUS
 10
-32.7959303955
 20
1140.5686987416
 11
-421.2335194554
 21
1140.5685973241
  0
LINE
  5
258
100
AcDbEntity
  8
_SURFACE
100
AcDbLine
 62
7
  6
CONTINUOUS
 10
167.1996988208
 20
1145.2595371011
 11
467.1996988208
 21
1145.2592614288
  0
LINE
  5
259
100
AcDbEntity
  8
_SURFACE
100
AcDbLine
 62
7
  6
CONTINUOUS
 10
167.2001084106
 20
1145.8252115866
 11
467.2001084104
 21
1145.8249207755
  0
LINE
  5
25A
100
AcDbEntity
  8
_SURFACE
100
AcDbLine
 62
7
  6
CONTINUOUS
 10
692.2003552954
 20
1148.3948924121
 11
667.1962784124
 21
1148.3929582044
  0
LINE
  5
25B
100
AcDbEntity
  8
0
100
AcDbLine
 62
7
  6
CONTINUOUS
 10
-388.4654108666
 20
1148.0776780202
 11
-421.1376222138
 21
1148.0811423366
  0
LINE
  5
25C
100
AcDbEntity
  8
0
100
AcDbLine
 62
7
  6
CONTINUOUS
 10
1055.6923367095
 20
1148.0794151621
 11
-388.4654108666
 21
1148.0776780202
  0
LINE
  5
25D
100
AcDbEntity
  8
0
100
AcDbLine
 62
7
  6
CONTINUOUS
 10
1055.860768616
 20
1148.078638966
 11
1055.7393746738
 21
1148.0792609081
  0
LINE
  5
25E
100
AcDbEntity
  8
_SURFACE
100
AcDbLine
 62
6
  6
CONTINUOUS
 10
-430.1658498925
 20
1148.1669417567
 11
-409.5578936706
 21
1147.955314403
  0
LINE
  5
25F
100
AcDbEntity
  8
_SURFACE
100
AcDbLine
 62
6
  6
CONTINUOUS
 10
-411.1467836224
 20
1140.4713577242
 11
-421.2158043351
 21
1140.5748172369
  0
LINE
  5
260
100
AcDbEntity
  8
0
100
AcDbLine
 62
7
  6
CONTINUOUS
 10
1056.0104031726
 20
1148.0770832754
 11
1055.9697128094
 21
1148.0776306399
  0
LWPOLYLINE
  5
261
100
AcDbEntity
  8
0
100
AcDbPolyline
 62
7
  6
CONTINUOUS
 90
4
 70
0
 10
1056.2511323644
 20
1148.0710755471
 10
1056.1684935744
 20
1148.0737246351
 10
1056.1008583928
 20
1148.0754223914
 10
1056.0529400427
 20
1148.0763840017
  0
LINE
  5
262
100
AcDbEntity
  8
_SURFACE
100
AcDbLine
 62
6
  6
CONTINUOUS
 10
-405.2637527472
 20
1147.5162963981
 11
-430.7890168012
 21
1148.4072756664
  0
LINE
  5
263
100
AcDbEntity
  8
0
100
AcDbLine
 62
7
  6
CONTINUOUS
 10
589.4140269393
 20
658.0768835031
 11
590.3154832018
 21
685.3524001328
  0
LWPOLYLINE
  5
264
100
AcDbEntity
  8
0
100
AcDbPolyline
 62
7
  6
CONTINUOUS
 90
8
 70
0
 10
-422.6228341405
 20
1148.0143116395
 10
-422.6573869104
 20
1148.010863084
 10
-423.0283683171
 20
1147.9600737531
 10
-423.400400235
 20
1147.8948057062
 10
-423.7680701072
 20
1147.815917109
 10
-424.1356698245
 20
1147.7223946089
 10
-424.5034012961
 20
1147.613751801
 10
-424.870843094
 20
1147.4896010971
  0
LINE
  5
265
100
AcDbEntity
  8
0
100
AcDbLine
 62
7
  6
CONTINUOUS
 10
-422.3076905401
 20
1148.0457960873
 11
-422.5453434534
 21
1148.0236359478
  0
LWPOLYLINE
  5
266
100
AcDbEntity
  8
0
100
AcDbPolyline
 62
7
  6
CONTINUOUS
 90
6
 70
0
 10
-422.8704104757
 20
1147.9831339714
 10
-422.8749079902
 20
1147.9827985466
 10
-424.1464646659
 20
1147.7194237111
 10
-425.3761872575
 20
1147.2922278343
 10
-426.5425653065
 20
1146.7073989395
 10
-427.5802814721
 20
1146.0043724386
  0
LINE
  5
267
100
AcDbEntity
  8
0
100
AcDbLine
 62
7
  6
CONTINUOUS
 10
-421.9579849089
 20
1148.0685124701
 11
-422.2872923618
 21
1148.0472821569
  0
LWPOLYLINE
  5
268
100
AcDbEntity
  8
0
100
AcDbPolyline
 62
7
  6
CONTINUOUS
 90
3
 70
0
 10
-421.8267112733
 20
1148.0733340334
 10
-421.9311049097
 20
1148.0692898338
 10
-422.0762331385
 20
1148.0618945375
  0
LWPOLYLINE
  5
269
100
AcDbEntity
  8
0
100
AcDbPolyline
 62
7
  6
CONTINUOUS
 90
3
 70
0
 10
1056.5890984979
 20
1148.0528055406
 10
1056.0544926782
 20
1148.0762443687
 10
1055.988096201
 20
1148.0764123713
  0
LINE
  5
26A
100
AcDbEntity
  8
0
100
AcDbLine
 62
7
  6
CONTINUOUS
 10
1056.5073486406
 20
1148.0586490003
 11
1056.3541843868
 21
1148.0668528952
  0
LINE
  5
26B
100
AcDbEntity
  8
0
100
AcDbLine
 62
7
  6
CONTINUOUS
 10
1056.7070728973
 20
1148.0444693187
 11
1056.5490864714
 21
1148.0555486978
  0
LINE
  5
26C
100
AcDbEntity
  8
0
100
AcDbLine
 62
7
  6
CONTINUOUS
 10
1057.0001936376
 20
1148.0163181115
 11
1056.7286815009
 21
1148.042663686
  0
LINE
  5
26D
100
AcDbEntity
  8
_SURFACE
100
AcDbLine
 62
6
  6
CONTINUOUS
 10
667.1962784124
 20
1148.394880992
 11
667.200198512
 21
1145.237758717
  0
LINE
  5
26E
100
AcDbEntity
  8
0
100
AcDbLine
 62
7
  6
CONTINUOUS
 10
667.1966106586
 20
1139.1208317273
 11
667.1966192274
 21
1148.0755612789
  0
LWPOLYLINE
  5
26F
100
AcDbEntity
  8
_SURFACE
100
AcDbPolyline
 62
6
  6
CONTINUOUS
 90
15
 70
0
 10
996.6824723451
 20
1117.5326326577
 10
999.659872264
 20
1120.6999723791
 10
1002.6427398779
 20
1123.7271898322
 10
1005.6492863943
 20
1126.5863430059
 10
1008.6630682176
 20
1129.2082301439
 10
1011.6662660371
 20
1131.5303044213
 10
1014.7745215347
 20
1133.5958711916
 10
1018.0098025979
 20
1135.3738997029
 10
1021.2244571374
 20
1136.776596077
 10
1024.3772502461
 20
1137.8302677631
 10
1027.6143159036
 20
1138.6368566942
 10
1030.8812529199
 20
1139.226671268
 10
1034.0879057315
 20
1139.6293906374
 10
1037.2175869299
 20
1139.8863019821
 10
1040.2217671604
 20
1140.0295734316
  0
LWPOLYLINE
  5
270
100
AcDbEntity
  8
0
100
AcDbPolyline
 62
7
  6
CONTINUOUS
 90
4
 70
0
 10
996.6824805801
 20
1117.5326415841
 10
1000.7493224341
 20
1121.8247058021
 10
1004.5435782767
 20
1125.5603508735
 10
1005.1259996689
 20
1126.0778181225
  0
LINE
  5
271
100
AcDbEntity
  8
0
100
AcDbLine
 62
7
  6
CONTINUOUS
 10
-422.822077081
 20
1147.9906062052
 11
-423.1142769165
 21
1147.9472004336
  0
LINE
  5
272
100
AcDbEntity
  8
0
100
AcDbLine
 62
7
  6
CONTINUOUS
 10
-422.7783151292
 20
1147.9963042535
 11
-423.0500822656
 21
1147.957439642
  0
LINE
  5
273
100
AcDbEntity
  8
0
100
AcDbLine
 62
7
  6
CONTINUOUS
 10
-422.5453434534
 20
1148.0236359478
 11
-422.822077081
 21
1147.9906062052
  0
LWPOLYLINE
  5
274
100
AcDbEntity
  8
0
100
AcDbPolyline
 62
7
  6
CONTINUOUS
 90
3
 70
0
 10
1057.1568189499
 20
1147.9972915216
 10
1056.8449961896
 20
1148.0322338656
 10
1056.6690525672
 20
1148.0464402672
  0
LINE
  5
275
100
AcDbEntity
  8
0
100
AcDbLine
 62
7
  6
CONTINUOUS
 10
1057.4784478204
 20
1147.9508080574
 11
1057.1568189499
 21
1147.9972915216
  0
LWPOLYLINE
  5
276
100
AcDbEntity
  8
0
100
AcDbPolyline
 62
7
  6
CONTINUOUS
 90
3
 70
0
 10
1057.5939384294
 20
1147.932518778
 10
1057.2738504176
 20
1147.982220726
 10
1056.9775892444
 20
1148.0188309434
  0
LINE
  5
277
100
AcDbEntity
  8
0
100
AcDbLine
 62
7
  6
CONTINUOUS
 10
1057.8305730808
 20
1147.8864004642
 11
1057.4739628112
 21
1147.9504812784
  0
LINE
  5
278
100
AcDbEntity
  8
0
100
AcDbLine
 62
7
  6
CONTINUOUS
 10
-423.9270757871
 20
1147.7792056105
 11
-424.2266431894
 21
1147.6992729744
  0
LWPOLYLINE
  5
279
100
AcDbEntity
  8
0
100
AcDbPolyline
 62
7
  6
CONTINUOUS
 90
6
 70
0
 10
-423.7311888144
 20
1147.8262154219
 10
-424.0561189243
 20
1147.7460738427
 10
-424.3905616976
 20
1147.6513769115
 10
-424.732788844
 20
1147.5412693921
 10
-425.0745503229
 20
1147.4175121843
 10
-425.4128971209
 20
1147.2808608409
  0
LWPOLYLINE
  5
27A
100
AcDbEntity
  8
0
100
AcDbPolyline
 62
7
  6
CONTINUOUS
 90
5
 70
0
 10
-423.4285327097
 20
1147.8881661056
 10
-424.0490825397
 20
1147.7444324738
 10
-424.7232751897
 20
1147.5397906352
 10
-425.41460018
 20
1147.2740559046
 10
-426.1108725333
 20
1146.9440953068
  0
LWPOLYLINE
  5
27B
100
AcDbEntity
  8
0
100
AcDbPolyline
 62
7
  6
CONTINUOUS
 90
5
 70
0
 10
1058.0317137831
 20
1147.8443328562
 10
1057.7685896864
 20
1147.8985011667
 10
1057.4321065569
 20
1147.9571336341
 10
1057.036793522
 20
1148.0110249604
 10
1056.5750578355
 20
1148.0537588419
  0
LINE
  5
27C
100
AcDbEntity
  8
0
100
AcDbLine
 62
7
  6
CONTINUOUS
 10
1058.3623183303
 20
1147.7657148516
 11
1058.1236254291
 21
1147.8236631177
  0
LWPOLYLINE
  5
27D
100
AcDbEntity
  8
0
100
AcDbPolyline
 62
7
  6
CONTINUOUS
 90
3
 70
0
 10
1058.4671748924
 20
1147.7397038138
 10
1058.1341088954
 20
1147.8225403541
 10
1057.8211115894
 20
1147.8891754921
  0
LINE
  5
27E
100
AcDbEntity
  8
0
100
AcDbLine
 62
7
  6
CONTINUOUS
 10
1058.6598340281
 20
1147.6885870187
 11
1058.3141523825
 21
1147.781187204
  0
LWPOLYLINE
  5
27F
100
AcDbEntity
  8
0
100
AcDbPolyline
 62
7
  6
CONTINUOUS
 90
4
 70
0
 10
1059.1004934423
 20
1147.5462685809
 10
1058.9317537278
 20
1147.6019235221
 10
1058.7660684792
 20
1147.6533636131
 10
1058.4671748924
 20
1147.7397038138
  0
LWPOLYLINE
  5
280
100
AcDbEntity
  8
0
100
AcDbPolyline
 62
7
  6
CONTINUOUS
 90
5
 70
0
 10
1059.3445088202
 20
1147.4598414932
 10
1059.0797037456
 20
1147.5533104537
 10
1058.8467875962
 20
1147.6287010185
 10
1058.6451372126
 20
1147.6889364415
 10
1058.4400348988
 20
1147.7455045712
  0
LWPOLYLINE
  5
281
100
AcDbEntity
  8
0
100
AcDbPolyline
 62
7
  6
CONTINUOUS
 90
19
 70
0
 10
838.2970270354
 20
658.0766422432
 10
839.1528763161
 20
688.6955577937
 10
841.1900961091
 20
722.78553932
 10
844.3850453549
 20
755.7293539463
 10
848.8022491538
 20
787.8536576234
 10
854.4523086089
 20
819.072375023
 10
861.2185405683
 20
848.9873053425
 10
869.0548217563
 20
877.839054234
 10
877.928072974
 20
905.915725707
 10
887.6235269405
 20
932.9997073347
 10
898.0339721237
 20
959.0909726393
 10
909.2098144331
 20
984.2554786516
 10
921.126398725
 20
1008.3631792478
 10
933.7652749626
 20
1031.3447321854
 10
947.128643018
 20
1053.1930089098
 10
961.2095880661
 20
1073.8917088557
 10
975.9896010072
 20
1093.4170923568
 10
991.4382319373
 20
1111.7442981476
 10
996.682603728
 20
1117.532527946
  0
LWPOLYLINE
  5
282
100
AcDbEntity
  8
0
100
AcDbPolyline
 62
7
  6
CONTINUOUS
 90
6
 70
0
 10
1059.6790467907
 20
1147.3354930223
 10
1059.3295551093
 20
1147.4705580131
 10
1058.9804405996
 20
1147.5907572038
 10
1058.6324895003
 20
1147.6964659105
 10
1058.2871846625
 20
1147.7879184551
 10
1057.9386941038
 20
1147.8670114419
  0
LWPOLYLINE
  5
283
100
AcDbEntity
  8
0
100
AcDbPolyline
 62
7
  6
CONTINUOUS
 90
3
 70
0
 10
1059.6500892608
 20
1147.3414005291
 10
1059.4150652466
 20
1147.433509558
 10
1059.256276003
 20
1147.4919106415
  0
LINE
  5
284
100
AcDbEntity
  8
0
100
AcDbLine
 62
7
  6
CONTINUOUS
 10
1060.053900787
 20
1147.1733876479
 11
1059.7055167108
 21
1147.3245515681
  0
LWPOLYLINE
  5
285
100
AcDbEntity
  8
_SURFACE
100
AcDbPolyline
 62
6
  6
CONTINUOUS
 90
18
 70
0
 10
839.2342434761
 20
690.5760836317
 10
841.2670560739
 20
723.7661824745
 10
844.379320388
 20
755.6803153166
 10
848.5818709493
 20
786.4585348526
 10
853.9286747685
 20
816.4760797027
 10
860.3804166021
 20
845.586702694
 10
867.7773604033
 20
873.4452859821
 10
876.0669849842
 20
900.3340227597
 10
885.1886014406
 20
926.4756794587
 10
894.9826956712
 20
951.7294707115
 10
905.417443195
 20
976.0157961531
 10
916.5218759928
 20
999.3516664359
 10
928.2910085385
 20
1021.6899425876
 10
940.7134902005
 20
1042.9939926584
 10
953.7794609145
 20
1063.2447314789
 10
967.4783018738
 20
1082.42953613
 10
981.7889063859
 20
1100.5305248861
 10
996.682603709
 20
1117.5325279253
  0
LINE
  5
286
100
AcDbEntity
  8
0
100
AcDbLine
 62
7
  6
CONTINUOUS
 10
1060.381956823
 20
1147.0089881279
 11
1059.9814317512
 21
1147.1996846696
  0
LWPOLYLINE
  5
287
100
AcDbEntity
  8
0
100
AcDbPolyline
 62
7
  6
CONTINUOUS
 90
7
 70
0
 10
1061.7674391225
 20
1146.163355279
 10
1061.0004032152
 20
1146.6698221545
 10
1060.2106951091
 20
1147.0933288867
 10
1059.4258995344
 20
1147.4295191604
 10
1058.7004995557
 20
1147.6729412731
 10
1058.0630281135
 20
1147.8374620869
 10
1057.503694543
 20
1147.9457061963
  0
LWPOLYLINE
  5
288
100
AcDbEntity
  8
0
100
AcDbPolyline
 62
7
  6
CONTINUOUS
 90
5
 70
0
 10
1061.7356850612
 20
1146.1977459315
 10
1061.4026481454
 20
1146.4269965267
 10
1061.0644009594
 20
1146.6403164948
 10
1060.7217760579
 20
1146.8378079292
 10
1060.3761350159
 20
1147.0193350037
  0
LINE
  5
289
100
AcDbEntity
  8
0
100
AcDbLine
 62
7
  6
CONTINUOUS
 10
1061.9861619487
 20
1146.0000128867
 11
1061.394458571
 21
1146.4224171241
  0
LINE
  5
28A
100
AcDbEntity
  8
0
100
AcDbLine
 62
7
  6
CONTINUOUS
 10
1062.0801161094
 20
1145.9386454954
 11
1061.7546590704
 21
1146.183924879
  0
LINE
  5
28B
100
AcDbEntity
  8
0
100
AcDbLine
 62
7
  6
CONTINUOUS
 10
1062.1116884039
 20
1145.901720823
 11
1061.8985002146
 21
1146.0667680389
  0
LINE
  5
28C
100
AcDbEntity
  8
0
100
AcDbLine
 62
7
  6
CONTINUOUS
 10
1062.3822795319
 20
1145.6915982699
 11
1062.0626716653
 21
1145.9524918351
  0
LINE
  5
28D
100
AcDbEntity
  8
0
100
AcDbLine
 62
7
  6
CONTINUOUS
 10
1062.3864102352
 20
1145.6749393251
 11
1062.1116884039
 21
1145.901720823
  0
LINE
  5
28E
100
AcDbEntity
  8
0
100
AcDbLine
 62
7
  6
CONTINUOUS
 10
1062.6799190337
 20
1145.4135479788
 11
1062.3257188104
 21
1145.7264563463
  0
LINE
  5
28F
100
AcDbEntity
  8
0
100
AcDbLine
 62
7
  6
CONTINUOUS
 10
1062.7080297068
 20
1145.4016251727
 11
1062.3982466311
 21
1145.6777987804
  0
LINE
  5
290
100
AcDbEntity
  8
_SURFACE
100
AcDbLine
 62
7
  6
CONTINUOUS
 10
1067.2163355934
 20
1126.0777980993
 11
1065.8452308054
 21
1139.1222516443
  0
LINE
  5
291
100
AcDbEntity
  8
0
100
AcDbLine
 62
7
  6
CONTINUOUS
 10
1063.2879236509
 20
1144.8165197037
 11
1062.9955952616
 21
1145.1236238194
  0
LWPOLYLINE
  5
292
100
AcDbEntity
  8
0
100
AcDbPolyline
 62
7
  6
CONTINUOUS
 90
7
 70
0
 10
1063.9391914272
 20
1144.0033587044
 10
1063.452957332
 20
1144.6130220925
 10
1062.9441441136
 20
1145.1596437628
 10
1062.4178868675
 20
1145.6478981096
 10
1061.8844343907
 20
1146.0773487846
 10
1061.366054853
 20
1146.4411135254
 10
1060.8716309141
 20
1146.7450621968
  0
LWPOLYLINE
  5
293
100
AcDbEntity
  8
0
100
AcDbPolyline
 62
7
  6
CONTINUOUS
 90
3
 70
0
 10
1063.9954243485
 20
1143.9261245775
 10
1063.6793233653
 20
1144.3412635638
 10
1063.3573859262
 20
1144.7220824999
  0
LWPOLYLINE
  5
294
100
AcDbEntity
  8
0
100
AcDbPolyline
 62
7
  6
CONTINUOUS
 90
4
 70
0
 10
1064.2329988473
 20
1143.5816314414
 10
1063.8544398594
 20
1144.116835979
 10
1063.4604175446
 20
1144.604338233
 10
1063.0603852163
 20
1145.0417965587
  0
LWPOLYLINE
  5
295
100
AcDbEntity
  8
0
100
AcDbPolyline
 62
7
  6
CONTINUOUS
 90
3
 70
0
 10
1064.3495791455
 20
1143.4253082603
 10
1064.1059108727
 20
1143.7921328078
 10
1063.8491471316
 20
1144.1441827432
  0
LWPOLYLINE
  5
296
100
AcDbEntity
  8
0
100
AcDbPolyline
 62
7
  6
CONTINUOUS
 90
6
 70
0
 10
1064.9551083285
 20
1142.2870520729
 10
1064.4593779622
 20
1143.2222458688
 10
1063.8854295555
 20
1144.0760633843
 10
1063.2417363515
 20
1144.8501963726
 10
1062.5329590199
 20
1145.5472424937
 10
1062.4950648044
 20
1145.5778049707
  0
LWPOLYLINE
  5
297
100
AcDbEntity
  8
0
100
AcDbPolyline
 62
7
  6
CONTINUOUS
 90
7
 70
0
 10
1065.0263933186
 20
1142.129356754
 10
1064.629437257
 20
1142.927093561
 10
1064.1767628309
 20
1143.6660265196
 10
1063.6751800039
 20
1144.3464196095
 10
1063.1348221364
 20
1144.9642765576
 10
1062.5723025994
 20
1145.5118103605
 10
1061.9861619487
 20
1146.0000128867
  0
LWPOLYLINE
  5
298
100
AcDbEntity
  8
0
100
AcDbPolyline
 62
7
  6
CONTINUOUS
 90
4
 70
0
 10
1064.9876952128
 20
1142.2504180673
 10
1064.7879828894
 20
1142.6603653747
 10
1064.5723552774
 20
1143.0563155252
 10
1064.3418622247
 20
1143.4377964822
  0
LWPOLYLINE
  5
299
100
AcDbEntity
  8
0
100
AcDbPolyline
 62
7
  6
CONTINUOUS
 90
3
 70
0
 10
1065.2106383555
 20
1141.6850240938
 10
1064.9204780205
 20
1142.3603457668
 10
1064.5924685548
 20
1142.9931440012
  0
LINE
  5
29A
100
AcDbEntity
  8
0
100
AcDbLine
 62
7
  6
CONTINUOUS
 10
1065.3588356606
 20
1141.2763398975
 11
1064.9551083285
 21
1142.2870520729
  0
LWPOLYLINE
  5
29B
100
AcDbEntity
  8
0
100
AcDbPolyline
 62
7
  6
CONTINUOUS
 90
4
 70
0
 10
1065.4492286673
 20
1140.9941932379
 10
1065.1554401541
 20
1141.8246889594
 10
1064.7989517616
 20
1142.6079499055
 10
1064.3906131569
 20
1143.3347966857
  0
LINE
  5
29C
100
AcDbEntity
  8
0
100
AcDbLine
 62
7
  6
CONTINUOUS
 10
1065.4813697311
 20
1140.9408050977
 11
1065.3353710437
 21
1141.3902567446
  0
LWPOLYLINE
  5
29D
100
AcDbEntity
  8
0
100
AcDbPolyline
 62
7
  6
CONTINUOUS
 90
3
 70
0
 10
1065.522511267
 20
1140.741963725
 10
1065.3355863453
 20
1141.3436947258
 10
1065.1157691094
 20
1141.9213510851
  0
LINE
  5
29E
100
AcDbEntity
  8
0
100
AcDbLine
 62
7
  6
CONTINUOUS
 10
1065.672815641
 20
1140.1218692875
 11
1065.4492286673
 21
1140.9941932379
  0
LINE
  5
29F
100
AcDbEntity
  8
0
100
AcDbLine
 62
7
  6
CONTINUOUS
 10
1065.7123259586
 20
1140.0063837581
 11
1065.6073447191
 21
1140.4794167091
  0
LINE
  5
2A0
100
AcDbEntity
  8
0
100
AcDbLine
 62
7
  6
CONTINUOUS
 10
1065.7951782531
 20
1139.5226198752
 11
1065.7207419435
 21
1139.9572439059
  0
LWPOLYLINE
  5
2A1
100
AcDbEntity
  8
0
100
AcDbPolyline
 62
7
  6
CONTINUOUS
 90
3
 70
0
 10
1065.6902029498
 20
1139.9899357415
 10
1065.6566760719
 20
1140.1987201887
 10
1065.3588356606
 20
1141.2763398975
  0
LWPOLYLINE
  5
2A2
100
AcDbEntity
  8
0
100
AcDbPolyline
 62
7
  6
CONTINUOUS
 90
5
 70
0
 10
1065.8045626925
 20
1139.3629316056
 10
1065.7328745192
 20
1139.829560495
 10
1065.640522309
 20
1140.2866422329
 10
1065.5284998791
 20
1140.7333428807
 10
1065.3976752732
 20
1141.1693539218
  0
LINE
  5
2A3
100
AcDbEntity
  8
0
100
AcDbLine
 62
7
  6
CONTINUOUS
 10
1065.8454440357
 20
1139.1222718534
 11
1065.7951782531
 21
1139.5226198752
  0
LWPOLYLINE
  5
2A4
100
AcDbEntity
  8
0
100
AcDbPolyline
 62
7
  6
CONTINUOUS
 90
4
 70
0
 10
1065.8291848423
 20
1139.1229649246
 10
1065.7913297655
 20
1139.4356741198
 10
1065.6157662522
 20
1140.3781339191
 10
1065.3580786782
 20
1141.2778725535
  0
ARC
  5
2A5
100
AcDbEntity
  8
_SURFACE
100
AcDbCircle
 62
7
  6
CONTINUOUS
 10
-872.2082661908
 20
-37477.3939199761
 40
38173.8049195152
100
AcDbArc
 50
88.7355321084
 51
88.9982749223
  0
ARC
  5
2A6
100
AcDbEntity
  8
_SURFACE
100
AcDbCircle
 62
7
  6
CONTINUOUS
 10
-863.6126931127
 20
-37028.6892932808
 40
37725.0184799366
100
AcDbArc
 50
88.7236438774
 51
88.9994136629
  0
ARC
  5
2A7
100
AcDbEntity
  8
_SURFACE
100
AcDbCircle
 62
7
  6
CONTINUOUS
 10
-847.7055441526
 20
-35947.710827165
 40
36643.7974298196
100
AcDbArc
 50
88.717523657
 51
88.9830050746
  0
ARC
  5
2A8
100
AcDbEntity
  8
_SURFACE
100
AcDbCircle
 62
7
  6
CONTINUOUS
 10
-814.0019553549
 20
-34262.7081017986
 40
34958.460078385
100
AcDbArc
 50
88.699673832
 51
88.9892187335
  0
ARC
  5
2A9
100
AcDbEntity
  8
_SURFACE
100
AcDbCircle
 62
7
  6
CONTINUOUS
 10
-620.9368745792
 20
-25726.2833224438
 40
26420.0071516326
100
AcDbArc
 50
88.5576457048
 51
88.7179540879
  0
ARC
  5
2AA
100
AcDbEntity
  8
_SURFACE
100
AcDbCircle
 62
7
  6
CONTINUOUS
 10
-621.9666879018
 20
-25460.3480955834
 40
26154.0061317199
100
AcDbArc
 50
88.5403438698
 51
88.6977168359
  0
ARC
  5
2AB
100
AcDbEntity
  8
0
100
AcDbCircle
 62
7
  6
CONTINUOUS
 10
-31145.7901507207
 20
-2254.3907669664
 40
31261.1765897822
100
AcDbArc
 50
5.3989274107
 51
6.1981223629
  0
ARC
  5
2AC
100
AcDbEntity
  8
_SURFACE
100
AcDbCircle
 62
6
  6
CONTINUOUS
 10
-31021.0350443192
 20
-2241.8010491339
 40
31135.7963473925
100
AcDbArc
 50
5.3974631927
 51
6.2144188704
  0
ARC
  5
2AD
100
AcDbEntity
  8
_SURFACE
100
AcDbCircle
 62
7
  6
CONTINUOUS
 10
-35.4590192326
 20
10093.2667109605
 40
8955.5241852735
100
AcDbArc
 50
269.8485111545
 51
270.0170102436
  0
ARC
  5
2AE
100
AcDbEntity
  8
_SURFACE
100
AcDbCircle
 62
7
  6
CONTINUOUS
 10
-35.5830705951
 20
9872.911555172
 40
8727.6734590948
100
AcDbArc
 50
269.8452901054
 51
270.0182714729
  0
ARC
  5
2AF
100
AcDbEntity
  8
_SURFACE
100
AcDbCircle
 62
7
  6
CONTINUOUS
 10
-35.5927817033
 20
9860.161423014
 40
8714.9233288114
100
AcDbArc
 50
269.8453444794
 51
270.0183622359
  0
ARC
  5
2B0
100
AcDbEntity
  8
_SURFACE
100
AcDbCircle
 62
7
  6
CONTINUOUS
 10
-35.707337412
 20
9803.1439849263
 40
8665.4015931901
100
AcDbArc
 50
269.8450759115
 51
270.0192245714
  0
ARC
  5
2B1
100
AcDbEntity
  8
_SURFACE
100
AcDbCircle
 62
7
  6
CONTINUOUS
 10
-35.6849395736
 20
9800.1526728892
 40
8662.4101427578
100
AcDbArc
 50
269.8446551335
 51
270.0190761399
  0
ARC
  5
2B2
100
AcDbEntity
  8
_SURFACE
100
AcDbCircle
 62
7
  6
CONTINUOUS
 10
-37.7869831606
 20
8030.7567770613
 40
6893.0151566119
100
AcDbArc
 50
269.8222675762
 51
270.0414538363
  0
ARC
  5
2B3
100
AcDbEntity
  8
0
100
AcDbCircle
 62
7
  6
CONTINUOUS
 10
34.9959128819
 20
5321.8392794113
 40
4202.3080921883
100
AcDbArc
 50
268.6044311771
 51
269.078401008
  0
ARC
  5
2B4
100
AcDbEntity
  8
_SURFACE
100
AcDbCircle
 62
6
  6
CONTINUOUS
 10
-8.6168305138
 20
-2751.2931940584
 40
3880.3838187148
100
AcDbArc
 50
90.7082175333
 51
90.8797626812
  0
ARC
  5
2B5
100
AcDbEntity
  8
_SURFACE
100
AcDbCircle
 62
6
  6
CONTINUOUS
 10
-17.4743780078
 20
-2110.1366109301
 40
3239.1691418098
100
AcDbArc
 50
90.6918667786
 51
91.0695959152
  0
ARC
  5
2B6
100
AcDbEntity
  8
0
100
AcDbCircle
 62
7
  6
CONTINUOUS
 10
-2213.4281469635
 20
770.9032158397
 40
2773.7982862337
100
AcDbArc
 50
357.6688085519
 51
358.2165421994
  0
ARC
  5
2B7
100
AcDbEntity
  8
0
100
AcDbCircle
 62
7
  6
CONTINUOUS
 10
-1664.0330352704
 20
1117.1607994723
 40
1631.440605171
100
AcDbArc
 50
0.102338897
 51
0.3135660903
  0
ARC
  5
2B8
100
AcDbEntity
  8
0
100
AcDbCircle
 62
7
  6
CONTINUOUS
 10
-1404.468296706
 20
1121.4621144988
 40
1337.1178285556
100
AcDbArc
 50
359.9706731804
 51
0.1983804321
  0
ARC
  5
2B9
100
AcDbEntity
  8
_CURVE
100
AcDbCircle
 62
40
  6
CONTINUOUS
 10
-1292.1259428544
 20
642.9920032946
 40
1088.3333218463
100
AcDbArc
 50
0.7942480599
 51
2.3823536741
  0
ARC
  5
2BA
100
AcDbEntity
  8
0
100
AcDbCircle
 62
7
  6
CONTINUOUS
 10
-105.7222629371
 20
2123.1189644012
 40
1001.5124459482
100
AcDbArc
 50
264.5842656867
 51
265.1396063305
  0
ARC
  5
2BB
100
AcDbEntity
  8
_CURVE
100
AcDbCircle
 62
40
  6
CONTINUOUS
 10
-681.8761802984
 20
822.6916340271
 40
434.8249847875
100
AcDbArc
 50
42.3061596662
 51
42.6926388498
  0
ARC
  5
2BC
100
AcDbEntity
  8
0
100
AcDbCircle
 62
7
  6
CONTINUOUS
 10
-229.7626910104
 20
1119.0506485741
 40
39.6672967634
100
AcDbArc
 50
8.9293033415
 51
10.2280679421
  0
ARC
  5
2BD
100
AcDbEntity
  8
_CURVE
100
AcDbCircle
 62
40
  6
CONTINUOUS
 10
-422.0355785552
 20
1135.8384353278
 40
12.2454123946
100
AcDbArc
 50
95.1253648697
 51
96.6892520649
  0
ARC
  5
2BE
100
AcDbEntity
  8
_SURFACE
100
AcDbCircle
 62
7
  6
CONTINUOUS
 10
1504.9089741228
 20
-37407.814893392
 40
38104.2055139364
100
AcDbArc
 50
91.0009995449
 51
91.2544935813
  0
ARC
  5
2BF
100
AcDbEntity
  8
_SURFACE
100
AcDbCircle
 62
7
  6
CONTINUOUS
 10
1498.1147217413
 20
-37037.5035229268
 40
37733.8321653425
100
AcDbArc
 50
91.0005076807
 51
91.2762129717
  0
ARC
  5
2C0
100
AcDbEntity
  8
_SURFACE
100
AcDbCircle
 62
7
  6
CONTINUOUS
 10
1489.8707080208
 20
-36358.7066884024
 40
37054.8654788383
100
AcDbArc
 50
91.0177205611
 51
91.2706486522
  0
ARC
  5
2C1
100
AcDbEntity
  8
_SURFACE
100
AcDbCircle
 62
7
  6
CONTINUOUS
 10
1448.6685962955
 20
-34279.3017598268
 40
34975.0549094203
100
AcDbArc
 50
91.0107386472
 51
91.3001060676
  0
ARC
  5
2C2
100
AcDbEntity
  8
_SURFACE
100
AcDbCircle
 62
7
  6
CONTINUOUS
 10
1271.2555806851
 20
-26067.3186956638
 40
26761.1583034557
100
AcDbArc
 50
91.2913137652
 51
91.4583835777
  0
ARC
  5
2C3
100
AcDbEntity
  8
_SURFACE
100
AcDbCircle
 62
7
  6
CONTINUOUS
 10
1260.6155324147
 20
-25942.2324570691
 40
26636.0201743514
100
AcDbArc
 50
91.2690873139
 51
91.4420131835
  0
ARC
  5
2C4
100
AcDbEntity
  8
_SURFACE
100
AcDbCircle
 62
6
  6
CONTINUOUS
 10
31655.3985946478
 20
-2241.9195271453
 40
31135.7711836557
100
AcDbArc
 50
173.7853550655
 51
174.6023146264
  0
ARC
  5
2C5
100
AcDbEntity
  8
_SURFACE
100
AcDbCircle
 62
7
  6
CONTINUOUS
 10
642.0858957133
 20
16591.6450460104
 40
15446.4595243609
100
AcDbArc
 50
270.1762265144
 51
270.3032016918
  0
ARC
  5
2C6
100
AcDbEntity
  8
0
100
AcDbCircle
 62
7
  6
CONTINUOUS
 10
14718.4554717101
 20
-762.5638632218
 40
14122.3781620143
100
AcDbArc
 50
174.1075741495
 51
174.2265639268
  0
ARC
  5
2C7
100
AcDbEntity
  8
0
100
AcDbCircle
 62
7
  6
CONTINUOUS
 10
284.3791307053
 20
14326.3638196806
 40
13212.2210956729
100
AcDbArc
 50
271.8944723741
 51
272.3450826848
  0
ARC
  5
2C8
100
AcDbEntity
  8
_SURFACE
100
AcDbCircle
 62
7
  6
CONTINUOUS
 10
664.9623638274
 20
11134.0444740647
 40
9996.3103867411
100
AcDbArc
 50
270.1412816508
 51
270.3369894606
  0
ARC
  5
2C9
100
AcDbEntity
  8
_SURFACE
100
AcDbCircle
 62
7
  6
CONTINUOUS
 10
669.4222161588
 20
10804.5339198226
 40
9666.7931806207
100
AcDbArc
 50
269.9868298956
 51
270.1196476822
  0
ARC
  5
2CA
100
AcDbEntity
  8
_SURFACE
100
AcDbCircle
 62
7
  6
CONTINUOUS
 10
669.8288759439
 20
10146.2441697331
 40
9001.0067309711
100
AcDbArc
 50
269.9832671912
 51
270.1258320177
  0
ARC
  5
2CB
100
AcDbEntity
  8
_SURFACE
100
AcDbCircle
 62
7
  6
CONTINUOUS
 10
669.9738316635
 20
10092.3429802368
 40
8954.6021485852
100
AcDbArc
 50
269.9822559428
 51
270.1256508899
  0
ARC
  5
2CC
100
AcDbEntity
  8
_SURFACE
100
AcDbCircle
 62
7
  6
CONTINUOUS
 10
670.2500433449
 20
9913.993356921
 40
8776.2520089626
100
AcDbArc
 50
270.1264017068
 51
270.3493165357
  0
ARC
  5
2CD
100
AcDbEntity
  8
_SURFACE
100
AcDbCircle
 62
7
  6
CONTINUOUS
 10
671.8124827532
 20
8778.5788872384
 40
7640.8374598904
100
AcDbArc
 50
269.9651607257
 51
270.2081517669
  0
ARC
  5
2CE
100
AcDbEntity
  8
_SURFACE
100
AcDbCircle
 62
7
  6
CONTINUOUS
 10
670.939127473
 20
8756.5772344714
 40
7618.8378883335
100
AcDbArc
 50
269.9718829232
 51
270.2154049454
  0
ARC
  5
2CF
100
AcDbEntity
  8
_SURFACE
100
AcDbCircle
 62
7
  6
CONTINUOUS
 10
672.1330127147
 20
8375.6236564274
 40
7230.3876561603
100
AcDbArc
 50
269.9609116921
 51
270.2172535161
  0
ARC
  5
2D0
100
AcDbEntity
  8
0
100
AcDbCircle
 62
7
  6
CONTINUOUS
 10
570.484416907
 20
7081.5850110119
 40
5962.2920489969
100
AcDbArc
 50
270.3288932404
 51
270.92748263
  0
ARC
  5
2D1
100
AcDbEntity
  8
0
100
AcDbCircle
 62
7
  6
CONTINUOUS
 10
578.6532210239
 20
4717.7117473984
 40
3600.939954458
100
AcDbArc
 50
273.9227156116
 51
274.1200572802
  0
ARC
  5
2D2
100
AcDbEntity
  8
_SURFACE
100
AcDbCircle
 62
6
  6
CONTINUOUS
 10
663.3732816676
 20
-1436.427637738
 40
2565.3635057349
100
AcDbArc
 50
88.6891685996
 51
89.261483506
  0
ARC
  5
2D3
100
AcDbEntity
  8
0
100
AcDbCircle
 62
7
  6
CONTINUOUS
 10
2296.7515772436
 20
1117.1572826882
 40
1629.7586339152
100
AcDbArc
 50
179.6859869421
 51
179.8974555664
  0
ARC
  5
2D4
100
AcDbEntity
  8
0
100
AcDbCircle
 62
7
  6
CONTINUOUS
 10
1272.0158821074
 20
793.4124495678
 40
1195.1629366012
100
AcDbArc
 50
185.2322438509
 51
186.5018716769
  0
ARC
  5
2D5
100
AcDbEntity
  8
_CURVE
100
AcDbCircle
 62
40
  6
CONTINUOUS
 10
1926.5256545014
 20
642.9888850682
 40
1088.3332145068
100
AcDbArc
 50
177.617534134
 51
179.2056408769
  0
ARC
  5
2D6
100
AcDbEntity
  8
_CURVE
100
AcDbCircle
 62
40
  6
CONTINUOUS
 10
1316.2761579099
 20
822.6898755316
 40
434.8247297703
100
AcDbArc
 50
137.3072155164
 51
137.693699672
  0
ARC
  5
2D7
100
AcDbEntity
  8
0
100
AcDbCircle
 62
7
  6
CONTINUOUS
 10
1024.2048502328
 20
1118.9305679269
 40
303.0558364738
100
AcDbArc
 50
178.6467096771
 51
179.5398548949
  0
ARC
  5
2D8
100
AcDbEntity
  8
0
100
AcDbCircle
 62
7
  6
CONTINUOUS
 10
864.1800176793
 20
1119.0499987473
 40
39.6550561116
100
AcDbArc
 50
169.7677934114
 51
171.06609308
  0
ARC
  5
2D9
100
AcDbEntity
  8
_CURVE
100
AcDbCircle
 62
40
  6
CONTINUOUS
 10
1053.4617994365
 20
1137.7565326142
 40
12.4396144956
100
AcDbArc
 50
9.5312124267
 51
13.6152937176
  0
ARC
  5
2DA
100
AcDbEntity
  8
_CURVE
100
AcDbCircle
 62
40
  6
CONTINUOUS
 10
1054.1784047279
 20
1137.9243722318
 40
11.7036387209
100
AcDbArc
 50
13.6425471193
 51
15.5352978322
  0
ARC
  5
2DB
100
AcDbEntity
  8
_CURVE
100
AcDbCircle
 62
40
  6
CONTINUOUS
 10
1054.6085474417
 20
1138.0455962014
 40
11.2567434543
100
AcDbArc
 50
15.5272091917
 51
18.6374603812
  0
SPLINE
  5
2DC
100
AcDbEntity
  8
DATUM_AXIS
100
AcDbSpline
 62
7
  6
CONTINUOUS
 70
0
 71
3
 72
11
 73
7
 74
0
 42
0.0000001
 43
0.0000001
 44
0.0000000001
 40
0.0
 40
0.0
 40
0.0
 40
0.0
 40
0.2495324865
 40
0.5000001592
 40
0.7504676731
 40
1.0
 40
1.0
 40
1.0
 40
1.0
 10
177.0000582483
 20
1094.0777692831
 30
0.0
 10
177.0000595318
 20
1095.39819444
 30
0.0
 10
178.1326518984
 20
1098.1528445732
 30
0.0
 10
182.2000621938
 20
1099.7969619577
 30
0.0
 10
186.2674729388
 20
1098.1528445632
 30
0.0
 10
187.4000595314
 20
1095.3981928535
 30
0.0
 10
187.4000582479
 20
1094.0777685409
 30
0.0
  0
SPLINE
  5
2DD
100
AcDbEntity
  8
DATUM_AXIS
100
AcDbSpline
 62
7
  6
CONTINUOUS
 70
0
 71
3
 72
11
 73
7
 74
0
 42
0.0000001
 43
0.0000001
 44
0.0000000001
 40
0.0
 40
0.0
 40
0.0
 40
0.0
 40
0.2495323269
 40
0.4999998408
 40
0.7504675135
 40
1.0
 40
1.0
 40
1.0
 40
1.0
 10
457.4000582684
 20
1094.0777500093
 30
0.0
 10
457.4000595449
 20
1095.398174322
 30
0.0
 10
456.2674729372
 20
1098.1528260259
 30
0.0
 10
452.2000621832
 20
1099.7969433987
 30
0.0
 10
448.1326518961
 20
1098.1528259932
 30
0.0
 10
447.0000595438
 20
1095.3981758538
 30
0.0
 10
447.0000582673
 20
1094.0777506968
 30
0.0
  0
SPLINE
  5
2DE
100
AcDbEntity
  8
0
100
AcDbSpline
 62
7
  6
CONTINUOUS
 70
0
 71
3
 72
9
 73
5
 74
0
 42
0.0000001
 43
0.0000001
 44
0.0000000001
 40
0.0
 40
0.0
 40
0.0
 40
0.0
 40
0.2400860456
 40
1.0
 40
1.0
 40
1.0
 40
1.0
 10
-362.2814234398
 20
1117.5338942532
 30
0.0
 10
-362.9759270646
 20
1118.2866976612
 30
0.0
 10
-365.9469803097
 20
1121.3495017778
 30
0.0
 10
-369.1985347989
 20
1124.1366053472
 30
0.0
 10
-371.7811288963
 20
1126.096174518
 30
0.0
  0
SPLINE
  5
2DF
100
AcDbEntity
  8
DATUM_AXIS
100
AcDbSpline
 62
7
  6
CONTINUOUS
 70
0
 71
3
 72
9
 73
5
 74
0
 42
0.0000001
 43
0.0000001
 44
0.0000000001
 40
0.0
 40
0.0
 40
0.0
 40
0.0
 40
0.4994307714
 40
1.0
 40
1.0
 40
1.0
 40
1.0
 10
187.3842745749
 20
1094.4726788911
 30
0.0
 10
187.2994840774
 20
1093.3987703031
 30
0.0
 10
186.4154105923
 20
1091.245890211
 30
0.0
 10
184.4099794782
 20
1090.0676010471
 30
0.0
 10
183.3570990012
 20
1089.8284182397
 30
0.0
  0
SPLINE
  5
2E0
100
AcDbEntity
  8
DATUM_AXIS
100
AcDbSpline
 62
7
  6
CONTINUOUS
 70
0
 71
3
 72
8
 73
4
 74
0
 42
0.0000001
 43
0.0000001
 44
0.0000000001
 40
0.0
 40
0.0
 40
0.0
 40
0.0
 40
1.0
 40
1.0
 40
1.0
 40
1.0
 10
183.3570990012
 20
1089.8284182397
 30
0.0
 10
182.6048590545
 20
1089.6575319271
 30
0.0
 10
181.7951211954
 20
1089.6575319184
 30
0.0
 10
181.0428812882
 20
1089.8284184048
 30
0.0
  0
SPLINE
  5
2E1
100
AcDbEntity
  8
DATUM_AXIS
100
AcDbSpline
 62
7
  6
CONTINUOUS
 70
0
 71
3
 72
9
 73
5
 74
0
 42
0.0000001
 43
0.0000001
 44
0.0000000001
 40
0.0
 40
0.0
 40
0.0
 40
0.0
 40
0.5005689291
 40
1.0
 40
1.0
 40
1.0
 40
1.0
 10
181.0428812882
 20
1089.8284184048
 30
0.0
 10
179.9901181172
 20
1090.0675748198
 30
0.0
 10
177.9849026769
 20
1091.2456456397
 30
0.0
 10
177.1007103449
 20
1093.3981545783
 30
0.0
 10
177.0157737804
 20
1094.4719325787
 30
0.0
  0
SPLINE
  5
2E2
100
AcDbEntity
  8
DATUM_AXIS
100
AcDbSpline
 62
7
  6
CONTINUOUS
 70
0
 71
3
 72
9
 73
5
 74
0
 42
0.0000001
 43
0.0000001
 44
0.0000000001
 40
0.0
 40
0.0
 40
0.0
 40
0.0
 40
0.4994308095
 40
1.0
 40
1.0
 40
1.0
 40
1.0
 10
447.015842706
 20
1094.4726610448
 30
0.0
 10
447.1006310791
 20
1093.3987529821
 30
0.0
 10
447.9847000221
 20
1091.2458722639
 30
0.0
 10
449.990129689
 20
1090.0675826951
 30
0.0
 10
451.0430092765
 20
1089.8283998398
 30
0.0
  0
SPLINE
  5
2E3
100
AcDbEntity
  8
DATUM_AXIS
100
AcDbSpline
 62
7
  6
CONTINUOUS
 70
0
 71
3
 72
8
 73
4
 74
0
 42
0.0000001
 43
0.0000001
 44
0.0000000001
 40
0.0
 40
0.0
 40
0.0
 40
0.0
 40
1.0
 40
1.0
 40
1.0
 40
1.0
 10
451.0430092765
 20
1089.8283998398
 30
0.0
 10
451.7952491846
 20
1089.6575133573
 30
0.0
 10
452.6049870436
 20
1089.6575133703
 30
0.0
 10
453.3572269893
 20
1089.8283996868
 30
0.0
  0
SPLINE
  5
2E4
100
AcDbEntity
  8
DATUM_AXIS
100
AcDbSpline
 62
7
  6
CONTINUOUS
 70
0
 71
3
 72
9
 73
5
 74
0
 42
0.0000001
 43
0.0000001
 44
0.0000000001
 40
0.0
 40
0.0
 40
0.0
 40
0.0
 40
0.5005689671
 40
1.0
 40
1.0
 40
1.0
 40
1.0
 10
453.3572269893
 20
1089.8283996868
 30
0.0
 10
454.4099910499
 20
1090.0675560536
 30
0.0
 10
456.4152079382
 20
1091.2456264686
 30
0.0
 10
457.2994048117
 20
1093.3981347813
 30
0.0
 10
457.3843435005
 20
1094.4719133071
 30
0.0
  0
SPLINE
  5
2E5
100
AcDbEntity
  8
DATUM_AXIS
100
AcDbSpline
 62
7
  6
CONTINUOUS
 70
0
 71
3
 72
11
 73
7
 74
0
 42
0.0000001
 43
0.0000001
 44
0.0000000001
 40
0.0
 40
0.0
 40
0.0
 40
0.0
 40
0.2495324865
 40
0.5000001592
 40
0.7504676731
 40
1.0
 40
1.0
 40
1.0
 40
1.0
 10
187.4000582479
 20
1094.0777685409
 30
0.0
 10
187.4000569644
 20
1092.757343384
 30
0.0
 10
186.2674645979
 20
1090.0026932507
 30
0.0
 10
182.2000543025
 20
1088.3585758663
 30
0.0
 10
178.1326435575
 20
1090.0026932608
 30
0.0
 10
177.0000569648
 20
1092.7573449705
 30
0.0
 10
177.0000582483
 20
1094.0777692831
 30
0.0
  0
SPLINE
  5
2E6
100
AcDbEntity
  8
DATUM_AXIS
100
AcDbSpline
 62
7
  6
CONTINUOUS
 70
0
 71
3
 72
11
 73
7
 74
0
 42
0.0000001
 43
0.0000001
 44
0.0000000001
 40
0.0
 40
0.0
 40
0.0
 40
0.0
 40
0.2495323269
 40
0.4999998408
 40
0.7504675135
 40
1.0
 40
1.0
 40
1.0
 40
1.0
 10
447.0000582673
 20
1094.0777506968
 30
0.0
 10
447.0000569908
 20
1092.7573263841
 30
0.0
 10
448.1326435986
 20
1090.0026746802
 30
0.0
 10
452.2000543525
 20
1088.3585573075
 30
0.0
 10
456.2674646396
 20
1090.0026747129
 30
0.0
 10
457.400056992
 20
1092.7573248523
 30
0.0
 10
457.4000582684
 20
1094.0777500093
 30
0.0
  0
SPLINE
  5
2E7
100
AcDbEntity
  8
0
100
AcDbSpline
 62
7
  6
CONTINUOUS
 70
0
 71
3
 72
8
 73
4
 74
0
 42
0.0000001
 43
0.0000001
 44
0.0000000001
 40
0.0
 40
0.0
 40
0.0
 40
0.0
 40
1.0
 40
1.0
 40
1.0
 40
1.0
 10
-19.7636752649
 20
658.077474022
 30
0.0
 10
-20.7763112466
 20
667.7020307217
 30
0.0
 10
-21.7867824527
 20
677.326815444
 30
0.0
 10
-22.7950353667
 20
686.9518322938
 30
0.0
  0
SPLINE
  5
2E8
100
AcDbEntity
  8
0
100
AcDbSpline
 62
7
  6
CONTINUOUS
 70
0
 71
3
 72
9
 73
5
 74
0
 42
0.0000001
 43
0.0000001
 44
0.0000000001
 40
0.0
 40
0.0
 40
0.0
 40
0.0
 40
0.5000045948
 40
1.0
 40
1.0
 40
1.0
 40
1.0
 10
78.2080299774
 20
1119.2573047299
 30
0.0
 10
59.7400211771
 20
1119.2651783286
 30
0.0
 10
22.8041046982
 20
1119.3476235014
 30
0.0
 10
-14.1297432884
 20
1119.7782019368
 30
0.0
 10
-32.5950325003
 20
1120.0747969857
 30
0.0
  0
SPLINE
  5
2E9
100
AcDbEntity
  8
0
100
AcDbSpline
 62
7
  6
CONTINUOUS
 70
0
 71
3
 72
18
 73
14
 74
0
 42
0.0000001
 43
0.0000001
 44
0.0000000001
 40
0.0
 40
0.0
 40
0.0
 40
0.0
 40
0.1249950014
 40
0.2499902285
 40
0.3749858529
 40
0.4999799843
 40
0.562476356
 40
0.6249742221
 40
0.6874780627
 40
0.7499858239
 40
0.8124818255
 40
0.8749824447
 40
1.0
 40
1.0
 40
1.0
 40
1.0
 10
78.2080296329
 20
1119.2570795696
 30
0.0
 10
78.2221346938
 20
1101.1322495623
 30
0.0
 10
78.2511048649
 20
1064.8825573618
 30
0.0
 10
78.3089687494
 20
1010.5079572314
 30
0.0
 10
78.3831791404
 20
956.133505769
 30
0.0
 10
78.461743952
 20
910.8216764748
 30
0.0
 10
78.4658230639
 20
874.572225046
 30
0.0
 10
78.3447470748
 20
847.3842135017
 30
0.0
 10
77.984424902
 20
820.1964829075
 30
0.0
 10
77.4545559552
 20
793.0124756481
 30
0.0
 10
77.2434769634
 20
765.8219683577
 30
0.0
 10
78.0292451484
 20
729.5722308224
 30
0.0
 10
80.1217118987
 20
702.4310213888
 30
0.0
 10
82.1326749562
 20
684.4147994989
 30
0.0
  0
SPLINE
  5
2EA
100
AcDbEntity
  8
0
100
AcDbSpline
 62
7
  6
CONTINUOUS
 70
0
 71
3
 72
10
 73
6
 74
0
 42
0.0000001
 43
0.0000001
 44
0.0000000001
 40
0.0
 40
0.0
 40
0.0
 40
0.0
 40
0.2561073643
 40
0.5098991986
 40
1.0
 40
1.0
 40
1.0
 40
1.0
 10
-67.3507254035
 20
1120.7777133594
 30
0.0
 10
-77.8739502859
 20
1121.039071984
 30
0.0
 10
-98.8192635685
 20
1121.776678847
 30
0.0
 10
-139.896249816
 20
1123.1971566529
 30
0.0
 10
-170.4487855464
 20
1124.3842455891
 30
0.0
 10
-190.5759604755
 20
1125.2078312863
 30
0.0
  0
SPLINE
  5
2EB
100
AcDbEntity
  8
0
100
AcDbSpline
 62
7
  6
CONTINUOUS
 70
0
 71
3
 72
15
 73
11
 74
0
 42
0.0000001
 43
0.0000001
 44
0.0000000001
 40
0.0
 40
0.0
 40
0.0
 40
0.0
 40
0.0164172715
 40
0.0658259749
 40
0.1481529066
 40
0.2627470146
 40
0.408142137
 40
0.5819034889
 40
0.7806209612
 40
1.0
 40
1.0
 40
1.0
 40
1.0
 10
-362.2818690425
 20
1117.5343772557
 30
0.0
 10
-363.2201940242
 20
1117.4690942374
 30
0.0
 10
-354.8728363162
 20
1117.9446568604
 30
0.0
 10
-350.8284870323
 20
1118.1081218463
 30
0.0
 10
-334.2096094421
 20
1118.969460755
 30
0.0
 10
-315.727355875
 20
1119.8593840111
 30
0.0
 10
-290.4805878958
 20
1121.057467285
 30
0.0
 10
-260.9887943253
 20
1122.3846813926
 30
0.0
 10
-227.0600828836
 20
1123.821624422
 30
0.0
 10
-203.1365318881
 20
1124.7492398685
 30
0.0
 10
-190.5760880977
 20
1125.2092139929
 30
0.0
  0
SPLINE
  5
2EC
100
AcDbEntity
  8
0
100
AcDbSpline
 62
7
  6
CONTINUOUS
 70
0
 71
3
 72
9
 73
5
 74
0
 42
0.0000001
 43
0.0000001
 44
0.0000000001
 40
0.0
 40
0.0
 40
0.0
 40
0.0
 40
0.2505301741
 40
1.0
 40
1.0
 40
1.0
 40
1.0
 10
590.3140151973
 20
685.3524458155
 30
0.0
 10
591.5147406676
 20
721.5990942714
 30
0.0
 10
596.3088826409
 20
866.2788197261
 30
0.0
 10
601.1084971436
 20
1010.9583638733
 30
0.0
 10
604.7095165641
 20
1119.3911886469
 30
0.0
  0
SPLINE
  5
2ED
100
AcDbEntity
  8
0
100
AcDbSpline
 62
7
  6
CONTINUOUS
 70
0
 71
3
 72
10
 73
6
 74
0
 42
0.0000001
 43
0.0000001
 44
0.0000000001
 40
0.0
 40
0.0
 40
0.0
 40
0.0
 40
0.249928269
 40
0.6249638047
 40
1.0
 40
1.0
 40
1.0
 40
1.0
 10
721.1587242629
 20
1121.3643953673
 30
0.0
 10
716.6476446474
 20
1121.2120731518
 30
0.0
 10
705.3676524247
 20
1120.8176496789
 30
0.0
 10
687.3112542392
 20
1120.4466715863
 30
0.0
 10
673.767752412
 20
1120.1829143868
 30
0.0
 10
666.9955535195
 20
1120.0741221481
 30
0.0
  0
SPLINE
  5
2EE
100
AcDbEntity
  8
0
100
AcDbSpline
 62
7
  6
CONTINUOUS
 70
0
 71
3
 72
10
 73
6
 74
0
 42
0.0000001
 43
0.0000001
 44
0.0000000001
 40
0.0
 40
0.0
 40
0.0
 40
0.0
 40
0.3749999731
 40
0.7499999947
 40
1.0
 40
1.0
 40
1.0
 40
1.0
 10
559.6380546999
 20
684.5912683408
 30
0.0
 10
559.7196454153
 20
738.9247223479
 30
0.0
 10
559.9706710618
 20
847.5915460422
 30
0.0
 10
560.5650242911
 20
992.4797340505
 30
0.0
 10
560.9001455923
 20
1083.0349814383
 30
0.0
 10
561.0423783889
 20
1119.2570490658
 30
0.0
  0
SPLINE
  5
2EF
100
AcDbEntity
  8
0
100
AcDbSpline
 62
7
  6
CONTINUOUS
 70
0
 71
3
 72
22
 73
18
 74
0
 42
0.0000001
 43
0.0000001
 44
0.0000000001
 40
0.0
 40
0.0
 40
0.0
 40
0.0
 40
0.2193741837
 40
0.4180845611
 40
0.59184102
 40
0.7372307823
 40
0.7984906376
 40
0.8518252699
 40
0.8970811101
 40
0.9341575819
 40
0.962995067
 40
0.9743153735
 40
0.9835707952
 40
0.9907630083
 40
0.9958957908
 40
0.9989737067
 40
1.0
 40
1.0
 40
1.0
 40
1.0
 10
824.9965759435
 20
1125.2082100755
 30
0.0
 10
837.5553973795
 20
1124.7482792008
 30
0.0
 10
861.488197703
 20
1123.8199915758
 30
0.0
 10
895.3625865989
 20
1122.3862995973
 30
0.0
 10
924.9988508194
 20
1121.0502024855
 30
0.0
 10
946.7668475108
 20
1120.022316592
 30
0.0
 10
961.6429945936
 20
1119.3002085624
 30
0.0
 10
970.7892056643
 20
1118.8495242424
 30
0.0
 10
978.5514601286
 20
1118.4618008971
 30
0.0
 10
984.9118972317
 20
1118.1407469261
 30
0.0
 10
989.3306663533
 20
1117.914441343
 30
0.0
 10
992.1576179196
 20
1117.7700770305
 30
0.0
 10
993.7463030814
 20
1117.6857065776
 30
0.0
 10
994.9807306199
 20
1117.6273910479
 30
0.0
 10
995.8623250863
 20
1117.5683104102
 30
0.0
 10
996.3900423011
 20
1117.5636432302
 30
0.0
 10
996.6255801689
 20
1117.5275630691
 30
0.0
 10
996.6839886751
 20
1117.5342762924
 30
0.0
  0
SPLINE
  5
2F0
100
AcDbEntity
  8
0
100
AcDbSpline
 62
7
  6
CONTINUOUS
 70
0
 71
3
 72
9
 73
5
 74
0
 42
0.0000001
 43
0.0000001
 44
0.0000000001
 40
0.0
 40
0.0
 40
0.0
 40
0.0
 40
0.5058276224
 40
1.0
 40
1.0
 40
1.0
 40
1.0
 10
670.6766835843
 20
687.2555729355
 30
0.0
 10
678.2404084221
 20
760.5557174736
 30
0.0
 10
694.3474172502
 20
905.3469185599
 30
0.0
 10
711.8488233564
 20
1049.9775013369
 30
0.0
 10
721.1590220312
 20
1121.3643586457
 30
0.0
  0
SPLINE
  5
2F1
100
AcDbEntity
  8
0
100
AcDbSpline
 62
7
  6
CONTINUOUS
 70
0
 71
3
 72
9
 73
5
 74
0
 42
0.0000001
 43
0.0000001
 44
0.0000000001
 40
0.0
 40
0.0
 40
0.0
 40
0.0
 40
0.2494577307
 40
1.0
 40
1.0
 40
1.0
 40
1.0
 10
604.7094618368
 20
1119.3228228003
 30
0.0
 10
601.0784337042
 20
1119.3177622185
 30
0.0
 10
586.5227458078
 20
1119.2996989663
 30
0.0
 10
571.9670468455
 20
1119.2902254723
 30
0.0
 10
561.0423795519
 20
1119.2886224766
 30
0.0
  0
SPLINE
  5
2F2
100
AcDbEntity
  8
0
100
AcDbSpline
 62
7
  6
CONTINUOUS
 70
0
 71
3
 72
9
 73
5
 74
0
 42
0.0000001
 43
0.0000001
 44
0.0000000001
 40
0.0
 40
0.0
 40
0.0
 40
0.0
 40
0.2397626023
 40
1.0
 40
1.0
 40
1.0
 40
1.0
 10
604.7178033964
 20
1126.0804176517
 30
0.0
 10
604.7167197627
 20
1125.545809646
 30
0.0
 10
604.7126811426
 20
1123.3160697653
 30
0.0
 10
604.7103465113
 20
1121.0863269034
 30
0.0
 10
604.7093935185
 20
1119.3911927754
 30
0.0
  0
SPLINE
  5
2F3
100
AcDbEntity
  8
_CURVE
100
AcDbSpline
 62
40
  6
CONTINUOUS
 70
0
 71
3
 72
13
 73
9
 74
0
 42
0.0000001
 43
0.0000001
 44
0.0000000001
 40
0.0
 40
0.0
 40
0.0
 40
0.0
 40
0.125
 40
0.3
 40
0.475
 40
0.65
 40
0.825
 40
1.0
 40
1.0
 40
1.0
 40
1.0
 10
1065.2749835503
 20
1141.6430138774
 30
0.0
 10
1065.1119449861
 20
1142.1260574014
 30
0.0
 10
1064.6389258732
 20
1143.2608313718
 30
0.0
 10
1063.554634526
 20
1144.8894650724
 30
0.0
 10
1061.9115742715
 20
1146.3739178234
 30
0.0
 10
1059.9627046533
 20
1147.4111121192
 30
0.0
 10
1057.8961685937
 20
1147.9899165379
 30
0.0
 10
1056.4866563293
 20
1148.1012001906
 30
0.0
 10
1055.7703232853
 20
1148.0770514436
 30
0.0
  0
SPLINE
  5
2F4
100
AcDbEntity
  8
_CURVE
100
AcDbSpline
 62
40
  6
CONTINUOUS
 70
0
 71
3
 72
8
 73
4
 74
0
 42
0.0000001
 43
0.0000001
 44
0.0000000001
 40
0.0
 40
0.0
 40
0.0
 40
0.0
 40
1.0
 40
1.0
 40
1.0
 40
1.0
 10
-421.3696742486
 20
1148.0784861613
 30
0.0
 10
-421.9833138236
 20
1148.0999042289
 30
0.0
 10
-422.5700013795
 20
1148.0851316596
 30
0.0
 10
-423.1295253615
 20
1148.0348858401
 30
0.0
  0
SPLINE
  5
2F5
100
AcDbEntity
  8
_CURVE
100
AcDbSpline
 62
40
  6
CONTINUOUS
 70
0
 71
3
 72
8
 73
4
 74
0
 42
0.0000001
 43
0.0000001
 44
0.0000000001
 40
0.0
 40
0.0
 40
0.0
 40
0.0
 40
1.0
 40
1.0
 40
1.0
 40
1.0
 10
-423.4619784294
 20
1148.0004872975
 30
0.0
 10
-427.1927990433
 20
1147.5625236134
 30
0.0
 10
-429.6656195462
 20
1145.4909112305
 30
0.0
 10
-430.8139203869
 20
1142.0112194519
 30
0.0
  0
SPLINE
  5
2F6
100
AcDbEntity
  8
_CURVE
100
AcDbSpline
 62
40
  6
CONTINUOUS
 70
0
 71
3
 72
8
 73
4
 74
0
 42
0.0000001
 43
0.0000001
 44
0.0000000001
 40
0.0
 40
0.0
 40
0.0
 40
0.0
 40
1.0
 40
1.0
 40
1.0
 40
1.0
 10
-430.8139203869
 20
1142.0112194519
 30
0.0
 10
-430.9926873322
 20
1141.4695026406
 30
0.0
 10
-431.1393530616
 20
1140.8936594497
 30
0.0
 10
-431.2536665924
 20
1140.2845409676
 30
0.0
  0
SPLINE
  5
2F7
100
AcDbEntity
  8
_CURVE
100
AcDbSpline
 62
40
  6
CONTINUOUS
 70
0
 71
3
 72
9
 73
5
 74
0
 42
0.0000001
 43
0.0000001
 44
0.0000000001
 40
0.0
 40
0.0
 40
0.0
 40
0.0
 40
0.501563592
 40
1.0
 40
1.0
 40
1.0
 40
1.0
 10
839.133196911
 20
688.2307790837
 30
0.0
 10
843.0770216973
 20
782.411464676
 30
0.0
 10
875.0321342573
 20
927.5238438912
 30
0.0
 10
944.4530999413
 20
1059.8240032843
 30
0.0
 10
993.8013690262
 20
1114.3790345728
 30
0.0
  0
SPLINE
  5
2F8
100
AcDbEntity
  8
_SURFACE
100
AcDbSpline
 62
7
  6
CONTINUOUS
 70
0
 71
3
 72
10
 73
6
 74
0
 42
0.0000001
 43
0.0000001
 44
0.0000000001
 40
0.0
 40
0.0
 40
0.0
 40
0.0
 40
0.3268554654
 40
0.660312383
 40
1.0
 40
1.0
 40
1.0
 40
1.0
 10
-32.7998418477
 20
1145.2385119024
 30
0.0
 10
-11.0095281282
 20
1145.2443240428
 30
0.0
 10
33.0111956967
 20
1145.254749603
 30
0.0
 10
99.6777100019
 20
1145.2565559112
 30
0.0
 10
144.55390952
 20
1145.2588054007
 30
0.0
 10
167.1996988205
 20
1145.2595371011
 30
0.0
  0
LINE
  5
2F9
100
AcDbEntity
  8
_SURFACE
100
AcDbLine
 62
7
  6
CONTINUOUS
 10
667.1962784125
 20
1148.3949038321
 11
-32.7956124843
 21
1148.3955823836
  0
SPLINE
  5
2FA
100
AcDbEntity
  8
_SURFACE
100
AcDbSpline
 62
7
  6
CONTINUOUS
 70
0
 71
3
 72
10
 73
6
 74
0
 42
0.0000001
 43
0.0000001
 44
0.0000000001
 40
0.0
 40
0.0
 40
0.0
 40
0.0
 40
0.3405210642
 40
0.6739567436
 40
1.0
 40
1.0
 40
1.0
 40
1.0
 10
467.199698821
 20
1145.2592614288
 30
0.0
 10
489.9011566382
 20
1145.2584907547
 30
0.0
 10
534.8317120716
 20
1145.2560966731
 30
0.0
 10
601.4985362454
 20
1145.2543719454
 30
0.0
 10
645.4639011705
 20
1145.2432171355
 30
0.0
 10
667.200168848
 20
1145.237748683
 30
0.0
  0
SPLINE
  5
2FB
100
AcDbEntity
  8
_SURFACE
100
AcDbSpline
 62
7
  6
CONTINUOUS
 70
0
 71
3
 72
10
 73
6
 74
0
 42
0.0000001
 43
0.0000001
 44
0.0000000001
 40
0.0
 40
0.0
 40
0.0
 40
0.0
 40
0.3172018258
 40
0.6505744639
 40
1.0
 40
1.0
 40
1.0
 40
1.0
 10
667.2002884756
 20
1145.2377507668
 30
0.0
 10
593.1865276736
 20
1145.2510065189
 30
0.0
 10
441.3858137513
 20
1145.2636957829
 30
0.0
 10
208.0524728554
 20
1145.2610653005
 30
0.0
 10
48.7328913741
 20
1145.2577029344
 30
0.0
 10
-32.7997343576
 20
1145.2385055275
 30
0.0
  0
LINE
  5
2FC
100
AcDbEntity
  8
_SURFACE
100
AcDbLine
 62
7
  6
CONTINUOUS
 10
-32.7954141114
 20
1148.3955911725
 11
667.1961340682
 21
1148.3949126213
  0
SPLINE
  5
2FD
100
AcDbEntity
  8
_SURFACE
100
AcDbSpline
 62
7
  6
CONTINUOUS
 70
0
 71
3
 72
84
 73
80
 74
0
 42
0.0000001
 43
0.0000001
 44
0.0000000001
 40
0.0
 40
0.0
 40
0.0
 40
0.0
 40
0.0025097473
 40
0.0221142621
 40
0.0416230587
 40
0.0612019127
 40
0.0808468867
 40
0.1005540428
 40
0.1201659853
 40
0.139733463
 40
0.1592807537
 40
0.1788024655
 40
0.1979960205
 40
0.2172255809
 40
0.2364876419
 40
0.2557786982
 40
0.2750952449
 40
0.2944337765
 40
0.3137907877
 40
0.3331627731
 40
0.3522908882
 40
0.3711044194
 40
0.3897647663
 40
0.4083760004
 40
0.4269246901
 40
0.4453974034
 40
0.4636163858
 40
0.4816507402
 40
0.4992447632
 40
0.5167178438
 40
0.5340577853
 40
0.5512523913
 40
0.5682894651
 40
0.5851568102
 40
0.60184223
 40
0.618333528
 40
0.6346185077
 40
0.6506849725
 40
0.666520726
 40
0.6819053123
 40
0.6968920972
 40
0.7115678938
 40
0.7259710508
 40
0.7400933797
 40
0.7539266916
 40
0.7673217381
 40
0.7803382016
 40
0.7930516387
 40
0.8054542624
 40
0.8175382857
 40
0.8292959216
 40
0.840719383
 40
0.8518008829
 40
0.8625326343
 40
0.8729068502
 40
0.8829157435
 40
0.8925515272
 40
0.9018064143
 40
0.9106726176
 40
0.9190642746
 40
0.9270318066
 40
0.934595702
 40
0.9417629696
 40
0.9485305065
 40
0.9548952099
 40
0.9608275147
 40
0.9663374464
 40
0.9714416743
 40
0.9761371677
 40
0.9804208958
 40
0.9842898278
 40
0.987740933
 40
0.9907711805
 40
0.9933775397
 40
0.9955569796
 40
0.9973064696
 40
0.9986229789
 40
0.9995034767
 40
1.0
 40
1.0
 40
1.0
 40
1.0
 10
-59.1164926322
 20
1145.2699243431
 30
0.0
 10
-59.406352987
 20
1145.2707954625
 30
0.0
 10
-61.9604127722
 20
1145.2788371936
 30
0.0
 10
-66.7675986512
 20
1145.2993270321
 30
0.0
 10
-73.5461530466
 20
1145.3276233954
 30
0.0
 10
-80.3293678447
 20
1145.3589064106
 30
0.0
 10
-87.1354827228
 20
1145.3921483049
 30
0.0
 10
-93.9454091404
 20
1145.4274034758
 30
0.0
 10
-100.7463757588
 20
1145.4644013405
 30
0.0
 10
-107.5288697925
 20
1145.5029710226
 30
0.0
 10
-114.3009339033
 20
1145.5430225295
 30
0.0
 10
-121.0298042918
 20
1145.5842326722
 30
0.0
 10
-127.7219713396
 20
1145.6264989886
 30
0.0
 10
-134.3841433431
 20
1145.6697347035
 30
0.0
 10
-141.0575690194
 20
1145.7141009024
 30
0.0
 10
-147.7410344603
 20
1145.7594905066
 30
0.0
 10
-154.4333257572
 20
1145.8057964762
 30
0.0
 10
-161.1332290027
 20
1145.8529115919
 30
0.0
 10
-167.8395302842
 20
1145.9007293126
 30
0.0
 10
-174.5215262943
 20
1145.9489278457
 30
0.0
 10
-181.140751747
 20
1145.9971292042
 30
0.0
 10
-187.6777884581
 20
1146.0448285209
 30
0.0
 10
-194.1551290849
 20
1146.0922060923
 30
0.0
 10
-200.6018822847
 20
1146.1394343905
 30
0.0
 10
-207.0269650722
 20
1146.1865552028
 30
0.0
 10
-213.4067460365
 20
1146.2333676453
 30
0.0
 10
-219.7271258072
 20
1146.2797419136
 30
0.0
 10
-225.9460247333
 20
1146.3253436414
 30
0.0
 10
-232.0787789127
 20
1146.3702611095
 30
0.0
 10
-238.131335032
 20
1146.4145148821
 30
0.0
 10
-244.1377627099
 20
1146.4583302767
 30
0.0
 10
-250.0938363292
 20
1146.501652129
 30
0.0
 10
-255.9953302724
 20
1146.544425277
 30
0.0
 10
-261.8380189221
 20
1146.5865945611
 30
0.0
 10
-267.6176766609
 20
1146.6281048233
 30
0.0
 10
-273.3300778714
 20
1146.6689009129
 30
0.0
 10
-278.9709969362
 20
1146.7089276668
 30
0.0
 10
-284.5362082377
 20
1146.7481299846
 30
0.0
 10
-289.997433979
 20
1146.7862845167
 30
0.0
 10
-295.3339681994
 20
1146.8232280118
 30
0.0
 10
-300.5365390616
 20
1146.8589677582
 30
0.0
 10
-305.6257648993
 20
1146.8936599223
 30
0.0
 10
-310.6151549746
 20
1146.927417971
 30
0.0
 10
-315.5072466877
 20
1146.9602759886
 30
0.0
 10
-320.2829114761
 20
1146.9921234905
 30
0.0
 10
-324.9308593237
 20
1147.0229050903
 30
0.0
 10
-329.4494721061
 20
1147.0526305357
 30
0.0
 10
-333.8534693677
 20
1147.0814147748
 30
0.0
 10
-338.1497784943
 20
1147.109319235
 30
0.0
 10
-342.3357013658
 20
1147.1363420214
 30
0.0
 10
-346.4085398624
 20
1147.1624812385
 30
0.0
 10
-350.3655958644
 20
1147.1877349894
 30
0.0
 10
-354.2041712518
 20
1147.2121013758
 30
0.0
 10
-357.9215679048
 20
1147.2355784986
 30
0.0
 10
-361.5150877037
 20
1147.2581644534
 30
0.0
 10
-364.9820325285
 20
1147.2798573449
 30
0.0
 10
-368.3197042597
 20
1147.3006552326
 30
0.0
 10
-371.5254047768
 20
1147.3205563212
 30
0.0
 10
-374.5874188402
 20
1147.339502492
 30
0.0
 10
-377.5007538067
 20
1147.3574796171
 30
0.0
 10
-380.263682688
 20
1147.3744853409
 30
0.0
 10
-382.8852044305
 20
1147.3905793867
 30
0.0
 10
-385.3681363626
 20
1147.405783904
 30
0.0
 10
-387.7125712087
 20
1147.4201039787
 30
0.0
 10
-389.9143776978
 20
1147.4335189588
 30
0.0
 10
-391.97094077
 20
1147.4460176022
 30
0.0
 10
-393.8819288962
 20
1147.4576026183
 30
0.0
 10
-395.6500750705
 20
1147.468295127
 30
0.0
 10
-397.2766043898
 20
1147.4781069272
 30
0.0
 10
-398.7604667344
 20
1147.4870360263
 30
0.0
 10
-400.1006119845
 20
1147.4950804283
 30
0.0
 10
-401.2959900205
 20
1147.5022381499
 30
0.0
 10
-402.3455507226
 20
1147.5085071716
 30
0.0
 10
-403.2482439707
 20
1147.5138855895
 30
0.0
 10
-404.0030196463
 20
1147.5183711711
 30
0.0
 10
-404.6088276256
 20
1147.5219626277
 30
0.0
 10
-405.064617799
 20
1147.5246562485
 30
0.0
 10
-405.3756999391
 20
1147.5264916745
 30
0.0
 10
-405.5347353788
 20
1147.527422656
 30
0.0
 10
-405.5920800474
 20
1147.5277569236
 30
0.0
  0
SPLINE
  5
2FE
100
AcDbEntity
  8
_SURFACE
100
AcDbSpline
 62
7
  6
CONTINUOUS
 70
0
 71
3
 72
10
 73
6
 74
0
 42
0.0000001
 43
0.0000001
 44
0.0000000001
 40
0.0
 40
0.0
 40
0.0
 40
0.0
 40
0.3486571637
 40
0.680461921
 40
1.0
 40
1.0
 40
1.0
 40
1.0
 10
699.5490516725
 20
1145.2882267648
 30
0.0
 10
701.1856714517
 20
1145.2951341329
 30
0.0
 10
704.3798044901
 20
1145.308664912
 30
0.0
 10
709.0738675591
 20
1145.3291946663
 30
0.0
 10
712.1313083602
 20
1145.3433566316
 30
0.0
 10
713.6312379943
 20
1145.3504123499
 30
0.0
  0
SPLINE
  5
2FF
100
AcDbEntity
  8
_SURFACE
100
AcDbSpline
 62
7
  6
CONTINUOUS
 70
0
 71
3
 72
9
 73
5
 74
0
 42
0.0000001
 43
0.0000001
 44
0.0000000001
 40
0.0
 40
0.0
 40
0.0
 40
0.0
 40
0.510833199
 40
1.0
 40
1.0
 40
1.0
 40
1.0
 10
713.6312379943
 20
1145.3504123499
 30
0.0
 10
714.012803473
 20
1145.3520802941
 30
0.0
 10
714.7597498853
 20
1145.3555525443
 30
0.0
 10
715.5066940856
 20
1145.359473578
 30
0.0
 10
715.87207371
 20
1145.3615122881
 30
0.0
  0
SPLINE
  5
300
100
AcDbEntity
  8
_SURFACE
100
AcDbSpline
 62
7
  6
CONTINUOUS
 70
0
 71
3
 72
9
 73
5
 74
0
 42
0.0000001
 43
0.0000001
 44
0.0000000001
 40
0.0
 40
0.0
 40
0.0
 40
0.0
 40
0.5091008449
 40
1.0
 40
1.0
 40
1.0
 40
1.0
 10
715.87207371
 20
1145.3615122881
 30
0.0
 10
721.7755956193
 20
1145.3902810257
 30
0.0
 10
733.371553148
 20
1145.4509297705
 30
0.0
 10
744.9674719878
 20
1145.5184945395
 30
0.0
 10
750.6598904919
 20
1145.5530053353
 30
0.0
  0
SPLINE
  5
301
100
AcDbEntity
  8
_SURFACE
100
AcDbSpline
 62
7
  6
CONTINUOUS
 70
0
 71
3
 72
12
 73
8
 74
0
 42
0.0000001
 43
0.0000001
 44
0.0000000001
 40
0.0
 40
0.0
 40
0.0
 40
0.0
 40
0.2502601316
 40
0.468503302
 40
0.6654267748
 40
0.8424395511
 40
1.0
 40
1.0
 40
1.0
 40
1.0
 10
750.6598904919
 20
1145.5530053353
 30
0.0
 10
767.1184223977
 20
1145.6539104515
 30
0.0
 10
797.9297266463
 20
1145.8656540416
 30
0.0
 10
841.6916140531
 20
1146.1882790401
 30
0.0
 10
880.6363933313
 20
1146.4735769093
 30
0.0
 10
915.5903955247
 20
1146.7251923354
 30
0.0
 10
937.5937320121
 20
1146.8762894813
 30
0.0
 10
947.9557665315
 20
1146.945765691
 30
0.0
  0
SPLINE
  5
302
100
AcDbEntity
  8
_SURFACE
100
AcDbSpline
 62
7
  6
CONTINUOUS
 70
0
 71
3
 72
80
 73
76
 74
0
 42
0.0000001
 43
0.0000001
 44
0.0000000001
 40
0.0
 40
0.0
 40
0.0
 40
0.0
 40
0.0093789449
 40
0.0347044264
 40
0.0594900795
 40
0.0837211135
 40
0.1073827378
 40
0.1304601615
 40
0.1529385939
 40
0.1748032443
 40
0.1960393218
 40
0.2166081036
 40
0.236235992
 40
0.2552121167
 40
0.2735223719
 40
0.2911526516
 40
0.3080846118
 40
0.3242441725
 40
0.3395845829
 40
0.3541917243
 40
0.3680789462
 40
0.3812406
 40
0.3936710371
 40
0.4053646089
 40
0.4163156668
 40
0.4265185623
 40
0.4359676468
 40
0.4446572717
 40
0.4525817884
 40
0.4597355483
 40
0.4661129029
 40
0.4717082036
 40
0.4764900159
 40
0.4804836867
 40
0.4836895168
 40
0.486101975
 40
0.4877155297
 40
0.4886256877
 40
0.4895394662
 40
0.4911598859
 40
0.4935827163
 40
0.4968023798
 40
0.5008132987
 40
0.5056098952
 40
0.5111865918
 40
0.5175378108
 40
0.5246579745
 40
0.5325415052
 40
0.5411828253
 40
0.5505763571
 40
0.560716523
 40
0.5716340003
 40
0.5833472394
 40
0.5958018301
 40
0.6089920624
 40
0.622912226
 40
0.6375752192
 40
0.653018748
 40
0.6693356048
 40
0.6863677729
 40
0.7041009215
 40
0.7225207197
 40
0.7416128367
 40
0.7613629418
 40
0.781756704
 40
0.8027797926
 40
0.8244178767
 40
0.8466566257
 40
0.8694817087
 40
0.892878795
 40
0.9168335537
 40
0.9414850349
 40
0.9669430748
 40
0.9929330049
 40
1.0
 40
1.0
 40
1.0
 40
1.0
 10
948.0006331183
 20
1146.9462366115
 30
0.0
 10
948.5892140668
 20
1146.9501854421
 30
0.0
 10
950.7671099324
 20
1146.964777987
 30
0.0
 10
954.5004442575
 20
1146.9896717208
 30
0.0
 10
959.1658314516
 20
1147.0205649859
 30
0.0
 10
963.7268036385
 20
1147.0505633176
 30
0.0
 10
968.1805760958
 20
1147.0796648031
 30
0.0
 10
972.524364101
 20
1147.107867531
 30
0.0
 10
976.7553829316
 20
1147.1351695885
 30
0.0
 10
980.8708478652
 20
1147.1615690622
 30
0.0
 10
984.8664723005
 20
1147.1870544579
 30
0.0
 10
988.7217280263
 20
1147.2115114777
 30
0.0
 10
992.4351595644
 20
1147.2349487505
 30
0.0
 10
996.0068563054
 20
1147.257384019
 30
0.0
 10
999.4531922509
 20
1147.2789355651
 30
0.0
 10
1002.7712456568
 20
1147.2995998634
 30
0.0
 10
1005.9543310652
 20
1147.3193502052
 30
0.0
 10
1008.9937143513
 20
1147.3381470548
 30
0.0
 10
1011.8872021391
 20
1147.3559933274
 30
0.0
 10
1014.6380877946
 20
1147.3729174424
 30
0.0
 10
1017.2522441177
 20
1147.3889595642
 30
0.0
 10
1019.7297998761
 20
1147.4041252218
 30
0.0
 10
1022.069691574
 20
1147.4184123913
 30
0.0
 10
1024.2708558228
 20
1147.4318191032
 30
0.0
 10
1026.3322288691
 20
1147.4443433725
 30
0.0
 10
1028.2527481901
 20
1147.4559832246
 30
0.0
 10
1030.0313471452
 20
1147.4667366598
 30
0.0
 10
1031.6669727428
 20
1147.476601759
 30
0.0
 10
1033.1585272528
 20
1147.485576338
 30
0.0
 10
1034.5050576407
 20
1147.4936590682
 30
0.0
 10
1035.705150447
 20
1147.5008458963
 30
0.0
 10
1036.757208755
 20
1147.5071315874
 30
0.0
 10
1037.6572330496
 20
1147.5124968738
 30
0.0
 10
1038.4143308279
 20
1147.517000014
 30
0.0
 10
1039.0035725695
 20
1147.5204978483
 30
0.0
 10
1039.4914988334
 20
1147.5233882036
 30
0.0
 10
1039.7298696262
 20
1147.5247981799
 30
0.0
 10
1040.0878586507
 20
1147.5269151661
 30
0.0
 10
1039.7285915042
 20
1147.524809896
 30
0.0
 10
1039.4895059134
 20
1147.5233978295
 30
0.0
 10
1038.9993428918
 20
1147.5205032614
 30
0.0
 10
1038.4076177464
 20
1147.5169956738
 30
0.0
 10
1037.6475989926
 20
1147.5124807709
 30
0.0
 10
1036.7467418441
 20
1147.5071148864
 30
0.0
 10
1035.6965640349
 20
1147.5008442779
 30
0.0
 10
1034.5013864903
 20
1147.4936900532
 30
0.0
 10
1033.1611770154
 20
1147.4856478743
 30
0.0
 10
1031.6773342627
 20
1147.4767217691
 30
0.0
 10
1030.0507984633
 20
1147.4669130863
 30
0.0
 10
1028.2826538032
 20
1147.4562240165
 30
0.0
 10
1026.3716647692
 20
1147.444642702
 30
0.0
 10
1024.3151015167
 20
1147.4321480468
 30
0.0
 10
1022.1132946299
 20
1147.4187373351
 30
0.0
 10
1019.7688594512
 20
1147.4044218057
 30
0.0
 10
1017.285927169
 20
1147.3892221022
 30
0.0
 10
1014.6644050832
 20
1147.3731331388
 30
0.0
 10
1011.901475858
 20
1147.3561327716
 30
0.0
 10
1008.9881405484
 20
1147.3381612947
 30
0.0
 10
1005.9261261423
 20
1147.3192210603
 30
0.0
 10
1002.7204252836
 20
1147.2993261867
 30
0.0
 10
999.3827532133
 20
1147.27853477
 30
0.0
 10
995.9158080519
 20
1147.2568485999
 30
0.0
 10
992.3222879191
 20
1147.2342696121
 30
0.0
 10
988.6048909349
 20
1147.2107996963
 30
0.0
 10
984.7663152194
 20
1147.1864407519
 30
0.0
 10
980.8092588923
 20
1147.1611946727
 30
0.0
 10
976.7364200738
 20
1147.1350633519
 30
0.0
 10
972.5504968837
 20
1147.1080486809
 30
0.0
 10
968.2541874422
 20
1147.08015255
 30
0.0
 10
963.8501898691
 20
1147.0513768496
 30
0.0
 10
959.3315767785
 20
1147.0216601627
 30
0.0
 10
954.6836286248
 20
1146.9908875815
 30
0.0
 10
949.9079635331
 20
1146.9590493096
 30
0.0
 10
946.2358242159
 20
1146.9343923769
 30
0.0
 10
944.1613188477
 20
1146.9203982268
 30
0.0
 10
943.7178257376
 20
1146.9174035758
 30
0.0
  0
SPLINE
  5
303
100
AcDbEntity
  8
_SURFACE
100
AcDbSpline
 62
7
  6
CONTINUOUS
 70
0
 71
3
 72
12
 73
8
 74
0
 42
0.0000001
 43
0.0000001
 44
0.0000000001
 40
0.0
 40
0.0
 40
0.0
 40
0.0
 40
0.1614957051
 40
0.3400290689
 40
0.5365691429
 40
0.7543534995
 40
1.0
 40
1.0
 40
1.0
 40
1.0
 10
943.6615411592
 20
1146.9168216113
 30
0.0
 10
933.8413879687
 20
1146.8504944017
 30
0.0
 10
913.1650859261
 20
1146.7075443309
 30
0.0
 10
880.5377537777
 20
1146.4719286318
 30
0.0
 10
844.4876878744
 20
1146.207703703
 30
0.0
 10
804.3566719511
 20
1145.9114221715
 30
0.0
 10
776.176633459
 20
1145.7143499534
 30
0.0
 10
761.239442405
 20
1145.6190584582
 30
0.0
  0
SPLINE
  5
304
100
AcDbEntity
  8
_SURFACE
100
AcDbSpline
 62
7
  6
CONTINUOUS
 70
0
 71
3
 72
9
 73
5
 74
0
 42
0.0000001
 43
0.0000001
 44
0.0000000001
 40
0.0
 40
0.0
 40
0.0
 40
0.0
 40
0.4919932318
 40
1.0
 40
1.0
 40
1.0
 40
1.0
 10
761.239442405
 20
1145.6190584582
 30
0.0
 10
755.5654316056
 20
1145.5823181113
 30
0.0
 10
744.0327078006
 20
1145.5111219146
 30
0.0
 10
732.4999341074
 20
1145.4484092767
 30
0.0
 10
726.6411943521
 20
1145.4191242895
 30
0.0
  0
SPLINE
  5
305
100
AcDbEntity
  8
_SURFACE
100
AcDbSpline
 62
7
  6
CONTINUOUS
 70
0
 71
3
 72
9
 73
5
 74
0
 42
0.0000001
 43
0.0000001
 44
0.0000000001
 40
0.0
 40
0.0
 40
0.0
 40
0.0
 40
0.4622675649
 40
1.0
 40
1.0
 40
1.0
 40
1.0
 10
723.8261362774
 20
1145.4018014285
 30
0.0
 10
724.2599099762
 20
1145.4038181217
 30
0.0
 10
725.1982407455
 20
1145.4132169613
 30
0.0
 10
726.1366140043
 20
1145.4156341954
 30
0.0
 10
726.6411943521
 20
1145.4191242895
 30
0.0
  0
SPLINE
  5
306
100
AcDbEntity
  8
_SURFACE
100
AcDbSpline
 62
7
  6
CONTINUOUS
 70
0
 71
3
 72
10
 73
6
 74
0
 42
0.0000001
 43
0.0000001
 44
0.0000000001
 40
0.0
 40
0.0
 40
0.0
 40
0.0
 40
0.3268554663
 40
0.6603123829
 40
1.0
 40
1.0
 40
1.0
 40
1.0
 10
-32.7998491201
 20
1137.7430806997
 30
0.0
 10
-11.0095353396
 20
1137.7488927772
 30
0.0
 10
33.0111884772
 20
1137.7593184303
 30
0.0
 10
99.6777027824
 20
1137.7611246998
 30
0.0
 10
144.5539022396
 20
1137.7633741981
 30
0.0
 10
167.1996915481
 20
1137.7641058984
 30
0.0
  0
SPLINE
  5
307
100
AcDbEntity
  8
_SURFACE
100
AcDbSpline
 62
7
  6
CONTINUOUS
 70
0
 71
3
 72
10
 73
6
 74
0
 42
0.0000001
 43
0.0000001
 44
0.0000000001
 40
0.0
 40
0.0
 40
0.0
 40
0.0
 40
0.3405210642
 40
0.6739567414
 40
1.0
 40
1.0
 40
1.0
 40
1.0
 10
467.1996915486
 20
1137.7638302261
 30
0.0
 10
489.9011493602
 20
1137.7630595521
 30
0.0
 10
534.8317046468
 20
1137.7606654511
 30
0.0
 10
601.4985288207
 20
1137.7589408084
 30
0.0
 10
645.4638937514
 20
1137.747785795
 30
0.0
 10
667.2001615756
 20
1137.7423174804
 30
0.0
  0
LINE
  5
308
100
AcDbEntity
  8
_SURFACE
100
AcDbLine
 62
7
  6
CONTINUOUS
 10
667.1967239752
 20
1140.5679285309
 11
-32.7961316455
 21
1140.5686070834
  0
SPLINE
  5
309
100
AcDbEntity
  8
_SURFACE
100
AcDbSpline
 62
7
  6
CONTINUOUS
 70
0
 71
3
 72
10
 73
6
 74
0
 42
0.0000001
 43
0.0000001
 44
0.0000000001
 40
0.0
 40
0.0
 40
0.0
 40
0.0
 40
0.3172018247
 40
0.6505744658
 40
1.0
 40
1.0
 40
1.0
 40
1.0
 10
667.2002812163
 20
1137.7423195641
 30
0.0
 10
593.1865206626
 20
1137.755575931
 30
0.0
 10
441.3858062907
 20
1137.7682638223
 30
0.0
 10
208.0524653944
 20
1137.7656358598
 30
0.0
 10
48.7328836662
 20
1137.7622679567
 30
0.0
 10
-32.7997416169
 20
1137.7430743248
 30
0.0
  0
LINE
  5
30A
100
AcDbEntity
  8
_SURFACE
100
AcDbLine
 62
7
  6
CONTINUOUS
 10
-32.7959303956
 20
1140.5686158722
 11
667.196630754
 21
1140.5679373201
  0
SPLINE
  5
30B
100
AcDbEntity
  8
_SURFACE
100
AcDbSpline
 62
6
  6
CONTINUOUS
 70
0
 71
3
 72
9
 73
5
 74
0
 42
0.0000001
 43
0.0000001
 44
0.0000000001
 40
0.0
 40
0.0
 40
0.0
 40
0.0
 40
0.500247929
 40
1.0
 40
1.0
 40
1.0
 40
1.0
 10
-32.7998491201
 20
1137.7430806997
 30
0.0
 10
-32.7993140237
 20
1138.2142353795
 30
0.0
 10
-32.7981597393
 20
1139.1560776247
 30
0.0
 10
-32.7968357914
 20
1140.0979196468
 30
0.0
 10
-32.7961316455
 20
1140.5686070834
 30
0.0
  0
SPLINE
  5
30C
100
AcDbEntity
  8
_SURFACE
100
AcDbSpline
 62
6
  6
CONTINUOUS
 70
0
 71
3
 72
9
 73
5
 74
0
 42
0.0000001
 43
0.0000001
 44
0.0000000001
 40
0.0
 40
0.0
 40
0.0
 40
0.0
 40
0.5000397374
 40
1.0
 40
1.0
 40
1.0
 40
1.0
 10
-32.7959303956
 20
1140.5686158722
 30
0.0
 10
-32.7966773246
 20
1140.097655015
 30
0.0
 10
-32.7980594245
 20
1139.1558079733
 30
0.0
 10
-32.7992181566
 20
1138.2139606302
 30
0.0
 10
-32.7997416169
 20
1137.7430743248
 30
0.0
  0
SPLINE
  5
30D
100
AcDbEntity
  8
_SURFACE
100
AcDbSpline
 62
7
  6
CONTINUOUS
 70
0
 71
3
 72
22
 73
18
 74
0
 42
0.0000001
 43
0.0000001
 44
0.0000000001
 40
0.0
 40
0.0
 40
0.0
 40
0.0
 40
0.0576148607
 40
0.120027665
 40
0.1876482371
 40
0.260659027
 40
0.3402543251
 40
0.4258795993
 40
0.5173821587
 40
0.6129933148
 40
0.7058838051
 40
0.790682074
 40
0.8634807907
 40
0.9220760576
 40
0.9648274541
 40
0.9911236867
 40
1.0
 40
1.0
 40
1.0
 40
1.0
 10
-59.137911149
 20
1137.7741556363
 30
0.0
 10
-65.7966743469
 20
1137.7950649598
 30
0.0
 10
-79.6686486235
 20
1137.8583902861
 30
0.0
 10
-101.3556802268
 20
1137.9680183601
 30
0.0
 10
-124.8219462373
 20
1138.108609698
 30
0.0
 10
-150.2739269349
 20
1138.2771138929
 30
0.0
 10
-177.806644285
 20
1138.4736640614
 30
0.0
 10
-207.4764395044
 20
1138.6909612967
 30
0.0
 10
-238.9972067957
 20
1138.9217698194
 30
0.0
 10
-271.3576403034
 20
1139.1564650771
 30
0.0
 10
-302.9433112722
 20
1139.3770825762
 30
0.0
 10
-331.8925791225
 20
1139.5699098752
 30
0.0
 10
-356.878329951
 20
1139.730061003
 30
0.0
 10
-377.0046678678
 20
1139.8551971346
 30
0.0
 10
-391.7566242857
 20
1139.9459851395
 30
0.0
 10
-400.7624612642
 20
1140.0007584679
 30
0.0
 10
-404.8274250745
 20
1140.0259170693
 30
0.0
 10
-405.8532786938
 20
1140.0323065375
 30
0.0
  0
SPLINE
  5
30E
100
AcDbEntity
  8
_SURFACE
100
AcDbSpline
 62
6
  6
CONTINUOUS
 70
0
 71
3
 72
9
 73
5
 74
0
 42
0.0000001
 43
0.0000001
 44
0.0000000001
 40
0.0
 40
0.0
 40
0.0
 40
0.0
 40
0.4997567937
 40
1.0
 40
1.0
 40
1.0
 40
1.0
 10
667.1967239752
 20
1140.5679285309
 30
0.0
 10
667.1973827144
 20
1140.0972225353
 30
0.0
 10
667.1986145818
 20
1139.1553522838
 30
0.0
 10
667.1996743643
 20
1138.213481823
 30
0.0
 10
667.2001615756
 20
1137.7423174804
 30
0.0
  0
SPLINE
  5
30F
100
AcDbEntity
  8
_SURFACE
100
AcDbSpline
 62
7
  6
CONTINUOUS
 70
0
 71
3
 72
10
 73
6
 74
0
 42
0.0000001
 43
0.0000001
 44
0.0000000001
 40
0.0
 40
0.0
 40
0.0
 40
0.0
 40
0.3193393901
 40
0.6542189861
 40
1.0
 40
1.0
 40
1.0
 40
1.0
 10
723.7560958649
 20
1137.9043626886
 30
0.0
 10
724.0659866871
 20
1137.9063259804
 30
0.0
 10
724.7008443564
 20
1137.9109688933
 30
0.0
 10
725.6712473597
 20
1137.9186311344
 30
0.0
 10
726.3317833216
 20
1137.920278861
 30
0.0
 10
726.6673321301
 20
1137.922598919
 30
0.0
  0
SPLINE
  5
310
100
AcDbEntity
  8
_SURFACE
100
AcDbSpline
 62
7
  6
CONTINUOUS
 70
0
 71
3
 72
8
 73
4
 74
0
 42
0.0000001
 43
0.0000001
 44
0.0000000001
 40
0.0
 40
0.0
 40
0.0
 40
0.0
 40
1.0
 40
1.0
 40
1.0
 40
1.0
 10
761.3145448355
 20
1138.1217271374
 30
0.0
 10
757.7756217074
 20
1138.0995618494
 30
0.0
 10
754.2366954992
 20
1138.077890758
 30
0.0
 10
750.6977670588
 20
1138.0565852477
 30
0.0
  0
SPLINE
  5
311
100
AcDbEntity
  8
_SURFACE
100
AcDbSpline
 62
7
  6
CONTINUOUS
 70
0
 71
3
 72
11
 73
7
 74
0
 42
0.0000001
 43
0.0000001
 44
0.0000000001
 40
0.0
 40
0.0
 40
0.0
 40
0.0
 40
0.2043174193
 40
0.4353861403
 40
0.6970332227
 40
1.0
 40
1.0
 40
1.0
 40
1.0
 10
943.7238453789
 20
1139.4170927324
 30
0.0
 10
931.3006819371
 20
1139.3333115576
 30
0.0
 10
904.827827552
 20
1139.1490447487
 30
0.0
 10
862.4460986348
 20
1138.8406727594
 30
0.0
 10
814.066221236
 20
1138.4847781483
 30
0.0
 10
779.7359523509
 20
1138.2395131451
 30
0.0
 10
761.3145448355
 20
1138.1217271374
 30
0.0
  0
SPLINE
  5
312
100
AcDbEntity
  8
_SURFACE
100
AcDbSpline
 62
7
  6
CONTINUOUS
 70
0
 71
3
 72
17
 73
13
 74
0
 42
0.0000001
 43
0.0000001
 44
0.0000000001
 40
0.0
 40
0.0
 40
0.0
 40
0.0
 40
0.1722115693
 40
0.3089059133
 40
0.4091866123
 40
0.4698656817
 40
0.4886164062
 40
0.5128162731
 40
0.5790467559
 40
0.6842642766
 40
0.8259963085
 40
1.0
 40
1.0
 40
1.0
 40
1.0
 10
948.0192668268
 20
1139.4460465823
 30
0.0
 10
958.8494924943
 20
1139.5188989065
 30
0.0
 10
978.4677198795
 20
1139.6477156198
 30
0.0
 10
1003.5451352991
 20
1139.8050335766
 30
0.0
 10
1023.7615129066
 20
1139.9298556624
 30
0.0
 10
1032.4244225483
 20
1139.9824036061
 30
0.0
 10
1042.3876971272
 20
1140.0429859598
 30
0.0
 10
1030.7654781103
 20
1139.9726409737
 30
0.0
 10
1022.0251692741
 20
1139.918744906
 30
0.0
 10
1000.4109856461
 20
1139.7860099927
 30
0.0
 10
974.7568540662
 20
1139.6237222215
 30
0.0
 10
954.6667728573
 20
1139.4911615834
 30
0.0
 10
943.7238453789
 20
1139.4170927324
 30
0.0
  0
SPLINE
  5
313
100
AcDbEntity
  8
_SURFACE
100
AcDbSpline
 62
7
  6
CONTINUOUS
 70
0
 71
3
 72
11
 73
7
 74
0
 42
0.0000001
 43
0.0000001
 44
0.0000000001
 40
0.0
 40
0.0
 40
0.0
 40
0.0
 40
0.3079977184
 40
0.569741547
 40
0.800180831
 40
1.0
 40
1.0
 40
1.0
 40
1.0
 10
750.6977711501
 20
1138.0559056647
 30
0.0
 10
770.9560839567
 20
1138.1800771404
 30
0.0
 10
808.4301792538
 20
1138.4441125958
 30
0.0
 10
861.0610163328
 20
1138.831646284
 30
0.0
 10
906.5765890133
 20
1139.162244202
 30
0.0
 10
934.876362467
 20
1139.3580572137
 30
0.0
 10
948.0192668268
 20
1139.4460465823
 30
0.0
  0
SPLINE
  5
314
100
AcDbEntity
  8
_SURFACE
100
AcDbSpline
 62
7
  6
CONTINUOUS
 70
0
 71
3
 72
10
 73
6
 74
0
 42
0.0000001
 43
0.0000001
 44
0.0000000001
 40
0.0
 40
0.0
 40
0.0
 40
0.0
 40
0.3418292504
 40
0.6753589713
 40
1.0
 40
1.0
 40
1.0
 40
1.0
 10
715.9114209273
 20
1137.86554006
 30
0.0
 10
719.8750975682
 20
1137.8848160545
 30
0.0
 10
727.7062042332
 20
1137.9248921819
 30
0.0
 10
739.3016479732
 20
1137.9896085233
 30
0.0
 10
746.9334211124
 20
1138.033730376
 30
0.0
 10
750.6977711501
 20
1138.0559056647
 30
0.0
  0
LINE
  5
315
100
AcDbEntity
  8
_SURFACE
100
AcDbLine
 62
7
  6
CONTINUOUS
 10
713.6672042698
 20
1137.8546033604
 11
715.9114209273
 21
1137.86554006
  0
SPLINE
  5
316
100
AcDbEntity
  8
_SURFACE
100
AcDbSpline
 62
7
  6
CONTINUOUS
 70
0
 71
3
 72
9
 73
5
 74
0
 42
0.0000001
 43
0.0000001
 44
0.0000000001
 40
0.0
 40
0.0
 40
0.0
 40
0.0
 40
0.1219261134
 40
1.0
 40
1.0
 40
1.0
 40
1.0
 10
699.5764691874
 20
1137.7927670566
 30
0.0
 10
700.1490648059
 20
1137.7951226938
 30
0.0
 10
704.8453144225
 20
1137.8147485354
 30
0.0
 10
709.5415605752
 20
1137.8352339772
 30
0.0
 10
713.6652066021
 20
1137.8543132904
 30
0.0
  0
SPLINE
  5
317
100
AcDbEntity
  8
_SURFACE
100
AcDbSpline
 62
6
  6
CONTINUOUS
 70
0
 71
3
 72
9
 73
5
 74
0
 42
0.0000001
 43
0.0000001
 44
0.0000000001
 40
0.0
 40
0.0
 40
0.0
 40
0.0
 40
0.500285596
 40
1.0
 40
1.0
 40
1.0
 40
1.0
 10
667.2002812163
 20
1137.7423195641
 30
0.0
 10
667.1997613259
 20
1138.2135249604
 30
0.0
 10
667.198633474
 20
1139.1553976669
 30
0.0
 10
667.1973277859
 20
1140.0972701438
 30
0.0
 10
667.196630754
 20
1140.5679373201
 30
0.0
  0
SPLINE
  5
318
100
AcDbEntity
  8
_SURFACE
100
AcDbSpline
 62
6
  6
CONTINUOUS
 70
0
 71
3
 72
11
 73
7
 74
0
 42
0.0000001
 43
0.0000001
 44
0.0000000001
 40
0.0
 40
0.0
 40
0.0
 40
0.0
 40
0.4935610087
 40
0.7754253632
 40
0.9266938449
 40
1.0
 40
1.0
 40
1.0
 40
1.0
 10
467.1996345093
 20
1129.3405991839
 30
0.0
 10
467.19966766
 20
1130.7263920709
 30
0.0
 10
467.1992923067
 20
1132.9035850238
 30
0.0
 10
467.2010909239
 20
1135.5055112122
 30
0.0
 10
467.1994792233
 20
1136.9274510146
 30
0.0
 10
467.2014330044
 20
1137.558012687
 30
0.0
 10
467.1996915484
 20
1137.7638302261
 30
0.0
  0
SPLINE
  5
319
100
AcDbEntity
  8
_SURFACE
100
AcDbSpline
 62
6
  6
CONTINUOUS
 70
0
 71
3
 72
11
 73
7
 74
0
 42
0.0000001
 43
0.0000001
 44
0.0000000001
 40
0.0
 40
0.0
 40
0.0
 40
0.0
 40
0.0733121646
 40
0.2246025294
 40
0.5063254754
 40
1.0
 40
1.0
 40
1.0
 40
1.0
 10
167.1996915484
 20
1137.7641058984
 30
0.0
 10
167.1978917811
 20
1137.5583102874
 30
0.0
 10
167.1999643969
 20
1136.9277866166
 30
0.0
 10
167.1984327995
 20
1135.5064308859
 30
0.0
 10
167.2002965695
 20
1132.9050051389
 30
0.0
 10
167.1996426193
 20
1130.728295769
 30
0.0
 10
167.1996345209
 20
1129.3424420553
 30
0.0
  0
SPLINE
  5
31A
100
AcDbEntity
  8
_SURFACE
100
AcDbSpline
 62
7
  6
CONTINUOUS
 70
0
 71
3
 72
22
 73
18
 74
0
 42
0.0000001
 43
0.0000001
 44
0.0000000001
 40
0.0
 40
0.0
 40
0.0
 40
0.0
 40
0.0486381945
 40
0.0974511546
 40
0.1462386081
 40
0.1948100631
 40
0.2435499721
 40
0.2940000162
 40
0.3478798339
 40
0.4072102287
 40
0.4725960324
 40
0.5439456041
 40
0.6211857519
 40
0.704818989
 40
0.795459075
 40
0.8937253396
 40
1.0
 40
1.0
 40
1.0
 40
1.0
 10
552.2790903395
 20
684.4146386192
 30
0.0
 10
553.9882104435
 20
684.4553329028
 30
0.0
 10
557.4125808518
 20
684.537328968
 30
0.0
 10
562.5512797685
 20
684.6616614357
 30
0.0
 10
567.6876048427
 20
684.7871163222
 30
0.0
 10
572.8213366318
 20
684.9135825809
 30
0.0
 10
578.0134626882
 20
685.0425832084
 30
0.0
 10
583.3920927971
 20
685.1771934128
 30
0.0
 10
589.1428135722
 20
685.3227947872
 30
0.0
 10
595.4183627832
 20
685.4811599862
 30
0.0
 10
602.3078319625
 20
685.6524801719
 30
0.0
 10
609.8266771439
 20
685.8373019137
 30
0.0
 10
617.9867816682
 20
686.0351733778
 30
0.0
 10
626.8248078853
 20
686.2465548087
 30
0.0
 10
636.4017559762
 20
686.4723543483
 30
0.0
 10
646.7743996579
 20
686.7133358638
 30
0.0
 10
653.9620149541
 20
686.8777623532
 30
0.0
 10
657.6965449392
 20
686.9625807841
 30
0.0
  0
SPLINE
  5
31B
100
AcDbEntity
  8
_SURFACE
100
AcDbSpline
 62
6
  6
CONTINUOUS
 70
0
 71
3
 72
20
 73
16
 74
0
 42
0.0000001
 43
0.0000001
 44
0.0000000001
 40
0.0
 40
0.0
 40
0.0
 40
0.0
 40
0.0586521624
 40
0.150318674
 40
0.2065144789
 40
0.2420063547
 40
0.2793556132
 40
0.3166885812
 40
0.3914069285
 40
0.5408057792
 40
0.6901974954
 40
0.7648892858
 40
0.8395831632
 40
0.988964714
 40
1.0
 40
1.0
 40
1.0
 40
1.0
 10
702.6171433888
 20
1128.6333954392
 30
0.0
 10
699.7543683402
 20
1128.6772380057
 30
0.0
 10
692.4173149468
 20
1128.7836652774
 30
0.0
 10
682.3369372288
 20
1128.8997929377
 30
0.0
 10
673.3868261921
 20
1128.9786914181
 30
0.0
 10
667.0880206028
 20
1129.0216466546
 30
0.0
 10
661.7099559198
 20
1129.0535137452
 30
0.0
 10
654.4170738866
 20
1129.0955102097
 30
0.0
 10
641.6545320824
 20
1129.1619926614
 30
0.0
 10
623.4218150035
 20
1129.2388202952
 30
0.0
 10
605.1902983267
 20
1129.2879429795
 30
0.0
 10
590.6054739555
 20
1129.313020457
 30
0.0
 10
576.0211375562
 20
1129.3330644692
 30
0.0
 10
564.5441850899
 20
1129.3380106126
 30
0.0
 10
556.7134225121
 20
1129.3394793614
 30
0.0
 10
556.1747340124
 20
1129.3395720652
 30
0.0
  0
SPLINE
  5
31C
100
AcDbEntity
  8
_SURFACE
100
AcDbSpline
 62
6
  6
CONTINUOUS
 70
0
 71
3
 72
12
 73
8
 74
0
 42
0.0000001
 43
0.0000001
 44
0.0000000001
 40
0.0
 40
0.0
 40
0.0
 40
0.0
 40
0.2510888202
 40
0.4723461105
 40
0.6688728683
 40
0.8441121386
 40
1.0
 40
1.0
 40
1.0
 40
1.0
 10
556.1995282799
 20
1129.339261747
 30
0.0
 10
556.1751925344
 20
1092.0877836285
 30
0.0
 10
556.1192313592
 20
1022.0108223905
 30
0.0
 10
555.9555048416
 20
922.7763416159
 30
0.0
 10
555.8205032432
 20
834.7979874684
 30
0.0
 10
558.1033394134
 20
756.5108166873
 30
0.0
 10
554.8206057032
 20
707.4020568164
 30
0.0
 10
552.2790903392
 20
684.4146352143
 30
0.0
  0
SPLINE
  5
31D
100
AcDbEntity
  8
_SURFACE
100
AcDbSpline
 62
6
  6
CONTINUOUS
 70
0
 71
3
 72
15
 73
11
 74
0
 42
0.0000001
 43
0.0000001
 44
0.0000000001
 40
0.0
 40
0.0
 40
0.0
 40
0.0
 40
0.0733129307
 40
0.2100540051
 40
0.3449784091
 40
0.4789229412
 40
0.6124915026
 40
0.7455293435
 40
0.8777353038
 40
1.0
 40
1.0
 40
1.0
 40
1.0
 10
670.6765400808
 20
687.2544347779
 30
0.0
 10
671.7902691768
 20
698.0476065447
 30
0.0
 10
675.0164152877
 20
728.9682598071
 30
0.0
 10
680.4747258663
 20
779.7333993691
 30
0.0
 10
687.1145334863
 20
839.3963956939
 30
0.0
 10
693.8891602445
 20
898.5716108941
 30
0.0
 10
700.7849811965
 20
957.4517096148
 30
0.0
 10
707.8378311779
 20
1016.0540926899
 30
0.0
 10
714.9070338135
 20
1072.969049341
 30
0.0
 10
719.7099916868
 20
1110.3239321825
 30
0.0
 10
722.0612450968
 20
1128.265980378
 30
0.0
  0
SPLINE
  5
31E
100
AcDbEntity
  8
_SURFACE
100
AcDbSpline
 62
6
  6
CONTINUOUS
 70
0
 71
3
 72
58
 73
54
 74
0
 42
0.0000001
 43
0.0000001
 44
0.0000000001
 40
0.0
 40
0.0
 40
0.0
 40
0.0
 40
0.0055481566
 40
0.057900152
 40
0.1093805338
 40
0.1346279495
 40
0.1594525536
 40
0.2075888455
 40
0.230771958
 40
0.2532827497
 40
0.2750655826
 40
0.2856656698
 40
0.2960610396
 40
0.3062515523
 40
0.3162242168
 40
0.3355003376
 40
0.3538485717
 40
0.3712252248
 40
0.402921581
 40
0.4303411071
 40
0.4532988244
 40
0.4716707597
 40
0.485385452
 40
0.4944127678
 40
0.4987578143
 40
0.4991813466
 40
0.4999226002
 40
0.5049055722
 40
0.5145741389
 40
0.528926448
 40
0.5378503997
 40
0.5479300505
 40
0.5715056561
 40
0.5849683706
 40
0.5995207734
 40
0.6151364242
 40
0.6317835285
 40
0.6494291793
 40
0.6680353445
 40
0.6776849108
 40
0.6875575704
 40
0.6976482485
 40
0.7079526879
 40
0.7184613997
 40
0.7291699222
 40
0.7511568143
 40
0.7738568936
 40
0.7972102563
 40
0.8211622923
 40
0.8456417604
 40
0.8959386778
 40
0.9475697866
 40
1.0
 40
1.0
 40
1.0
 40
1.0
 10
722.0594151172
 20
1128.2660353824
 30
0.0
 10
723.0773997266
 20
1128.243952674
 30
0.0
 10
733.700947956
 20
1128.0105749438
 30
0.0
 10
753.7689058736
 20
1127.5129408074
 30
0.0
 10
777.4481680968
 20
1126.8197824039
 30
0.0
 10
796.0759082558
 20
1126.2201469377
 30
0.0
 10
814.0891796792
 20
1125.6081528701
 30
0.0
 10
831.722311774
 20
1124.9654990738
 30
0.0
 10
848.9296671987
 20
1124.3013549226
 30
0.0
 10
861.3034710293
 20
1123.8074906121
 30
0.0
 10
871.3693230747
 20
1123.3936047869
 30
0.0
 10
879.213296945
 20
1123.0644792501
 30
0.0
 10
884.9315340845
 20
1122.8214897046
 30
0.0
 10
890.5346046593
 20
1122.5804919287
 30
0.0
 10
897.7658496381
 20
1122.2659238675
 30
0.0
 10
906.4925944834
 20
1121.8802729001
 30
0.0
 10
916.5762970335
 20
1121.4258936402
 30
0.0
 10
928.9372780243
 20
1120.8590952889
 30
0.0
 10
942.9568933305
 20
1120.2014681526
 30
0.0
 10
958.0130847316
 20
1119.4767659799
 30
0.0
 10
970.5836003946
 20
1118.8588355973
 30
0.0
 10
980.7570183339
 20
1118.3495657024
 30
0.0
 10
988.089930707
 20
1117.9772367089
 30
0.0
 10
993.4615450193
 20
1117.7006683973
 30
0.0
 10
995.4379508764
 20
1117.597682537
 30
0.0
 10
996.8450441423
 20
1117.5241182044
 30
0.0
 10
994.9261451608
 20
1117.6245514472
 30
0.0
 10
993.1424619531
 20
1117.7169667428
 30
0.0
 10
987.1072840414
 20
1118.0276498603
 30
0.0
 10
981.3613070448
 20
1118.3185667601
 30
0.0
 10
975.1912861829
 20
1118.6281961224
 30
0.0
 10
967.4052570861
 20
1119.0154580689
 30
0.0
 10
958.7589768528
 20
1119.4394391719
 30
0.0
 10
949.3036525924
 20
1119.8958715425
 30
0.0
 10
941.304985351
 20
1120.2773822947
 30
0.0
 10
932.7228760323
 20
1120.6813564705
 30
0.0
 10
923.5732462685
 20
1121.1057523712
 30
0.0
 10
913.8750925992
 20
1121.5484240945
 30
0.0
 10
905.4595010109
 20
1121.9257007789
 30
0.0
 10
898.4688147466
 20
1122.2345077751
 30
0.0
 10
893.0392987804
 20
1122.4718579325
 30
0.0
 10
887.4895972183
 20
1122.7118134916
 30
0.0
 10
881.8231500406
 20
1122.9539454511
 30
0.0
 10
876.0432878145
 20
1123.197889189
 30
0.0
 10
868.1211312591
 20
1123.5279006687
 30
0.0
 10
857.9631354553
 20
1123.9423513692
 30
0.0
 10
845.4858075295
 20
1124.4359989386
 30
0.0
 10
832.6474369613
 20
1124.9266389301
 30
0.0
 10
819.4820309411
 20
1125.4108054489
 30
0.0
 10
801.3741266385
 20
1126.0481023726
 30
0.0
 10
778.1875135327
 20
1126.8049273081
 30
0.0
 10
749.8705345427
 20
1127.6174896098
 30
0.0
 10
730.7781802467
 20
1128.0786234317
 30
0.0
 10
721.1581626679
 20
1128.2855242842
 30
0.0
  0
SPLINE
  5
31F
100
AcDbEntity
  8
_SURFACE
100
AcDbSpline
 62
6
  6
CONTINUOUS
 70
0
 71
3
 72
14
 73
10
 74
0
 42
0.0000001
 43
0.0000001
 44
0.0000000001
 40
0.0
 40
0.0
 40
0.0
 40
0.0
 40
0.1854192074
 40
0.3707788916
 40
0.4635633004
 40
0.5566788465
 40
0.6486732067
 40
0.7392941259
 40
1.0
 40
1.0
 40
1.0
 40
1.0
 10
721.1578749441
 20
1128.2854825843
 30
0.0
 10
720.011998168
 20
1128.310059497
 30
0.0
 10
717.7206062285
 20
1128.358923677
 30
0.0
 10
714.8557570833
 20
1128.4173856038
 30
0.0
 10
712.5613360766
 20
1128.4634923407
 30
0.0
 10
710.8439351354
 20
1128.4986804182
 30
0.0
 10
709.1398305357
 20
1128.5298379989
 30
0.0
 10
706.3998704049
 20
1128.5743715848
 30
0.0
 10
704.2284677687
 20
1128.6086145776
 30
0.0
 10
702.6171434677
 20
1128.6332921714
 30
0.0
  0
SPLINE
  5
320
100
AcDbEntity
  8
_SURFACE
100
AcDbSpline
 62
6
  6
CONTINUOUS
 70
0
 71
3
 72
11
 73
7
 74
0
 42
0.0000001
 43
0.0000001
 44
0.0000000001
 40
0.0
 40
0.0
 40
0.0
 40
0.0
 40
0.2062231442
 40
0.473193278
 40
0.7399575772
 40
1.0
 40
1.0
 40
1.0
 40
1.0
 10
590.314010018
 20
685.3523663898
 30
0.0
 10
591.3249141605
 20
715.8688255555
 30
0.0
 10
593.6449072293
 20
785.8909399243
 30
0.0
 10
597.2757506061
 20
895.3881586932
 30
0.0
 10
601.1722404384
 20
1012.8493785114
 30
0.0
 10
603.7600812868
 20
1090.8049285019
 30
0.0
 10
605.0381078977
 20
1129.2853397529
 30
0.0
  0
SPLINE
  5
321
100
AcDbEntity
  8
_SURFACE
100
AcDbSpline
 62
6
  6
CONTINUOUS
 70
0
 71
3
 72
11
 73
7
 74
0
 42
0.0000001
 43
0.0000001
 44
0.0000000001
 40
0.0
 40
0.0
 40
0.0
 40
0.0
 40
0.2016459188
 40
0.5965308788
 40
0.8401851351
 40
1.0
 40
1.0
 40
1.0
 40
1.0
 10
605.033903693
 20
1129.2854179415
 30
0.0
 10
611.1778383996
 20
1129.2715403237
 30
0.0
 10
629.3534757992
 20
1129.2201426753
 30
0.0
 10
654.9528042654
 20
1129.1018725687
 30
0.0
 10
679.2774174393
 20
1128.9420918268
 30
0.0
 10
691.5698461449
 20
1128.7915944671
 30
0.0
 10
696.4387800792
 20
1128.7242377834
 30
0.0
  0
SPLINE
  5
322
100
AcDbEntity
  8
_SURFACE
100
AcDbSpline
 62
7
  6
CONTINUOUS
 70
0
 71
3
 72
10
 73
6
 74
0
 42
0.0000001
 43
0.0000001
 44
0.0000000001
 40
0.0
 40
0.0
 40
0.0
 40
0.0
 40
0.3475753439
 40
0.6805488091
 40
1.0
 40
1.0
 40
1.0
 40
1.0
 10
590.3141946867
 20
685.3523675781
 30
0.0
 10
586.7601448832
 20
685.262575858
 30
0.0
 10
579.8013601406
 20
685.0864895828
 30
0.0
 10
569.5759726875
 20
684.8330519811
 30
0.0
 10
562.9046150668
 20
684.6702567234
 30
0.0
 10
559.6380546999
 20
684.5912683408
 30
0.0
  0
SPLINE
  5
323
100
AcDbEntity
  8
_SURFACE
100
AcDbSpline
 62
6
  6
CONTINUOUS
 70
0
 71
3
 72
10
 73
6
 74
0
 42
0.0000001
 43
0.0000001
 44
0.0000000001
 40
0.0
 40
0.0
 40
0.0
 40
0.0
 40
0.3274571734
 40
0.6607509687
 40
1.0
 40
1.0
 40
1.0
 40
1.0
 10
559.6380546999
 20
684.5912683408
 30
0.0
 10
559.7115714365
 20
733.1364267342
 30
0.0
 10
559.920544147
 20
831.0919666077
 30
0.0
 10
560.5138081606
 20
979.3398580511
 30
0.0
 10
560.8842680494
 20
1079.0429977118
 30
0.0
 10
561.0819270565
 20
1129.335955065
 30
0.0
  0
SPLINE
  5
324
100
AcDbEntity
  8
_SURFACE
100
AcDbSpline
 62
6
  6
CONTINUOUS
 70
0
 71
3
 72
18
 73
14
 74
0
 42
0.0000001
 43
0.0000001
 44
0.0000000001
 40
0.0
 40
0.0
 40
0.0
 40
0.0
 40
0.0555921492
 40
0.1111535805
 40
0.1666949614
 40
0.2222627861
 40
0.3333710098
 40
0.4444737935
 40
0.5555654876
 40
0.6666971008
 40
0.7777981539
 40
0.8889239842
 40
1.0
 40
1.0
 40
1.0
 40
1.0
 10
561.0824571962
 20
1129.3187810055
 30
0.0
 10
561.897009945
 20
1129.318807298
 30
0.0
 10
563.5256653544
 20
1129.3188740729
 30
0.0
 10
565.968129639
 20
1129.3190142038
 30
0.0
 10
568.4102375114
 20
1129.31919453
 30
0.0
 10
571.666233546
 20
1129.3194876124
 30
0.0
 10
575.7363318099
 20
1129.3199525585
 30
0.0
 10
580.6199823419
 20
1129.3206651285
 30
0.0
 10
585.5039755592
 20
1129.321530494
 30
0.0
 10
590.3879433915
 20
1129.3225450748
 30
0.0
 10
595.272411366
 20
1129.3237064213
 30
0.0
 10
600.1560646724
 20
1129.3250146052
 30
0.0
 10
603.4118322473
 20
1129.3259787292
 30
0.0
 10
605.0393510773
 20
1129.326487162
 30
0.0
  0
SPLINE
  5
325
100
AcDbEntity
  8
_SURFACE
100
AcDbSpline
 62
7
  6
CONTINUOUS
 70
0
 71
3
 72
8
 73
4
 74
0
 42
0.0000001
 43
0.0000001
 44
0.0000000001
 40
0.0
 40
0.0
 40
0.0
 40
0.0
 40
1.0
 40
1.0
 40
1.0
 40
1.0
 10
559.6380546999
 20
684.5912683408
 30
0.0
 10
557.1850789088
 20
684.531882967
 30
0.0
 10
554.7320916778
 20
684.4729644305
 30
0.0
 10
552.2790927282
 20
684.4145349184
 30
0.0
  0
SPLINE
  5
326
100
AcDbEntity
  8
_SURFACE
100
AcDbSpline
 62
6
  6
CONTINUOUS
 70
0
 71
3
 72
9
 73
5
 74
0
 42
0.0000001
 43
0.0000001
 44
0.0000000001
 40
0.0
 40
0.0
 40
0.0
 40
0.0
 40
0.5068999053
 40
1.0
 40
1.0
 40
1.0
 40
1.0
 10
78.2012360627
 20
1129.3413495057
 30
0.0
 10
159.7919459192
 20
1129.3919063667
 30
0.0
 10
320.7521809025
 20
1129.2769577273
 30
0.0
 10
481.7124585102
 20
1129.4118394612
 30
0.0
 10
561.0819270565
 20
1129.335955065
 30
0.0
  0
SPLINE
  5
327
100
AcDbEntity
  8
_SURFACE
100
AcDbSpline
 62
7
  6
CONTINUOUS
 70
0
 71
3
 72
22
 73
18
 74
0
 42
0.0000001
 43
0.0000001
 44
0.0000000001
 40
0.0
 40
0.0
 40
0.0
 40
0.0
 40
0.0486388547
 40
0.0974526494
 40
0.1462411087
 40
0.1948130025
 40
0.2435531023
 40
0.2940031555
 40
0.3478826602
 40
0.4072126833
 40
0.4725981422
 40
0.5439473808
 40
0.6211870119
 40
0.7048196581
 40
0.7954591779
 40
0.8937249496
 40
1.0
 40
1.0
 40
1.0
 40
1.0
 10
82.1326752403
 20
684.4147986619
 30
0.0
 10
80.4233404886
 20
684.4555002482
 30
0.0
 10
76.9985339745
 20
684.537511278
 30
0.0
 10
71.8591715887
 20
684.6618669972
 30
0.0
 10
66.7221911049
 20
684.7873454681
 30
0.0
 10
61.587826829
 20
684.913835159
 30
0.0
 10
56.3950967781
 20
685.0428588128
 30
0.0
 10
51.0158682168
 20
685.1774927855
 30
0.0
 10
45.264527061
 20
685.3231183058
 30
0.0
 10
38.9883112772
 20
685.4815158473
 30
0.0
 10
32.0981074183
 20
685.6528689427
 30
0.0
 10
24.5784621737
 20
685.8377267656
 30
0.0
 10
16.4174944059
 20
686.0356364645
 30
0.0
 10
7.578537196
 20
686.2470584406
 30
0.0
 10
-1.9994254997
 20
686.4729011545
 30
0.0
 10
-12.3732073989
 20
686.7139293513
 30
0.0
 10
-19.5616240874
 20
686.8783884605
 30
0.0
 10
-23.2965860651
 20
686.9632232434
 30
0.0
  0
SPLINE
  5
328
100
AcDbEntity
  8
_SURFACE
100
AcDbSpline
 62
6
  6
CONTINUOUS
 70
0
 71
3
 72
17
 73
13
 74
0
 42
0.0000001
 43
0.0000001
 44
0.0000000001
 40
0.0
 40
0.0
 40
0.0
 40
0.0
 40
0.066227934
 40
0.1324455962
 40
0.1766032874
 40
0.2577566481
 40
0.3389376448
 40
0.5012626773
 40
0.663593474
 40
0.7447566343
 40
0.8259077496
 40
1.0
 40
1.0
 40
1.0
 40
1.0
 10
-56.5799787434
 20
1128.7968326416
 30
0.0
 10
-53.6048476682
 20
1128.8340141851
 30
0.0
 10
-47.6549613991
 20
1128.901645739
 30
0.0
 10
-39.7211838981
 20
1128.9740142546
 30
0.0
 10
-31.1167438396
 20
1129.0330691556
 30
0.0
 10
-21.8400096886
 20
1129.0860494596
 30
0.0
 10
-7.2545282308
 20
1129.1628311575
 30
0.0
 10
10.9779888164
 20
1129.2392196786
 30
0.0
 10
29.2097972664
 20
1129.2884077385
 30
0.0
 10
43.7948160581
 20
1129.3134875641
 30
0.0
 10
58.9082391133
 20
1129.3339936952
 30
0.0
 10
70.3753317567
 20
1129.339054987
 30
0.0
 10
78.1966191254
 20
1129.3403677845
 30
0.0
  0
SPLINE
  5
329
100
AcDbEntity
  8
_SURFACE
100
AcDbSpline
 62
6
  6
CONTINUOUS
 70
0
 71
3
 72
12
 73
8
 74
0
 42
0.0000001
 43
0.0000001
 44
0.0000000001
 40
0.0
 40
0.0
 40
0.0
 40
0.0
 40
0.2512000427
 40
0.4724934512
 40
0.6690066178
 40
0.8441939242
 40
1.0
 40
1.0
 40
1.0
 40
1.0
 10
78.2012360627
 20
1129.3413495057
 30
0.0
 10
78.2255899007
 20
1092.0731274846
 30
0.0
 10
78.2815163337
 20
1021.973851429
 30
0.0
 10
78.4459566375
 20
922.7188747776
 30
0.0
 10
78.5801908418
 20
834.7443331765
 30
0.0
 10
76.2917569555
 20
756.4784864405
 30
0.0
 10
79.5836267693
 20
707.3893262711
 30
0.0
 10
82.1326752406
 20
684.4147952662
 30
0.0
  0
SPLINE
  5
32A
100
AcDbEntity
  8
_SURFACE
100
AcDbSpline
 62
6
  6
CONTINUOUS
 70
0
 71
3
 72
15
 73
11
 74
0
 42
0.0000001
 43
0.0000001
 44
0.0000000001
 40
0.0
 40
0.0
 40
0.0
 40
0.0
 40
0.0730187594
 40
0.2093956134
 40
0.3441515001
 40
0.4780349558
 40
0.6115860662
 40
0.7446664277
 40
0.8770065136
 40
1.0
 40
1.0
 40
1.0
 40
1.0
 10
-29.8138403764
 20
687.1105317741
 30
0.0
 10
-30.8748031919
 20
697.8646528029
 30
0.0
 10
-33.9448323351
 20
728.7014938607
 30
0.0
 10
-39.1157979634
 20
779.3707241976
 30
0.0
 10
-45.3743459941
 20
838.983080064
 30
0.0
 10
-51.734522539
 20
898.1640696976
 30
0.0
 10
-58.1869283854
 20
957.0856307768
 30
0.0
 10
-64.7601816082
 20
1015.7640293381
 30
0.0
 10
-71.3275632624
 20
1072.8706156861
 30
0.0
 10
-75.7702024622
 20
1110.3964494775
 30
0.0
 10
-77.9441706653
 20
1128.4684440758
 30
0.0
  0
SPLINE
  5
32B
100
AcDbEntity
  8
_SURFACE
100
AcDbSpline
 62
6
  6
CONTINUOUS
 70
0
 71
3
 72
34
 73
30
 74
0
 42
0.0000001
 43
0.0000001
 44
0.0000000001
 40
0.0
 40
0.0
 40
0.0
 40
0.0
 40
0.0047001616
 40
0.0188452916
 40
0.0424584307
 40
0.0755038855
 40
0.1178629322
 40
0.1693009831
 40
0.2294629434
 40
0.2626640045
 40
0.2978467653
 40
0.334927052
 40
0.3541511706
 40
0.3738128003
 40
0.3939028601
 40
0.4144059295
 40
0.4565936173
 40
0.478251747
 40
0.5002642498
 40
0.5452946357
 40
0.6389332471
 40
0.662987287
 40
0.6872727228
 40
0.736443412
 40
0.8367181725
 40
0.9386204724
 40
0.9642392436
 40
0.9895328073
 40
1.0
 40
1.0
 40
1.0
 40
1.0
 10
-362.2813025015
 20
1117.5337631643
 30
0.0
 10
-361.8208385861
 20
1117.5579233959
 30
0.0
 10
-359.9745913612
 20
1117.6544535714
 30
0.0
 10
-355.8148606985
 20
1117.8693116028
 30
0.0
 10
-348.8778713224
 20
1118.2233566618
 30
0.0
 10
-339.1762495392
 20
1118.7110668052
 30
0.0
 10
-326.7478396458
 20
1119.3250237165
 30
0.0
 10
-311.6617126387
 20
1120.0546731879
 30
0.0
 10
-297.4721275505
 20
1120.72357917
 30
0.0
 10
-284.8748351519
 20
1121.3039709216
 30
0.0
 10
-274.539133917
 20
1121.7718793654
 30
0.0
 10
-265.5728475915
 20
1122.1698781499
 30
0.0
 10
-258.1274932337
 20
1122.4950843871
 30
0.0
 10
-252.3472082824
 20
1122.7446666304
 30
0.0
 10
-246.4414384512
 20
1122.9965518006
 30
0.0
 10
-238.327626638
 20
1123.3381663348
 30
0.0
 10
-230.0598187184
 20
1123.6790826133
 30
0.0
 10
-221.6437426839
 20
1124.0183324151
 30
0.0
 10
-212.9487903248
 20
1124.3631451881
 30
0.0
 10
-197.1972880775
 20
1124.9716013667
 30
0.0
 10
-181.244289016
 20
1125.5522018218
 30
0.0
 10
-167.3240556402
 20
1126.0290120803
 30
0.0
 10
-157.7633860942
 20
1126.3479020014
 30
0.0
 10
-140.7286404845
 20
1126.8919442029
 30
0.0
 10
-116.0810239329
 20
1127.6044207145
 30
0.0
 10
-93.7400605739
 20
1128.1418177581
 30
0.0
 10
-78.7518518087
 20
1128.455765962
 30
0.0
 10
-72.7313292856
 20
1128.5638117789
 30
0.0
 10
-69.2235610469
 20
1128.6199630283
 30
0.0
 10
-68.196827223
 20
1128.6358739346
 30
0.0
  0
SPLINE
  5
32C
100
AcDbEntity
  8
_SURFACE
100
AcDbSpline
 62
6
  6
CONTINUOUS
 70
0
 71
3
 72
13
 73
9
 74
0
 42
0.0000001
 43
0.0000001
 44
0.0000000001
 40
0.0
 40
0.0
 40
0.0
 40
0.0
 40
0.0725184218
 40
0.2062231566
 40
0.4731932693
 40
0.7399575481
 40
0.8732387348
 40
1.0
 40
1.0
 40
1.0
 40
1.0
 10
44.0859212132
 20
685.352886946
 30
0.0
 10
43.730482974
 20
696.0840102529
 30
0.0
 10
42.719662417
 20
726.6004770036
 30
0.0
 10
40.3991354865
 20
796.6225792149
 30
0.0
 10
37.1244316146
 20
895.388704293
 30
0.0
 10
33.850263409
 20
994.0921025237
 30
0.0
 10
31.2629560643
 20
1072.0476791076
 30
0.0
 10
29.9852855312
 20
1110.5281102396
 30
0.0
 10
29.3623172723
 20
1129.2859199816
 30
0.0
  0
SPLINE
  5
32D
100
AcDbEntity
  8
_SURFACE
100
AcDbSpline
 62
7
  6
CONTINUOUS
 70
0
 71
3
 72
10
 73
6
 74
0
 42
0.0000001
 43
0.0000001
 44
0.0000000001
 40
0.0
 40
0.0
 40
0.0
 40
0.0
 40
0.3475733951
 40
0.6805469806
 40
1.0
 40
1.0
 40
1.0
 40
1.0
 10
44.0856878572
 20
685.3528822013
 30
0.0
 10
47.6396566217
 20
685.263085697
 30
0.0
 10
54.59830301
 20
685.0869895918
 30
0.0
 10
64.8235146416
 20
684.8335366285
 30
0.0
 10
71.4947774816
 20
684.6707307933
 30
0.0
 10
74.7613003813
 20
684.5917369968
 30
0.0
  0
SPLINE
  5
32E
100
AcDbEntity
  8
_SURFACE
100
AcDbSpline
 62
6
  6
CONTINUOUS
 70
0
 71
3
 72
10
 73
6
 74
0
 42
0.0000001
 43
0.0000001
 44
0.0000000001
 40
0.0
 40
0.0
 40
0.0
 40
0.0
 40
0.3274503089
 40
0.6607439897
 40
1.0
 40
1.0
 40
1.0
 40
1.0
 10
74.7613003813
 20
684.5917369968
 30
0.0
 10
74.6881246619
 20
733.1358798357
 30
0.0
 10
74.4796999933
 20
831.0903897257
 30
0.0
 10
73.8866252762
 20
979.3382869149
 30
0.0
 10
73.5163863274
 20
1079.0424482943
 30
0.0
 10
73.3188168745
 20
1129.3364422826
 30
0.0
  0
SPLINE
  5
32F
100
AcDbEntity
  8
_SURFACE
100
AcDbSpline
 62
6
  6
CONTINUOUS
 70
0
 71
3
 72
18
 73
14
 74
0
 42
0.0000001
 43
0.0000001
 44
0.0000000001
 40
0.0
 40
0.0
 40
0.0
 40
0.0
 40
0.1110786903
 40
0.2222044221
 40
0.3333050089
 40
0.4444349958
 40
0.5555309646
 40
0.666630407
 40
0.777737979
 40
0.8333056
 40
0.8888467928
 40
0.9444080372
 40
1.0
 40
1.0
 40
1.0
 40
1.0
 10
29.3610852371
 20
1129.3269014986
 30
0.0
 10
30.9886546502
 20
1129.3263901106
 30
0.0
 10
34.2444827648
 20
1129.3254198146
 30
0.0
 10
39.1282011767
 20
1129.3241025279
 30
0.0
 10
44.0126712438
 20
1129.3229319919
 30
0.0
 10
48.8967052445
 20
1129.321908166
 30
0.0
 10
53.7807225054
 20
1129.3210336272
 30
0.0
 10
58.6644113601
 20
1129.3203116941
 30
0.0
 10
62.7344766319
 20
1129.3198389955
 30
0.0
 10
65.9904801742
 20
1129.3195396721
 30
0.0
 10
68.4325966666
 20
1129.3193546573
 30
0.0
 10
70.8750698266
 20
1129.3192098264
 30
0.0
 10
72.5037311704
 20
1129.3191399109
 30
0.0
 10
73.3182868918
 20
1129.319112046
 30
0.0
  0
SPLINE
  5
330
100
AcDbEntity
  8
_SURFACE
100
AcDbSpline
 62
6
  6
CONTINUOUS
 70
0
 71
3
 72
9
 73
5
 74
0
 42
0.0000001
 43
0.0000001
 44
0.0000000001
 40
0.0
 40
0.0
 40
0.0
 40
0.0
 40
0.5011975879
 40
1.0
 40
1.0
 40
1.0
 40
1.0
 10
467.1996345132
 20
1129.3405991839
 30
0.0
 10
482.0684785482
 20
1129.3409717322
 30
0.0
 10
511.73510838
 20
1129.338414367
 30
0.0
 10
541.4017439641
 20
1129.3485647961
 30
0.0
 10
556.1995282799
 20
1129.339261747
 30
0.0
  0
SPLINE
  5
331
100
AcDbEntity
  8
_SURFACE
100
AcDbSpline
 62
6
  6
CONTINUOUS
 70
0
 71
3
 72
9
 73
5
 74
0
 42
0.0000001
 43
0.0000001
 44
0.0000000001
 40
0.0
 40
0.0
 40
0.0
 40
0.0
 40
0.5017191476
 40
1.0
 40
1.0
 40
1.0
 40
1.0
 10
73.3188168745
 20
1129.3364422826
 30
0.0
 10
89.019411082
 20
1129.3513780055
 30
0.0
 10
120.3130277715
 20
1129.328858016
 30
0.0
 10
151.6066298961
 20
1129.3414346434
 30
0.0
 10
167.1996345225
 20
1129.3424420553
 30
0.0
  0
SPLINE
  5
332
100
AcDbEntity
  8
_SURFACE
100
AcDbSpline
 62
7
  6
CONTINUOUS
 70
0
 71
3
 72
23
 73
19
 74
0
 42
0.0000001
 43
0.0000001
 44
0.0000000001
 40
0.0
 40
0.0
 40
0.0
 40
0.0
 40
0.0588106903
 40
0.1178545888
 40
0.17685794
 40
0.235555819
 40
0.2949479718
 40
0.3579006305
 40
0.4275555779
 40
0.5035473193
 40
0.5792022703
 40
0.6479739359
 40
0.7098670403
 40
0.7681687835
 40
0.8258749796
 40
0.8839820334
 40
0.9421426058
 40
1.0
 40
1.0
 40
1.0
 40
1.0
 10
74.7613003813
 20
684.5917369968
 30
0.0
 10
84.1207424837
 20
684.3651312152
 30
0.0
 10
102.8770744636
 20
683.9246408189
 30
0.0
 10
131.0247737911
 20
683.3120061151
 30
0.0
 10
159.1557095183
 20
682.7568188835
 30
0.0
 10
187.3433182125
 20
682.267213655
 30
0.0
 10
216.1608051155
 20
681.8457031398
 30
0.0
 10
246.7236880316
 20
681.4974432209
 30
0.0
 10
279.9301857598
 20
681.2490550462
 30
0.0
 10
315.1596225056
 20
681.150292818
 30
0.0
 10
350.2484974646
 20
681.2289068626
 30
0.0
 10
383.0922403066
 20
681.4558705098
 30
0.0
 10
413.1724769491
 20
681.7813985295
 30
0.0
 10
441.490121206
 20
682.179642625
 30
0.0
 10
469.2039212386
 20
682.6460971439
 30
0.0
 10
496.8940435163
 20
683.1787423139
 30
0.0
 10
524.6070594122
 20
683.7692958627
 30
0.0
 10
543.0712741684
 20
684.1953091428
 30
0.0
 10
552.2790903392
 20
684.4146352143
 30
0.0
  0
SPLINE
  5
333
100
AcDbEntity
  8
_SURFACE
100
AcDbSpline
 62
6
  6
CONTINUOUS
 70
0
 71
3
 72
19
 73
15
 74
0
 42
0.0000001
 43
0.0000001
 44
0.0000000001
 40
0.0
 40
0.0
 40
0.0
 40
0.0
 40
0.1792152465
 40
0.3364985238
 40
0.4719528611
 40
0.5866054005
 40
0.6820065414
 40
0.761300671
 40
0.8271856851
 40
0.8816241224
 40
0.9263471787
 40
0.9622790343
 40
0.9875304466
 40
1.0
 40
1.0
 40
1.0
 40
1.0
 10
721.157875128
 20
1128.28551054
 30
0.0
 10
721.1625068517
 20
1128.9955907776
 30
0.0
 10
721.2486410464
 20
1130.3302434191
 30
0.0
 10
721.6065661592
 20
1132.1708448864
 30
0.0
 10
722.131645226
 20
1133.7036704365
 30
0.0
 10
722.7781105736
 20
1134.9173924434
 30
0.0
 10
723.4827644434
 20
1135.8292699939
 30
0.0
 10
724.1984952298
 20
1136.4675199384
 30
0.0
 10
724.8717872982
 20
1136.886412231
 30
0.0
 10
725.4498526077
 20
1137.1920303588
 30
0.0
 10
725.9237063682
 20
1137.4410448136
 30
0.0
 10
726.2879053588
 20
1137.6498660029
 30
0.0
 10
726.53355537
 20
1137.8074943361
 30
0.0
 10
726.6559125568
 20
1137.8935725666
 30
0.0
 10
726.6946228352
 20
1137.9242745595
 30
0.0
  0
SPLINE
  5
334
100
AcDbEntity
  8
_SURFACE
100
AcDbSpline
 62
7
  6
CONTINUOUS
 70
0
 71
3
 72
10
 73
6
 74
0
 42
0.0000001
 43
0.0000001
 44
0.0000000001
 40
0.0
 40
0.0
 40
0.0
 40
0.0
 40
0.3163727175
 40
0.6481412589
 40
1.0
 40
1.0
 40
1.0
 40
1.0
 10
723.7560961201
 20
1137.9043215356
 30
0.0
 10
724.0659869547
 20
1137.9062848275
 30
0.0
 10
724.7008431731
 20
1137.9111715423
 30
0.0
 10
725.6803509238
 20
1137.9180070412
 30
0.0
 10
726.3499743405
 20
1137.9218915842
 30
0.0
 10
726.6946228352
 20
1137.9242745595
 30
0.0
  0
SPLINE
  5
335
100
AcDbEntity
  8
_SURFACE
100
AcDbSpline
 62
7
  6
CONTINUOUS
 70
0
 71
3
 72
10
 73
6
 74
0
 42
0.0000001
 43
0.0000001
 44
0.0000000001
 40
0.0
 40
0.0
 40
0.0
 40
0.0
 40
0.3405197696
 40
0.6739541804
 40
1.0
 40
1.0
 40
1.0
 40
1.0
 10
467.1996917793
 20
1137.7638302089
 30
0.0
 10
489.901149514
 20
1137.7630595349
 30
0.0
 10
534.8317047238
 20
1137.7606655707
 30
0.0
 10
601.4987821134
 20
1137.7589404282
 30
0.0
 10
645.4644003371
 20
1137.7477860475
 30
0.0
 10
667.2009214541
 20
1137.7423176692
 30
0.0
  0
SPLINE
  5
336
100
AcDbEntity
  8
_SURFACE
100
AcDbSpline
 62
7
  6
CONTINUOUS
 70
0
 71
3
 72
10
 73
6
 74
0
 42
0.0000001
 43
0.0000001
 44
0.0000000001
 40
0.0
 40
0.0
 40
0.0
 40
0.0
 40
0.3268569815
 40
0.6603131467
 40
1.0
 40
1.0
 40
1.0
 40
1.0
 10
-32.8002994472
 20
1137.74308092
 30
0.0
 10
-11.0098355577
 20
1137.7488930376
 30
0.0
 10
33.0110383682
 20
1137.7593182298
 30
0.0
 10
99.6777028845
 20
1137.7611247457
 30
0.0
 10
144.5539024438
 20
1137.7633742183
 30
0.0
 10
167.1996918545
 20
1137.7641059186
 30
0.0
  0
SPLINE
  5
337
100
AcDbEntity
  8
_SURFACE
100
AcDbSpline
 62
6
  6
CONTINUOUS
 70
0
 71
3
 72
11
 73
7
 74
0
 42
0.0000001
 43
0.0000001
 44
0.0000000001
 40
0.0
 40
0.0
 40
0.0
 40
0.0
 40
0.5049115206
 40
0.794847346
 40
0.9376381933
 40
1.0
 40
1.0
 40
1.0
 40
1.0
 10
-56.5875435087
 20
1128.7967474615
 30
0.0
 10
-56.5841150128
 20
1130.4052918746
 30
0.0
 10
-56.7375076606
 20
1132.9330092087
 30
0.0
 10
-57.6123895597
 20
1135.8757658246
 30
0.0
 10
-58.5999544287
 20
1137.1049310182
 30
0.0
 10
-59.0632670996
 20
1137.5902415878
 30
0.0
 10
-59.1381698907
 20
1137.7742532143
 30
0.0
  0
SPLINE
  5
338
100
AcDbEntity
  8
_SURFACE
100
AcDbSpline
 62
7
  6
CONTINUOUS
 70
0
 71
3
 72
22
 73
18
 74
0
 42
0.0000001
 43
0.0000001
 44
0.0000000001
 40
0.0
 40
0.0
 40
0.0
 40
0.0
 40
0.0576141567
 40
0.1200270081
 40
0.1876476312
 40
0.2606584762
 40
0.3402538343
 40
0.425879173
 40
0.5173818014
 40
0.6129930296
 40
0.7058835899
 40
0.7906819228
 40
0.8634806943
 40
0.9220760054
 40
0.9648274341
 40
0.9911236866
 40
1.0
 40
1.0
 40
1.0
 40
1.0
 10
-59.1381698907
 20
1137.7742532143
 30
0.0
 10
-65.796850577
 20
1137.7938912096
 30
0.0
 10
-79.6687332607
 20
1137.8589813159
 30
0.0
 10
-101.3556807533
 20
1137.9678400549
 30
0.0
 10
-124.821946079
 20
1138.1086633122
 30
0.0
 10
-150.273926983
 20
1138.2770976131
 30
0.0
 10
-177.8066442706
 20
1138.4736689522
 30
0.0
 10
-207.4764395086
 20
1138.6909598446
 30
0.0
 10
-238.9972067944
 20
1138.9217702398
 30
0.0
 10
-271.3576403037
 20
1139.1564649656
 30
0.0
 10
-302.9433112721
 20
1139.3770826032
 30
0.0
 10
-331.8925791226
 20
1139.5699098689
 30
0.0
 10
-356.878329951
 20
1139.7300610055
 30
0.0
 10
-377.0046678678
 20
1139.8551971311
 30
0.0
 10
-391.7566242857
 20
1139.9459851469
 30
0.0
 10
-400.7624605017
 20
1140.0007584515
 30
0.0
 10
-404.8274235492
 20
1140.0259170682
 30
0.0
 10
-405.8532764058
 20
1140.0323065393
 30
0.0
  0
SPLINE
  5
339
100
AcDbEntity
  8
_SURFACE
100
AcDbSpline
 62
6
  6
CONTINUOUS
 70
0
 71
3
 72
19
 73
15
 74
0
 42
0.0000001
 43
0.0000001
 44
0.0000000001
 40
0.0
 40
0.0
 40
0.0
 40
0.0
 40
0.1757442575
 40
0.3321889118
 40
0.4683281294
 40
0.5838687872
 40
0.6791712456
 40
0.7563899463
 40
0.8185936714
 40
0.8686223938
 40
0.9093421921
 40
0.9434799437
 40
0.971269895
 40
1.0
 40
1.0
 40
1.0
 40
1.0
 10
696.4387536061
 20
1128.7242516586
 30
0.0
 10
696.4371344668
 20
1129.3066096523
 30
0.0
 10
696.4701674757
 20
1130.4079683174
 30
0.0
 10
696.6289097409
 20
1131.9530951895
 30
0.0
 10
696.8722280374
 20
1133.2850649998
 30
0.0
 10
697.1827486986
 20
1134.3941334645
 30
0.0
 10
697.536753503
 20
1135.2826899488
 30
0.0
 10
697.9082488001
 20
1135.9684546236
 30
0.0
 10
698.2794643463
 20
1136.4770153928
 30
0.0
 10
698.6269664905
 20
1136.8473374586
 30
0.0
 10
698.9322854018
 20
1137.1263695482
 30
0.0
 10
699.1836099474
 20
1137.3567558185
 30
0.0
 10
699.3861433797
 20
1137.5765139125
 30
0.0
 10
699.5260765579
 20
1137.7075733093
 30
0.0
 10
699.5710564252
 20
1137.791479829
 30
0.0
  0
SPLINE
  5
33A
100
AcDbEntity
  8
_SURFACE
100
AcDbSpline
 62
7
  6
CONTINUOUS
 70
0
 71
3
 72
13
 73
9
 74
0
 42
0.0000001
 43
0.0000001
 44
0.0000000001
 40
0.0
 40
0.0
 40
0.0
 40
0.0
 40
0.2776392105
 40
0.5553606824
 40
0.6942128259
 40
0.8329735693
 40
0.9719788369
 40
1.0
 40
1.0
 40
1.0
 40
1.0
 10
699.5712320931
 20
1137.7917092288
 30
0.0
 10
700.8774249563
 20
1137.7971837071
 30
0.0
 10
703.4901965872
 20
1137.8083996464
 30
0.0
 10
706.7562146989
 20
1137.823046466
 30
0.0
 10
709.3688586014
 20
1137.8351296223
 30
0.0
 10
711.3288929573
 20
1137.8443714468
 30
0.0
 10
712.767507922
 20
1137.8512834929
 30
0.0
 10
713.5533049798
 20
1137.8550999577
 30
0.0
 10
713.685134095
 20
1137.8557413852
 30
0.0
  0
SPLINE
  5
33B
100
AcDbEntity
  8
_SURFACE
100
AcDbSpline
 62
7
  6
CONTINUOUS
 70
0
 71
3
 72
10
 73
6
 74
0
 42
0.0000001
 43
0.0000001
 44
0.0000000001
 40
0.0
 40
0.0
 40
0.0
 40
0.0
 40
0.3344344855
 40
0.6670415558
 40
1.0
 40
1.0
 40
1.0
 40
1.0
 10
713.684922775
 20
1137.854955203
 30
0.0
 10
713.9361255198
 20
1137.8559871426
 30
0.0
 10
714.4371578497
 20
1137.8581784384
 30
0.0
 10
715.1882821382
 20
1137.8618579901
 30
0.0
 10
715.6882027816
 20
1137.8646493621
 30
0.0
 10
715.9382946267
 20
1137.8661185839
 30
0.0
  0
SPLINE
  5
33C
100
AcDbEntity
  8
_SURFACE
100
AcDbSpline
 62
7
  6
CONTINUOUS
 70
0
 71
3
 72
10
 73
6
 74
0
 42
0.0000001
 43
0.0000001
 44
0.0000000001
 40
0.0
 40
0.0
 40
0.0
 40
0.0
 40
0.3409606841
 40
0.6743965609
 40
1.0
 40
1.0
 40
1.0
 40
1.0
 10
715.9382946267
 20
1137.8661185839
 30
0.0
 10
719.8930129293
 20
1137.8852655901
 30
0.0
 10
727.715160973
 20
1137.9252465806
 30
0.0
 10
739.3138730968
 20
1137.9891185916
 30
0.0
 10
746.9578564023
 20
1138.0353951067
 30
0.0
 10
750.7344194919
 20
1138.0591333725
 30
0.0
  0
SPLINE
  5
33D
100
AcDbEntity
  8
_SURFACE
100
AcDbSpline
 62
7
  6
CONTINUOUS
 70
0
 71
3
 72
11
 73
7
 74
0
 42
0.0000001
 43
0.0000001
 44
0.0000000001
 40
0.0
 40
0.0
 40
0.0
 40
0.0
 40
0.3075886012
 40
0.5691425513
 40
0.7994147108
 40
1.0
 40
1.0
 40
1.0
 40
1.0
 10
750.7344194919
 20
1138.0591333725
 30
0.0
 10
770.9805115631
 20
1138.182932336
 30
0.0
 10
808.442410724
 20
1138.4429807722
 30
0.0
 10
861.0610162207
 20
1138.8320655459
 30
0.0
 10
906.6365678874
 20
1139.1618836206
 30
0.0
 10
934.9963051854
 20
1139.3590864336
 30
0.0
 10
948.1991723072
 20
1139.4483066619
 30
0.0
  0
SPLINE
  5
33E
100
AcDbEntity
  8
_SURFACE
100
AcDbSpline
 62
7
  6
CONTINUOUS
 70
0
 71
3
 72
17
 73
13
 74
0
 42
0.0000001
 43
0.0000001
 44
0.0000000001
 40
0.0
 40
0.0
 40
0.0
 40
0.0
 40
0.1715775577
 40
0.3085266795
 40
0.4089944269
 40
0.4697867097
 40
0.4885722593
 40
0.5128171151
 40
0.5791711496
 40
0.6845849434
 40
0.8265811295
 40
1.0
 40
1.0
 40
1.0
 40
1.0
 10
948.1991723072
 20
1139.4483066619
 30
0.0
 10
958.9694507547
 20
1139.5192394686
 30
0.0
 10
978.5266372974
 20
1139.645165462
 30
0.0
 10
1003.5450913135
 20
1139.8040553427
 30
0.0
 10
1023.7615491951
 20
1139.9297426483
 30
0.0
 10
1032.4244619419
 20
1139.9792519306
 30
0.0
 10
1042.3876854467
 20
1140.0435166714
 30
0.0
 10
1030.7655148795
 20
1139.969418986
 30
0.0
 10
1022.0252131357
 20
1139.9182867197
 30
0.0
 10
1000.4109248298
 20
1139.7853599807
 30
0.0
 10
974.812734299
 20
1139.6205294477
 30
0.0
 10
954.7809750609
 20
1139.4917899459
 30
0.0
 10
943.8951194793
 20
1139.4192088651
 30
0.0
  0
SPLINE
  5
33F
100
AcDbEntity
  8
_SURFACE
100
AcDbSpline
 62
7
  6
CONTINUOUS
 70
0
 71
3
 72
11
 73
7
 74
0
 42
0.0000001
 43
0.0000001
 44
0.0000000001
 40
0.0
 40
0.0
 40
0.0
 40
0.0
 40
0.2049256134
 40
0.4356222259
 40
0.6968479826
 40
1.0
 40
1.0
 40
1.0
 40
1.0
 10
943.8951194793
 20
1139.4192088651
 30
0.0
 10
931.4148913129
 20
1139.3327571225
 30
0.0
 10
904.8849749425
 20
1139.1451941557
 30
0.0
 10
862.4461491921
 20
1138.8377845741
 30
0.0
 10
814.0252711391
 20
1138.4809475552
 30
0.0
 10
779.6539612325
 20
1138.2409406638
 30
0.0
 10
761.1915492403
 20
1138.1239057067
 30
0.0
  0
SPLINE
  5
340
100
AcDbEntity
  8
_SURFACE
100
AcDbSpline
 62
7
  6
CONTINUOUS
 70
0
 71
3
 72
8
 73
4
 74
0
 42
0.0000001
 43
0.0000001
 44
0.0000000001
 40
0.0
 40
0.0
 40
0.0
 40
0.0
 40
1.0
 40
1.0
 40
1.0
 40
1.0
 10
761.1915492403
 20
1138.1239057067
 30
0.0
 10
757.7058500081
 20
1138.1006352836
 30
0.0
 10
754.220144832
 20
1138.0782309394
 30
0.0
 10
750.7344332329
 20
1138.0568890897
 30
0.0
  0
SPLINE
  5
341
100
AcDbEntity
  8
_SURFACE
100
AcDbSpline
 62
6
  6
CONTINUOUS
 70
0
 71
3
 72
12
 73
8
 74
0
 42
0.0000001
 43
0.0000001
 44
0.0000000001
 40
0.0
 40
0.0
 40
0.0
 40
0.0
 40
0.4233643394
 40
0.7065925038
 40
0.8695408505
 40
0.9615199328
 40
1.0
 40
1.0
 40
1.0
 40
1.0
 10
-56.5799786713
 20
1128.7968514782
 30
0.0
 10
-56.5743244143
 20
1130.146158122
 30
0.0
 10
-56.7447800699
 20
1132.4127237724
 30
0.0
 10
-57.3474096755
 20
1135.1006109558
 30
0.0
 10
-58.3523489117
 20
1136.6526575229
 30
0.0
 10
-58.8128278433
 20
1137.2384480808
 30
0.0
 10
-59.2599546194
 20
1137.6898121723
 30
0.0
 10
-59.1711211331
 20
1137.774366592
 30
0.0
  0
SPLINE
  5
342
100
AcDbEntity
  8
_SURFACE
100
AcDbSpline
 62
7
  6
CONTINUOUS
 70
0
 71
3
 72
10
 73
6
 74
0
 42
0.0000001
 43
0.0000001
 44
0.0000000001
 40
0.0
 40
0.0
 40
0.0
 40
0.0
 40
0.3171682606
 40
0.6505565055
 40
1.0
 40
1.0
 40
1.0
 40
1.0
 10
667.1663951546
 20
1137.7429944633
 30
0.0
 10
593.1639299764
 20
1137.7562488071
 30
0.0
 10
441.3745108842
 20
1137.7679317488
 30
0.0
 10
208.0520908658
 20
1137.7658002824
 30
0.0
 10
48.732134611
 20
1137.7621513321
 30
0.0
 10
-32.8008652054
 20
1137.742957612
 30
0.0
  0
SPLINE
  5
343
100
AcDbEntity
  8
_SURFACE
100
AcDbSpline
 62
6
  6
CONTINUOUS
 70
0
 71
3
 72
13
 73
9
 74
0
 42
0.0000001
 43
0.0000001
 44
0.0000000001
 40
0.0
 40
0.0
 40
0.0
 40
0.0
 40
0.2499967684
 40
0.3749951506
 40
0.4999935328
 40
0.6249919149
 40
0.7499902971
 40
1.0
 40
1.0
 40
1.0
 40
1.0
 10
-362.2814234396
 20
1117.5338942533
 30
0.0
 10
-364.9672375301
 20
1120.4451677561
 30
0.0
 10
-369.7249589781
 20
1124.754524971
 30
0.0
 10
-376.9837438813
 20
1129.8388423578
 30
0.0
 10
-382.7435408742
 20
1133.2054662255
 30
0.0
 10
-388.6732895117
 20
1136.0137030953
 30
0.0
 10
-396.6044303421
 20
1138.8825511954
 30
0.0
 10
-402.337745222
 20
1139.9095951337
 30
0.0
 10
-405.8532768408
 20
1140.0323065544
 30
0.0
  0
SPLINE
  5
344
100
AcDbEntity
  8
_SURFACE
100
AcDbSpline
 62
7
  6
CONTINUOUS
 70
0
 71
3
 72
20
 73
16
 74
0
 42
0.0000001
 43
0.0000001
 44
0.0000000001
 40
0.0
 40
0.0
 40
0.0
 40
0.0
 40
0.0989542916
 40
0.188679701
 40
0.2712221772
 40
0.3484325866
 40
0.4222805222
 40
0.4947771124
 40
0.5677143678
 40
0.6406572628
 40
0.7128921768
 40
0.7843925839
 40
0.8556597918
 40
0.9268829204
 40
1.0
 40
1.0
 40
1.0
 40
1.0
 10
-20.6888469896
 20
686.7453549142
 30
0.0
 10
-17.2950096039
 20
686.6671267127
 30
0.0
 10
-10.8238818742
 20
686.5169276927
 30
0.0
 10
-1.5218755973
 20
686.2979419468
 30
0.0
 10
7.0343242479
 20
686.0937874093
 30
0.0
 10
15.0459236386
 20
685.900097199
 30
0.0
 10
22.7129297384
 20
685.7123323261
 30
0.0
 10
30.2333232291
 20
685.5256768796
 30
0.0
 10
37.7226210045
 20
685.337512104
 30
0.0
 10
45.2028639485
 20
685.1463965319
 30
0.0
 10
52.6338041317
 20
684.9555222737
 30
0.0
 10
60.0073501038
 20
684.7689899823
 30
0.0
 10
67.3462440639
 20
684.5852191413
 30
0.0
 10
74.7406401309
 20
684.4023778039
 30
0.0
 10
79.6909201553
 20
684.2815598676
 30
0.0
 10
82.198550469
 20
684.2208922513
 30
0.0
  0
SPLINE
  5
345
100
AcDbEntity
  8
_SURFACE
100
AcDbSpline
 62
7
  6
CONTINUOUS
 70
0
 71
3
 72
8
 73
4
 74
0
 42
0.0000001
 43
0.0000001
 44
0.0000000001
 40
0.0
 40
0.0
 40
0.0
 40
0.0
 40
1.0
 40
1.0
 40
1.0
 40
1.0
 10
558.5815080302
 20
684.3759267927
 30
0.0
 10
556.4589357266
 20
684.3238502508
 30
0.0
 10
554.3363547287
 20
684.2721178131
 30
0.0
 10
552.2137648471
 20
684.2207453986
 30
0.0
  0
SPLINE
  5
346
100
AcDbEntity
  8
_SURFACE
100
AcDbSpline
 62
7
  6
CONTINUOUS
 70
0
 71
3
 72
20
 73
16
 74
0
 42
0.0000001
 43
0.0000001
 44
0.0000000001
 40
0.0
 40
0.0
 40
0.0
 40
0.0
 40
0.0989739619
 40
0.1887206267
 40
0.2712759602
 40
0.3484922634
 40
0.4223406264
 40
0.4948340395
 40
0.5677671017
 40
0.6407060564
 40
0.7129365643
 40
0.7844314207
 40
0.8556936439
 40
0.9269092415
 40
1.0
 40
1.0
 40
1.0
 40
1.0
 10
655.1132228159
 20
686.7452801407
 30
0.0
 10
651.7183128695
 20
686.6670360201
 30
0.0
 10
645.2450227389
 20
686.5168044393
 30
0.0
 10
635.9400812142
 20
686.2977735556
 30
0.0
 10
627.3815061089
 20
686.0935839773
 30
0.0
 10
619.3683097084
 20
685.8998752264
 30
0.0
 10
611.7002969755
 20
685.7121048267
 30
0.0
 10
604.1792600057
 20
685.5254523715
 30
0.0
 10
596.6894722327
 20
685.3372929576
 30
0.0
 10
589.2087823966
 20
685.1461874187
 30
0.0
 10
581.7774479679
 20
684.9553122191
 30
0.0
 10
574.4035502464
 20
684.7687824356
 30
0.0
 10
567.0644158038
 20
684.5850163888
 30
0.0
 10
559.6704851869
 20
684.4021970179
 30
0.0
 10
554.7207860983
 20
684.2814006769
 30
0.0
 10
552.2137647126
 20
684.2207509575
 30
0.0
  0
SPLINE
  5
347
100
AcDbEntity
  8
_SURFACE
100
AcDbSpline
 62
7
  6
CONTINUOUS
 70
0
 71
3
 72
18
 73
14
 74
0
 42
0.0000001
 43
0.0000001
 44
0.0000000001
 40
0.0
 40
0.0
 40
0.0
 40
0.0
 40
0.10528097
 40
0.1991633836
 40
0.2869223886
 40
0.3727103443
 40
0.4585714628
 40
0.544781374
 40
0.6307006972
 40
0.7163777777
 40
0.8036254745
 40
0.8963771428
 40
1.0
 40
1.0
 40
1.0
 40
1.0
 10
75.8180963256
 20
684.3763872749
 30
0.0
 10
92.5336303131
 20
683.9662455023
 30
0.0
 10
124.1559615477
 20
683.2307378051
 30
0.0
 10
169.7155584277
 20
682.3212433241
 30
0.0
 10
212.1829303367
 20
681.6387867424
 30
0.0
 10
253.3791848615
 20
681.165975651
 30
0.0
 10
294.3313982515
 20
680.9135922624
 30
0.0
 10
335.305274955
 20
680.8994505488
 30
0.0
 10
376.2492855578
 20
681.1247998588
 30
0.0
 10
417.356250106
 20
681.5725306941
 30
0.0
 10
459.5456003796
 20
682.2292786726
 30
0.0
 10
504.5815585457
 20
683.1089575033
 30
0.0
 10
535.7613559198
 20
683.8225897894
 30
0.0
 10
552.2137647126
 20
684.2207509575
 30
0.0
  0
SPLINE
  5
348
100
AcDbEntity
  8
_SURFACE
100
AcDbSpline
 62
7
  6
CONTINUOUS
 70
0
 71
3
 72
14
 73
10
 74
0
 42
0.0000001
 43
0.0000001
 44
0.0000000001
 40
0.0
 40
0.0
 40
0.0
 40
0.0
 40
0.1323852317
 40
0.2696623346
 40
0.4082612248
 40
0.5486703082
 40
0.6919815259
 40
0.8417739644
 40
1.0
 40
1.0
 40
1.0
 40
1.0
 10
75.8180963256
 20
684.3763872749
 30
0.0
 10
74.4252708998
 20
684.4105361283
 30
0.0
 10
71.5881582889
 20
684.4803257328
 30
0.0
 10
67.292869707
 20
684.5868144806
 30
0.0
 10
62.9131820716
 20
684.6961734213
 30
0.0
 10
58.4700299259
 20
684.8079047665
 30
0.0
 10
53.9091333821
 20
684.9234338016
 30
0.0
 10
49.1608066815
 20
685.0444306939
 30
0.0
 10
45.9202437944
 20
685.1278802498
 30
0.0
 10
44.2555935813
 20
685.1705448538
 30
0.0
  0
ENDSEC
  0
SECTION
  2
OBJECTS
  0
DICTIONARY
  5
C
100
AcDbDictionary
280
0
281
1
  3
ACAD_GROUP
350
D
  3
ACAD_MLINESTYLE
350
17
  3
ACAD_LAYOUT
350
1A
  3
ACAD_PLOTSETTINGS
350
19
  3
ACAD_PLOTSTYLENAME
350
E
  0
DICTIONARY
  5
D
102
{ACAD_REACTORS
330
C
102
}
100
AcDbDictionary
280
0
281
1
  0
ACDBDICTIONARYWDFLT
  5
E
102
{ACAD_REACTORS
330
C
102
}
100
AcDbDictionary
281
1
  3
Normal
350
F
100
AcDbDictionaryWithDefault
340
F
  0
DICTIONARY
  5
17
102
{ACAD_REACTORS
330
C
102
}
100
AcDbDictionary
280
0
281
1
  3
Standard
350
18
  0
DICTIONARY
  5
19
102
{ACAD_REACTORS
330
C
102
}
100
AcDbDictionary
281
1
  0
DICTIONARY
  5
1A
102
{ACAD_REACTORS
330
C
102
}
100
AcDbDictionary
281
1
  3
Model
350
349
  3
Layout1
350
34A
  0
ACDBPLACEHOLDER
  5
F
102
{ACAD_REACTORS
330
E
102
}
  0
MLINESTYLE
  5
18
102
{ACAD_REACTORS
330
17
102
}
100
AcDbMlineStyle
  2
STANDARD
 70
0
  3

 62
256
 51
90.0
 52
90.0
 71
2
 49
0.5
 62
256
  6
BYLAYER
 49
-0.5
 62
256
  6
BYLAYER
  0
LAYOUT
  5
349
102
{ACAD_REACTORS
330
1A
102
}
100
AcDbPlotSettings
  1

  2
none_device
  4
ANSI_C_(22.00_x_17.00_Inches)
  6

 40
0.0
 41
0.0
 42
0.0
 43
0.0
 44
558.8
 45
431.8
 46
0.0
 47
0.0
 48
0.0
 49
0.0
140
0.0
141
0.0
142
1.0
143
1.0
 70
1024
 72
1
 73
0
 74
0
  7

 75
0
147
1.0
148
0.0
149
0.0
100
AcDbLayout
  1
Model
 70
0
 71
0
 10
0.0
 20
0.0
 11
558.8
 21
431.8
 12
0.0
 22
0.0
 32
0.0
 14
0.0
 24
0.0
 34
0.0
 15
0.0
 25
0.0
 35
0.0
146
0.0
 13
0.0
 23
0.0
 33
0.0
 16
1.0
 26
0.0
 36
0.0
 17
0.0
 27
1.0
 37
0.0
 76
0
330
207
345
0
346
0
  0
LAYOUT
  5
34A
102
{ACAD_REACTORS
330
1A
102
}
100
AcDbPlotSettings
  1

  2
none_device
  4
ANSI_C_(22.00_x_17.00_Inches)
  6

 40
0.0
 41
0.0
 42
0.0
 43
0.0
 44
558.8
 45
431.8
 46
0.0
 47
0.0
 48
0.0
 49
0.0
140
0.0
141
0.0
142
1.0
143
1.0
 70
0
 72
1
 73
0
 74
0
  7

 75
0
147
1.0
148
0.0
149
0.0
100
AcDbLayout
  1
Layout1
 70
0
 71
1
 10
0.0
 20
0.0
 11
558.8
 21
431.8
 12
0.0
 22
0.0
 32
0.0
 14
0.0
 24
0.0
 34
0.0
 15
0.0
 25
0.0
 35
0.0
146
0.0
 13
0.0
 23
0.0
 33
0.0
 16
1.0
 26
0.0
 36
0.0
 17
0.0
 27
1.0
 37
0.0
 76
0
330
208
345
0
346
0
  0
ENDSEC
  0
EOF
