  0
SECTION
  2
HEADER
  9
$ACADVER
  1
AC1009
  9
$INSBASE
 10
124.5994915123824995
 20
-86.4424689353245697
 30
0.0
  9
$EXTMIN
 10
95.0698967172457259
 20
-86.4515452240242581
 30
-0.0000000349181948
  9
$EXTMAX
 10
154.1372702369598073
 20
-63.009552491459111
 30
0.0000000814935746
  9
$LIMMIN
 10
0.0
 20
0.0
  9
$LIMMAX
 10
11.6929133858000007
 20
8.2677165353999982
  9
$ORTHOMODE
 70
     1
  9
$REGENMODE
 70
     1
  9
$FILLMODE
 70
     1
  9
$QTEXTMODE
 70
     0
  9
$MIRRTEXT
 70
     0
  9
$DRAGMODE
 70
     2
  9
$LTSCALE
 40
0.6431102362
  9
$OSMODE
 70
  2047
  9
$ATTMODE
 70
     1
  9
$TEXTSIZE
 40
0.2
  9
$TRACEWID
 40
0.05
  9
$TEXTSTYLE
  7
STANDARD
  9
$CLAYER
  8
0
  9
$CELTYPE
  6
BYLAYER
  9
$CECOLOR
 62
   256
  9
$DIMSCALE
 40
1.0
  9
$DIMASZ
 40
0.1875
  9
$DIMEXO
 40
0.0625
  9
$DIMDLI
 40
0.4443307087
  9
$DIMRND
 40
0.0
  9
$DIMDLE
 40
0.0
  9
$DIMEXE
 40
0.125
  9
$DIMTP
 40
0.01
  9
$DIMTM
 40
0.01
  9
$DIMTXT
 40
1.0
  9
$DIMCEN
 40
0.1052362205
  9
$DIMTSZ
 40
0.0
  9
$DIMTOL
 70
     1
  9
$DIMLIM
 70
     0
  9
$DIMTIH
 70
     1
  9
$DIMTOH
 70
     1
  9
$DIMSE1
 70
     0
  9
$DIMSE2
 70
     0
  9
$DIMTAD
 70
     0
  9
$DIMZIN
 70
     0
  9
$DIMBLK
  1

  9
$DIMASO
 70
     1
  9
$DIMSHO
 70
     1
  9
$DIMPOST
  1
\X
  9
$DIMAPOST
  1

  9
$DIMALT
 70
     1
  9
$DIMALTD
 70
     2
  9
$DIMALTF
 40
25.3999999999999986
  9
$DIMLFAC
 40
1.0
  9
$DIMTOFL
 70
     0
  9
$DIMTVP
 40
0.0
  9
$DIMTIX
 70
     0
  9
$DIMSOXD
 70
     0
  9
$DIMSAH
 70
     0
  9
$DIMBLK1
  1

  9
$DIMBLK2
  1

  9
$DIMSTYLE
  2
STANDARD
  9
$DIMCLRD
 70
     0
  9
$DIMCLRE
 70
     0
  9
$DIMCLRT
 70
     0
  9
$DIMTFAC
 40
1.0
  9
$DIMGAP
 40
0.09
  9
$LUNITS
 70
     2
  9
$LUPREC
 70
     4
  9
$SKETCHINC
 40
0.1
  9
$FILLETRAD
 40
0.0
  9
$AUNITS
 70
     0
  9
$AUPREC
 70
     0
  9
$MENU
  1
.
  9
$ELEVATION
 40
0.0
  9
$PELEVATION
 40
0.0
  9
$THICKNESS
 40
0.0
  9
$LIMCHECK
 70
     0
  9
$BLIPMODE
 70
     0
  9
$CHAMFERA
 40
0.0
  9
$CHAMFERB
 40
0.0
  9
$SKPOLY
 70
     0
  9
$TDCREATE
 40
2458172.4620254631154239
  9
$TDUPDATE
 40
2459018.470011574216187
  9
$TDINDWG
 40
0.131174919
  9
$TDUSRTIMER
 40
0.131174919
  9
$USRTIMER
 70
     1
  9
$ANGBASE
 50
0.0
  9
$ANGDIR
 70
     0
  9
$PDMODE
 70
     0
  9
$PDSIZE
 40
0.3125
  9
$PLINEWID
 40
0.0
  9
$COORDS
 70
     1
  9
$SPLFRAME
 70
     0
  9
$SPLINETYPE
 70
     6
  9
$SPLINESEGS
 70
     8
  9
$ATTDIA
 70
     1
  9
$ATTREQ
 70
     1
  9
$HANDLING
 70
     1
  9
$HANDSEED
  5
64DD
  9
$SURFTAB1
 70
     6
  9
$SURFTAB2
 70
     6
  9
$SURFTYPE
 70
     6
  9
$SURFU
 70
     6
  9
$SURFV
 70
     6
  9
$UCSNAME
  2

  9
$UCSORG
 10
0.0
 20
0.0
 30
0.0
  9
$UCSXDIR
 10
1.0
 20
0.0
 30
0.0
  9
$UCSYDIR
 10
0.0
 20
1.0
 30
0.0
  9
$PUCSNAME
  2

  9
$PUCSORG
 10
0.0
 20
0.0
 30
0.0
  9
$PUCSXDIR
 10
1.0
 20
0.0
 30
0.0
  9
$PUCSYDIR
 10
0.0
 20
1.0
 30
0.0
  9
$USERI1
 70
     0
  9
$USERI2
 70
     0
  9
$USERI3
 70
     0
  9
$USERI4
 70
     0
  9
$USERI5
 70
     0
  9
$USERR1
 40
0.0
  9
$USERR2
 40
0.0
  9
$USERR3
 40
0.0
  9
$USERR4
 40
0.0
  9
$USERR5
 40
0.0
  9
$WORLDVIEW
 70
     1
  9
$SHADEDGE
 70
     3
  9
$SHADEDIF
 70
    70
  9
$TILEMODE
 70
     1
  9
$MAXACTVP
 70
    64
  9
$PLIMCHECK
 70
     0
  9
$PEXTMIN
 10
1.0000000000000000E+20
 20
1.0000000000000000E+20
 30
1.0000000000000000E+20
  9
$PEXTMAX
 10
-1.0000000000000000E+20
 20
-1.0000000000000000E+20
 30
-1.0000000000000000E+20
  9
$PLIMMIN
 10
0.0
 20
0.0
  9
$PLIMMAX
 10
12.0
 20
9.0
  9
$UNITMODE
 70
     0
  9
$VISRETAIN
 70
     1
  9
$PLINEGEN
 70
     0
  9
$PSLTSCALE
 70
     1
  0
ENDSEC
  0
SECTION
  2
TABLES
  0
TABLE
  2
VPORT
 70
     1
  0
VPORT
  2
*ACTIVE
 70
     0
 10
0.0
 20
0.0
 11
1.0
 21
1.0
 12
-0.0075751229698371
 22
-80.0428230281195141
 13
0.0
 23
0.0
 14
1.0
 24
1.0
 15
0.0
 25
0.0
 16
0.0
 26
0.0
 36
30.6214257250603907
 17
124.6111586000725993
 27
5.3122741703778242
 37
0.0
 40
23.6522348198527403
 41
2.8398203592814371
 42
50.0
 43
0.0
 44
0.0
 50
0.0
 51
0.0
 71
     0
 72
   100
 73
     1
 74
     1
 75
     0
 76
     0
 77
     0
 78
     0
  0
ENDTAB
  0
TABLE
  2
LTYPE
 70
     2
  0
LTYPE
  2
CONTINUOUS
 70
     0
  3
Solid line
 72
    65
 73
     0
 40
0.0
  0
LTYPE
  2
PHANTOM2
 70
     0
  3
___ _ _ ___ _ _ ___ _ _ ___ _ _
 72
    65
 73
     6
 40
1.25
 49
0.625
 49
-0.125
 49
0.125
 49
-0.125
 49
0.125
 49
-0.125
  0
ENDTAB
  0
TABLE
  2
LAYER
 70
     2
  0
LAYER
  2
0
 70
     0
 62
   255
  6
CONTINUOUS
  0
LAYER
  2
DEFPOINTS
 70
     0
 62
     7
  6
CONTINUOUS
  0
ENDTAB
  0
TABLE
  2
STYLE
 70
     1
  0
STYLE
  2
STANDARD
 70
     0
 40
0.0
 41
0.8
 50
0.0
 71
     0
 42
0.2
  3
txt
  4

  0
ENDTAB
  0
TABLE
  2
VIEW
 70
     0
  0
ENDTAB
  0
TABLE
  2
UCS
 70
     0
  0
ENDTAB
  0
TABLE
  2
APPID
 70
     9
  0
APPID
  2
ACAD
 70
     0
  0
APPID
  2
ACAD_MLEADERVER
 70
     0
  0
APPID
  2
ACAD_EXEMPT_FROM_CAD_STANDARDS
 70
     0
  0
APPID
  2
ACAD_DSTYLE_DIMJAG
 70
     0
  0
APPID
  2
ACAD_DSTYLE_DIMTALN
 70
     0
  0
APPID
  2
ACAD_NAV_VCDISPLAY
 70
     0
  0
APPID
  2
ACAECLAYERSTANDARD
 70
     0
  0
APPID
  2
ACCMTRANSPARENCY
 70
     0
  0
APPID
  2
ACDBATTR
 70
     0
  0
ENDTAB
  0
TABLE
  2
DIMSTYLE
 70
     1
  0
DIMSTYLE
  2
STANDARD
 70
     0
  3

  4

  5

  6

  7

 40
1.0
 41
0.1875
 42
0.0625
 43
0.38
 44
0.125
 45
0.0
 46
0.0
 47
0.01
 48
0.01
140
0.15625
141
0.09
142
0.0
143
25.3999999999999986
144
1.0
145
0.0
146
1.0
147
0.09
 71
     1
 72
     0
 73
     1
 74
     1
 75
     0
 76
     0
 77
     0
 78
     4
170
     0
171
     2
172
     0
173
     0
174
     0
175
     0
176
     0
177
     0
178
     0
  0
ENDTAB
  0
ENDSEC
  0
SECTION
  2
BLOCKS
  0
BLOCK
  8
0
  2
$MODEL_SPACE
 70
     0
 10
0.0
 20
0.0
 30
0.0
  3
$MODEL_SPACE
  1

  0
ENDBLK
  5
21
  8
0
  0
BLOCK
 67
     1
  8
0
  2
$PAPER_SPACE
 70
     0
 10
0.0
 20
0.0
 30
0.0
  3
$PAPER_SPACE
  1

  0
ENDBLK
  5
1D
 67
     1
  8
0
  0
ENDSEC
  0
SECTION
  2
ENTITIES
  0
ATTDEF
  5
56D7
  8
DEFPOINTS
 10
124.5996871983700061
 20
-86.4442850782424159
 30
0.0
 40
0.001
  1
K-20379T-GR
  3

  2
MODELNUMBER
 70
     0
1001
ACDBATTR
1070
     0
1070
     1
  0
ATTDEF
  5
56D8
  8
DEFPOINTS
 10
124.5996871983700061
 20
-86.4459517449090669
 30
0.0
 40
0.001
  1
VOLUTE
  3

  2
TRADENAME
 70
     0
1001
ACDBATTR
1070
     0
1070
     1
  0
ATTDEF
  5
56D9
  8
DEFPOINTS
 10
124.5996871983700061
 20
-86.4476184115757462
 30
0.0
 40
0.001
  1
BATH
  3

  2
PRODUCT
 70
     0
1001
ACDBATTR
1070
     0
1070
     1
  0
ARC
  5
61EA
  8
0
 10
104.1232386390823024
 20
-86.2062484630245507
 30
0.0
 40
0.0393700786999993
 50
179.9999998544674895
 51
270.0
  0
LINE
  5
61EB
  8
0
 10
104.083868560382399
 20
-86.2062484629245489
 30
0.0
 11
104.0838685691818029
 21
-82.7419217540245739
 31
0.0
  0
ARC
  5
61EC
  8
0
 10
104.1232386480817951
 20
-82.7419217541245757
 30
0.0
 40
0.0393700789000011
 50
90.0000130970409344
 51
179.9999998544658979
  0
ARC
  5
61ED
  8
0
 10
104.4611783565526935
 20
-82.6631815964488936
 30
0.0
 40
0.0393700787757207
 50
270.1135141009575023
 51
354.9999998277179998
  0
LINE
  5
61EE
  8
0
 10
104.5003986202821977
 20
-82.6666129250245802
 30
0.0
 11
104.5316987438662011
 21
-82.3088508878245477
 31
0.0
  0
ARC
  5
61EF
  8
0
 10
76.5078261492443232
 20
-81.8022663270066204
 30
0.0
 40
27.5808536533726709
 50
358.9475746515080914
 51
40.5175115239218826
  0
LINE
  5
61F0
  8
0
 10
95.0714258136266182
 20
-63.8836540374245629
 30
0.0
 11
95.116288690074569
 21
-63.3766599762113714
 31
0.0
  0
ARC
  5
61F1
  8
0
 10
95.5090680505526137
 20
-63.4110237174901528
 30
0.0
 40
0.3942797138224456
 50
90.0
 51
175.0000000043403077
  0
CIRCLE
  5
61F2
  8
0
 10
119.2845774499958935
 20
-65.1741760335971065
 30
0.0
 40
0.196822430590501
  0
ARC
  5
61F3
  8
0
 10
119.2845724346301068
 20
-65.1429960722791748
 30
0.0
 40
0.196822430590501
 50
184.5402325911007893
 51
355.4661527623680968
  0
LINE
  5
61F4
  8
0
 10
110.3949068653821968
 20
-86.2456185417245678
 30
0.0
 11
110.3949068653821968
 21
-86.3639689981245766
 31
0.0
  0
LINE
  5
61F5
  8
0
 10
110.3949068653821968
 20
-86.3639689981245766
 30
0.0
 11
111.2450210412823992
 21
-86.3639689981245766
 31
0.0
  0
LINE
  5
61F6
  8
0
 10
111.2450210412823992
 20
-86.3639689981245766
 30
0.0
 11
111.2450210412823992
 21
-86.2456185417245678
 31
0.0
  0
LINE
  5
61F7
  8
0
 10
115.4459482052824058
 20
-86.2456185417245678
 30
0.0
 11
115.4459482052824058
 21
-86.2849886204245564
 31
0.0
  0
LINE
  5
61F8
  8
0
 10
115.4459482052824058
 20
-86.2849886204245564
 30
0.0
 11
115.4778629260021034
 21
-86.4126475032719981
 31
0.0
  0
ARC
  5
61F9
  8
0
 10
115.5160575125821936
 20
-86.4030988566245668
 30
0.0
 40
0.0393700787000003
 50
194.0362434712093034
 51
270.0
  0
LINE
  5
61FA
  8
0
 10
115.5160575125821936
 20
-86.4424689353245554
 30
0.0
 11
115.9663900789822009
 21
-86.4424689353245839
 31
0.0
  0
ARC
  5
61FB
  8
0
 10
115.9663900789822009
 20
-86.4030988566245668
 30
0.0
 40
0.0393700786999975
 50
270.0
 51
345.9637565283114782
  0
LINE
  5
61FC
  8
0
 10
116.0045846655628026
 20
-86.4126475032723107
 30
0.0
 11
116.0364993862892931
 21
-86.2849886204012932
 31
0.0
  0
LINE
  5
61FD
  8
0
 10
116.0364993862892931
 20
-86.2849886204012932
 30
0.0
 11
116.0364993862892931
 21
-86.2456185417245678
 31
0.0
  0
LINE
  5
61FE
  8
0
 10
115.4459482052824058
 20
-86.2849886204245564
 30
0.0
 11
116.0364993862892931
 21
-86.2849886207967245
 31
0.0
  0
LINE
  5
61FF
  8
0
 10
95.5090680505526137
 20
-63.0167440036677107
 30
0.0
 11
153.6899149742123996
 21
-63.0167440036677107
 31
0.0
  0
LINE
  5
6200
  8
0
 10
95.0714258136266182
 20
-63.8836540374245629
 30
0.0
 11
154.1275572111383951
 21
-63.8836540374245629
 31
0.0
  0
LINE
  5
6201
  8
0
 10
104.0840271263821961
 20
-82.3088508878245477
 30
0.0
 11
145.1149558983823056
 21
-82.3088508878245477
 31
0.0
  0
LINE
  5
6202
  8
0
 10
104.1232386480817951
 20
-82.7025516752245551
 30
0.0
 11
145.0757443766827066
 21
-82.7025516752245551
 31
0.0
  0
LINE
  5
6203
  8
0
 10
104.1232386390823024
 20
-86.2456185417245678
 30
0.0
 11
145.0757443856822135
 21
-86.2456185417245678
 31
0.0
  0
ARC
  5
6204
  8
0
 10
145.0757443856822135
 20
-86.2062484630245507
 30
0.0
 40
0.0393700786999993
 50
270.0
 51
0.0000001455324116
  0
LINE
  5
6205
  8
0
 10
145.1151144643824864
 20
-86.2062484629245489
 30
0.0
 11
145.1151144555826988
 21
-82.7419217540245739
 31
0.0
  0
ARC
  5
6206
  8
0
 10
145.0757443766827066
 20
-82.7419217541245473
 30
0.0
 40
0.0393700788999816
 50
0.0000001455210125
 51
90.0000000000260485
  0
ARC
  5
6207
  8
0
 10
144.737804668211794
 20
-82.6631815964488936
 30
0.0
 40
0.0393700787757207
 50
185.0000001722802949
 51
269.8864858990424977
  0
LINE
  5
6208
  8
0
 10
144.6985844044822898
 20
-82.6666129250245802
 30
0.0
 11
144.6672842809115025
 21
-82.3088508879182399
 31
0.0
  0
ARC
  5
6209
  8
0
 10
172.6911568755201927
 20
-81.8022663270066204
 30
0.0
 40
27.5808536533726709
 50
139.482488476078089
 51
181.0524253484917949
  0
LINE
  5
620A
  8
0
 10
154.1275572111383951
 20
-63.8836540374245629
 30
0.0
 11
154.0826943346899895
 21
-63.3766599762113714
 31
0.0
  0
ARC
  5
620B
  8
0
 10
153.6899149742123996
 20
-63.4110237174901314
 30
0.0
 40
0.3942797138224296
 50
4.9999999956565038
 51
90.0
  0
CIRCLE
  5
620C
  8
0
 10
129.9144055747690913
 20
-65.1741760335971065
 30
0.0
 40
0.196822430590501
  0
ARC
  5
620D
  8
0
 10
129.9144105901349064
 20
-65.1429960722791748
 30
0.0
 40
0.196822430590501
 50
184.5338472376294021
 51
355.4597674088990971
  0
LINE
  5
620E
  8
0
 10
138.8040761593823049
 20
-86.2456185417245678
 30
0.0
 11
138.8040761593823049
 21
-86.3639689981245766
 31
0.0
  0
LINE
  5
620F
  8
0
 10
138.8040761593823049
 20
-86.3639689981245766
 30
0.0
 11
137.9539619834824862
 21
-86.3639689981245766
 31
0.0
  0
LINE
  5
6210
  8
0
 10
137.9539619834824862
 20
-86.3639689981245766
 30
0.0
 11
137.9539619834824862
 21
-86.2456185417245678
 31
0.0
  0
LINE
  5
6211
  8
0
 10
133.7530348194825933
 20
-86.2456185417245678
 30
0.0
 11
133.7530348194825933
 21
-86.2849886204245564
 31
0.0
  0
LINE
  5
6212
  8
0
 10
133.7530348194825933
 20
-86.2849886204245564
 30
0.0
 11
133.7211200987628956
 21
-86.4126475032719981
 31
0.0
  0
ARC
  5
6213
  8
0
 10
133.6829255121822939
 20
-86.4030988566245668
 30
0.0
 40
0.0393700787000003
 50
270.0
 51
345.9637565287906114
  0
LINE
  5
6214
  8
0
 10
133.6829255121822939
 20
-86.4424689353245554
 30
0.0
 11
133.2325929457823008
 21
-86.4424689353245839
 31
0.0
  0
ARC
  5
6215
  8
0
 10
133.2325929457823008
 20
-86.4030988566245668
 30
0.0
 40
0.0393700786999975
 50
194.0362434716876123
 51
270.0
  0
LINE
  5
6216
  8
0
 10
133.194398359202097
 20
-86.4126475032723107
 30
0.0
 11
133.1624836384752086
 21
-86.2849886204012932
 31
0.0
  0
LINE
  5
6217
  8
0
 10
133.1624836384752086
 20
-86.2849886204012932
 30
0.0
 11
133.1624836384752086
 21
-86.2456185417245678
 31
0.0
  0
LINE
  5
6218
  8
0
 10
133.7530348194825933
 20
-86.2849886204245564
 30
0.0
 11
133.1624836384752086
 21
-86.2849886207967245
 31
0.0
  0
LINE
  5
6219
  8
0
 10
104.1232386390823024
 20
-86.2456185417245678
 30
0.0
 11
104.1213121368822954
 21
-86.304665448824565
 31
0.0
  0
LINE
  5
621A
  8
0
 10
104.1213121368822954
 20
-86.304665448824565
 30
0.0
 11
104.7118633179823064
 21
-86.304665448824565
 31
0.0
  0
LINE
  5
621B
  8
0
 10
104.7118633179823064
 20
-86.304665448824565
 30
0.0
 11
104.7118633179823064
 21
-86.2456185417245678
 31
0.0
  0
LINE
  5
621C
  8
0
 10
104.7118633179823064
 20
-86.2456185417245678
 30
0.0
 11
104.1232386390823024
 21
-86.2456185417245678
 31
0.0
  0
LINE
  5
621D
  8
0
 10
105.6576025312266012
 20
-86.2456185417245678
 30
0.0
 11
105.6576037681178946
 21
-86.3046469694759537
 31
0.0
  0
LINE
  5
621E
  8
0
 10
105.6576037681178946
 20
-86.3046469694759537
 30
0.0
 11
106.4033097876264975
 21
-86.304673659824573
 31
0.0
  0
LINE
  5
621F
  8
0
 10
106.4033097876264975
 20
-86.304673659824573
 30
0.0
 11
106.4033097876264975
 21
-86.246133868624554
 31
0.0
  0
LINE
  5
6220
  8
0
 10
109.5542400605264959
 20
-86.2456185417245678
 30
0.0
 11
109.5542400605264959
 21
-86.304673659824573
 31
0.0
  0
LINE
  5
6221
  8
0
 10
109.5542400605264959
 20
-86.304673659824573
 30
0.0
 11
108.8216581144167066
 21
-86.3046508947197566
 31
0.0
  0
LINE
  5
6222
  8
0
 10
108.8216581144167066
 20
-86.3046508947197566
 30
0.0
 11
108.8216554482328036
 21
-86.2456185417245678
 31
0.0
  0
LINE
  5
6223
  8
0
 10
112.737963595173099
 20
-86.2456185417245678
 30
0.0
 11
112.7379635954266064
 21
-86.3086006983448755
 31
0.0
  0
LINE
  5
6224
  8
0
 10
112.7379635954266064
 20
-86.3086006983448755
 30
0.0
 11
112.1523112570264971
 21
-86.3096812487448801
 31
0.0
  0
LINE
  5
6225
  8
0
 10
112.1523112570264971
 20
-86.3096812487448801
 30
0.0
 11
112.1523112570264971
 21
-86.2466987167448735
 31
0.0
  0
LINE
  5
6226
  8
0
 10
113.2619654376265004
 20
-86.2456185280245649
 30
0.0
 11
113.2619387175552959
 21
-86.304665715621951
 31
0.0
  0
LINE
  5
6227
  8
0
 10
113.2619387175552959
 20
-86.304665715621951
 30
0.0
 11
113.8520363994765034
 21
-86.3046291956721348
 31
0.0
  0
LINE
  5
6228
  8
0
 10
113.8520363994765034
 20
-86.3046291956721348
 30
0.0
 11
113.8520327474266054
 21
-86.2456185398245623
 31
0.0
  0
LINE
  5
6229
  8
0
 10
113.8520327474266054
 20
-86.2456185398245623
 30
0.0
 11
113.2619654376265004
 21
-86.2456185280245649
 31
0.0
  0
LINE
  5
622A
  8
0
 10
119.067488805726498
 20
-86.2456185417245678
 30
0.0
 11
119.0674978235264945
 21
-86.3048495080245743
 31
0.0
  0
LINE
  5
622B
  8
0
 10
119.0674978235264945
 20
-86.3048495080245743
 30
0.0
 11
119.6580399868264948
 21
-86.3046646654245535
 31
0.0
  0
LINE
  5
622C
  8
0
 10
119.6580399868264948
 20
-86.3046646654245535
 30
0.0
 11
119.6580399868264948
 21
-86.2456185417245678
 31
0.0
  0
LINE
  5
622D
  8
0
 10
119.6580399868264948
 20
-86.2456185417245678
 30
0.0
 11
119.0674888194152032
 21
-86.2457084519970181
 31
0.0
  0
LINE
  5
622E
  8
0
 10
123.8121581718111059
 20
-86.2457948977694144
 30
0.0
 11
123.8120899375823001
 21
-86.3046646654226066
 31
0.0
  0
LINE
  5
622F
  8
0
 10
123.8120899375823001
 20
-86.3046646654226066
 30
0.0
 11
125.3863864435265043
 21
-86.3046646654226066
 31
0.0
  0
LINE
  5
6230
  8
0
 10
125.3863864435265043
 20
-86.3046646654225924
 30
0.0
 11
125.3863864435265043
 21
-86.2456185417245678
 31
0.0
  0
LINE
  5
6231
  8
0
 10
145.0747310983707905
 20
-86.2456185417245678
 30
0.0
 11
145.0766576005707975
 21
-86.304665448824565
 31
0.0
  0
LINE
  5
6232
  8
0
 10
145.0766576005707975
 20
-86.304665448824565
 30
0.0
 11
144.4861064194707865
 21
-86.304665448824565
 31
0.0
  0
LINE
  5
6233
  8
0
 10
144.4861064194707865
 20
-86.304665448824565
 30
0.0
 11
144.4861064194707865
 21
-86.2456185417245678
 31
0.0
  0
LINE
  5
6234
  8
0
 10
144.4861064194707865
 20
-86.2456185417245678
 30
0.0
 11
145.0747310983707905
 21
-86.2456185417245678
 31
0.0
  0
LINE
  5
6235
  8
0
 10
143.5403672062265059
 20
-86.2456185417245678
 30
0.0
 11
143.5403659693351983
 21
-86.3046469694759537
 31
0.0
  0
LINE
  5
6236
  8
0
 10
143.5403659693351983
 20
-86.3046469694759537
 30
0.0
 11
142.7946599498266096
 21
-86.304673659824573
 31
0.0
  0
LINE
  5
6237
  8
0
 10
142.7946599498266096
 20
-86.304673659824573
 30
0.0
 11
142.7946599498266096
 21
-86.246133868624554
 31
0.0
  0
LINE
  5
6238
  8
0
 10
139.6437296769265117
 20
-86.2456185417245678
 30
0.0
 11
139.6437296769265117
 21
-86.304673659824573
 31
0.0
  0
LINE
  5
6239
  8
0
 10
139.6437296769265117
 20
-86.304673659824573
 30
0.0
 11
140.3763116230364005
 21
-86.3046508947197566
 31
0.0
  0
LINE
  5
623A
  8
0
 10
140.3763116230364005
 20
-86.3046508947197566
 30
0.0
 11
140.3763142892202893
 21
-86.2456185417245678
 31
0.0
  0
LINE
  5
623B
  8
0
 10
136.4600061422800081
 20
-86.2456185417245678
 30
0.0
 11
136.4600061420266002
 21
-86.3086006983448755
 31
0.0
  0
LINE
  5
623C
  8
0
 10
136.4600061420266002
 20
-86.3086006983448755
 30
0.0
 11
137.0456584804265958
 21
-86.3096812487448801
 31
0.0
  0
LINE
  5
623D
  8
0
 10
137.0456584804265958
 20
-86.3096812487448801
 30
0.0
 11
137.0456584804265958
 21
-86.2466987167448735
 31
0.0
  0
LINE
  5
623E
  8
0
 10
135.936004299826493
 20
-86.2456185280245649
 30
0.0
 11
135.936031019897797
 21
-86.304665715621951
 31
0.0
  0
LINE
  5
623F
  8
0
 10
135.936031019897797
 20
-86.304665715621951
 30
0.0
 11
135.3459333379765894
 21
-86.3046291956721348
 31
0.0
  0
LINE
  5
6240
  8
0
 10
135.3459333379765894
 20
-86.3046291956721348
 30
0.0
 11
135.345936990026587
 21
-86.2456185398245623
 31
0.0
  0
LINE
  5
6241
  8
0
 10
135.345936990026587
 20
-86.2456185398245623
 30
0.0
 11
135.936004299826493
 21
-86.2456185280245649
 31
0.0
  0
LINE
  5
6242
  8
0
 10
130.1304809317265097
 20
-86.2456185417245678
 30
0.0
 11
130.1304719139266126
 21
-86.3048495080245743
 31
0.0
  0
LINE
  5
6243
  8
0
 10
130.1304719139266126
 20
-86.3048495080245743
 30
0.0
 11
129.5399297506266123
 21
-86.3046646654245535
 31
0.0
  0
LINE
  5
6244
  8
0
 10
129.5399297506266123
 20
-86.3046646654245535
 30
0.0
 11
129.5399297506266123
 21
-86.2456185417245678
 31
0.0
  0
LINE
  5
6245
  8
0
 10
129.5399297506266123
 20
-86.2456185417245678
 30
0.0
 11
130.1304809180379038
 21
-86.2457084519970181
 31
0.0
  0
ENDSEC
  0
EOF
