  0
SECTION
  2
HEADER
  9
$ACADVER
  1
AC1018
  9
$ACADMAINTVER
 70
    76
  9
$DWGCODEPAGE
  3
ANSI_936
  9
$INSBASE
 10
0.0
 20
0.0
 30
0.0
  9
$EXTMIN
 10
-51705.0429364527
 20
13009.10951948194
 30
0.0
  9
$EXTMAX
 10
-50764.19123370542
 20
13623.8346876771
 30
0.0
  9
$LIMMIN
 10
0.0
 20
0.0
  9
$LIMMAX
 10
12000.0
 20
90000.0
  9
$ORTHOMODE
 70
     1
  9
$REGENMODE
 70
     1
  9
$FILLMODE
 70
     1
  9
$QTEXTMODE
 70
     0
  9
$MIRRTEXT
 70
     1
  9
$LTSCALE
 40
1.0
  9
$ATTMODE
 70
     1
  9
$TEXTSIZE
 40
9.743462296453799
  9
$TRACEWID
 40
0.05
  9
$TEXTSTYLE
  7
hz
  9
$CLAYER
  8
0
  9
$CELTYPE
  6
ByLayer
  9
$CECOLOR
 62
   256
  9
$CELTSCALE
 40
1.0
  9
$DISPSILH
 70
     0
  9
$DIMSCALE
 40
35.0
  9
$DIMASZ
 40
0.1875
  9
$DIMEXO
 40
0.0625
  9
$DIMDLI
 40
0.38
  9
$DIMRND
 40
0.0
  9
$DIMDLE
 40
0.0
  9
$DIMEXE
 40
0.18
  9
$DIMTP
 40
0.001
  9
$DIMTM
 40
0.001
  9
$DIMTXT
 40
0.15625
  9
$DIMCEN
 40
0.09
  9
$DIMTSZ
 40
0.0
  9
$DIMTOL
 70
     0
  9
$DIMLIM
 70
     0
  9
$DIMTIH
 70
     1
  9
$DIMTOH
 70
     1
  9
$DIMSE1
 70
     0
  9
$DIMSE2
 70
     0
  9
$DIMTAD
 70
     0
  9
$DIMZIN
 70
     9
  9
$DIMBLK
  1

  9
$DIMASO
 70
     1
  9
$DIMSHO
 70
     1
  9
$DIMPOST
  1

  9
$DIMAPOST
  1

  9
$DIMALT
 70
     0
  9
$DIMALTD
 70
     2
  9
$DIMALTF
 40
25.4
  9
$DIMLFAC
 40
1.0
  9
$DIMTOFL
 70
     0
  9
$DIMTVP
 40
0.0
  9
$DIMTIX
 70
     0
  9
$DIMSOXD
 70
     0
  9
$DIMSAH
 70
     0
  9
$DIMBLK1
  1

  9
$DIMBLK2
  1

  9
$DIMSTYLE
  2
STANDARD
  9
$DIMCLRD
 70
     0
  9
$DIMCLRE
 70
     0
  9
$DIMCLRT
 70
     0
  9
$DIMTFAC
 40
1.0
  9
$DIMGAP
 40
0.09
  9
$DIMJUST
 70
     0
  9
$DIMSD1
 70
     0
  9
$DIMSD2
 70
     0
  9
$DIMTOLJ
 70
     1
  9
$DIMTZIN
 70
     4
  9
$DIMALTZ
 70
     0
  9
$DIMALTTZ
 70
     0
  9
$DIMUPT
 70
     0
  9
$DIMDEC
 70
     1
  9
$DIMTDEC
 70
     1
  9
$DIMALTU
 70
     2
  9
$DIMALTTD
 70
     2
  9
$DIMTXSTY
  7
STANDARD
  9
$DIMAUNIT
 70
     0
  9
$DIMADEC
 70
     0
  9
$DIMALTRND
 40
0.0
  9
$DIMAZIN
 70
     0
  9
$DIMDSEP
 70
    46
  9
$DIMATFIT
 70
     3
  9
$DIMFRAC
 70
     0
  9
$DIMLDRBLK
  1

  9
$DIMLUNIT
 70
     2
  9
$DIMLWD
 70
    -2
  9
$DIMLWE
 70
    -2
  9
$DIMTMOVE
 70
     0
  9
$LUNITS
 70
     2
  9
$LUPREC
 70
     4
  9
$SKETCHINC
 40
0.1
  9
$FILLETRAD
 40
0.0
  9
$AUNITS
 70
     0
  9
$AUPREC
 70
     0
  9
$MENU
  1
acad
  9
$ELEVATION
 40
0.0
  9
$PELEVATION
 40
0.0
  9
$THICKNESS
 40
0.0
  9
$LIMCHECK
 70
     0
  9
$CHAMFERA
 40
0.0
  9
$CHAMFERB
 40
0.0
  9
$CHAMFERC
 40
0.0
  9
$CHAMFERD
 40
0.0
  9
$SKPOLY
 70
     0
  9
$TDCREATE
 40
2454116.578774155
  9
$TDUCREATE
 40
2454116.245440822
  9
$TDUPDATE
 40
2454657.590339213
  9
$TDUUPDATE
 40
2454657.257005880
  9
$TDINDWG
 40
2.7594397685
  9
$TDUSRTIMER
 40
2.7594397685
  9
$USRTIMER
 70
     1
  9
$ANGBASE
 50
0.0
  9
$ANGDIR
 70
     0
  9
$PDMODE
 70
     3
  9
$PDSIZE
 40
0.3125
  9
$PLINEWID
 40
0.0
  9
$SPLFRAME
 70
     0
  9
$SPLINETYPE
 70
     6
  9
$SPLINESEGS
 70
     8
  9
$HANDSEED
  5
1214A
  9
$SURFTAB1
 70
     6
  9
$SURFTAB2
 70
     6
  9
$SURFTYPE
 70
     6
  9
$SURFU
 70
     6
  9
$SURFV
 70
     6
  9
$UCSBASE
  2

  9
$UCSNAME
  2

  9
$UCSORG
 10
0.0
 20
0.0
 30
0.0
  9
$UCSXDIR
 10
1.0
 20
0.0
 30
0.0
  9
$UCSYDIR
 10
0.0
 20
1.0
 30
0.0
  9
$UCSORTHOREF
  2

  9
$UCSORTHOVIEW
 70
     0
  9
$UCSORGTOP
 10
0.0
 20
0.0
 30
0.0
  9
$UCSORGBOTTOM
 10
0.0
 20
0.0
 30
0.0
  9
$UCSORGLEFT
 10
0.0
 20
0.0
 30
0.0
  9
$UCSORGRIGHT
 10
0.0
 20
0.0
 30
0.0
  9
$UCSORGFRONT
 10
0.0
 20
0.0
 30
0.0
  9
$UCSORGBACK
 10
0.0
 20
0.0
 30
0.0
  9
$PUCSBASE
  2

  9
$PUCSNAME
  2

  9
$PUCSORG
 10
0.0
 20
0.0
 30
0.0
  9
$PUCSXDIR
 10
1.0
 20
0.0
 30
0.0
  9
$PUCSYDIR
 10
0.0
 20
1.0
 30
0.0
  9
$PUCSORTHOREF
  2

  9
$PUCSORTHOVIEW
 70
     0
  9
$PUCSORGTOP
 10
0.0
 20
0.0
 30
0.0
  9
$PUCSORGBOTTOM
 10
0.0
 20
0.0
 30
0.0
  9
$PUCSORGLEFT
 10
0.0
 20
0.0
 30
0.0
  9
$PUCSORGRIGHT
 10
0.0
 20
0.0
 30
0.0
  9
$PUCSORGFRONT
 10
0.0
 20
0.0
 30
0.0
  9
$PUCSORGBACK
 10
0.0
 20
0.0
 30
0.0
  9
$USERI1
 70
     0
  9
$USERI2
 70
     0
  9
$USERI3
 70
     0
  9
$USERI4
 70
     0
  9
$USERI5
 70
     0
  9
$USERR1
 40
0.0
  9
$USERR2
 40
0.0
  9
$USERR3
 40
0.0
  9
$USERR4
 40
0.0
  9
$USERR5
 40
0.0
  9
$WORLDVIEW
 70
     1
  9
$SHADEDGE
 70
     3
  9
$SHADEDIF
 70
    70
  9
$TILEMODE
 70
     1
  9
$MAXACTVP
 70
    16
  9
$PINSBASE
 10
0.0
 20
0.0
 30
0.0
  9
$PLIMCHECK
 70
     0
  9
$PEXTMIN
 10
1.000000000000000E+20
 20
1.000000000000000E+20
 30
1.000000000000000E+20
  9
$PEXTMAX
 10
-1.000000000000000E+20
 20
-1.000000000000000E+20
 30
-1.000000000000000E+20
  9
$PLIMMIN
 10
0.0
 20
0.0
  9
$PLIMMAX
 10
12.0
 20
9.0
  9
$UNITMODE
 70
     0
  9
$VISRETAIN
 70
     0
  9
$PLINEGEN
 70
     1
  9
$PSLTSCALE
 70
     0
  9
$TREEDEPTH
 70
  3020
  9
$CMLSTYLE
  2
Standard
  9
$CMLJUST
 70
     0
  9
$CMLSCALE
 40
1.0
  9
$PROXYGRAPHICS
 70
     0
  9
$MEASUREMENT
 70
     0
  9
$CELWEIGHT
370
     0
  9
$ENDCAPS
280
     0
  9
$JOINSTYLE
280
     0
  9
$LWDISPLAY
290
     0
  9
$INSUNITS
 70
     1
  9
$HYPERLINKBASE
  1

  9
$STYLESHEET
  1
acad.ctb
  9
$XEDIT
290
     1
  9
$CEPSNTYPE
380
     0
  9
$PSTYLEMODE
290
     1
  9
$FINGERPRINTGUID
  2

  9
$VERSIONGUID
  2
{3B397E3B-1E22-43BC-A468-43DA85F745E7}
  9
$EXTNAMES
290
     1
  9
$PSVPSCALE
 40
0.0
  9
$OLESTARTUP
290
     0
  9
$SORTENTS
280
   127
  9
$INDEXCTL
280
     0
  9
$HIDETEXT
280
     0
  9
$XCLIPFRAME
290
     0
  9
$HALOGAP
280
     0
  9
$OBSCOLOR
 70
   257
  9
$OBSLTYPE
280
     0
  9
$INTERSECTIONDISPLAY
280
     0
  9
$INTERSECTIONCOLOR
 70
   257
  9
$DIMASSOC
280
     1
  9
$PROJECTNAME
  1

  0
ENDSEC
  0
SECTION
  2
CLASSES
  0
CLASS
  1
ACDBDICTIONARYWDFLT
  2
AcDbDictionaryWithDefault
  3
ObjectDBX Classes
 90
        0
 91
        1
280
     0
281
     0
  0
CLASS
  1
IMAGE
  2
AcDbRasterImage
  3
ISM
 90
      127
 91
        0
280
     0
281
     1
  0
CLASS
  1
DICTIONARYVAR
  2
AcDbDictionaryVar
  3
ObjectDBX Classes
 90
        0
 91
        1
280
     0
281
     0
  0
CLASS
  1
RASTERVARIABLES
  2
AcDbRasterVariables
  3
ISM
 90
        0
 91
        0
280
     0
281
     0
  0
CLASS
  1
IMAGEDEF
  2
AcDbRasterImageDef
  3
ISM
 90
        0
 91
        0
280
     0
281
     0
  0
CLASS
  1
IMAGEDEF_REACTOR
  2
AcDbRasterImageDefReactor
  3
ISM
 90
        1
 91
        0
280
     0
281
     0
  0
CLASS
  1
IDBUFFER
  2
AcDbIdBuffer
  3
ObjectDBX Classes
 90
        0
 91
        0
280
     0
281
     0
  0
CLASS
  1
SPATIAL_FILTER
  2
AcDbSpatialFilter
  3
ObjectDBX Classes
 90
        0
 91
        0
280
     0
281
     0
  0
CLASS
  1
SORTENTSTABLE
  2
AcDbSortentsTable
  3
ObjectDBX Classes
 90
        0
 91
        1
280
     0
281
     0
  0
CLASS
  1
LAYER_INDEX
  2
AcDbLayerIndex
  3
ObjectDBX Classes
 90
        0
 91
        0
280
     0
281
     0
  0
CLASS
  1
SPATIAL_INDEX
  2
AcDbSpatialIndex
  3
ObjectDBX Classes
 90
        0
 91
        0
280
     0
281
     0
  0
CLASS
  1
OBJECT_PTR
  2
CAseDLPNTableRecord
  3
ASE-LPNTableRecord
 90
        1
 91
        0
280
     0
281
     0
  0
CLASS
  1
PLOTSETTINGS
  2
AcDbPlotSettings
  3
ObjectDBX Classes
 90
        0
 91
        0
280
     0
281
     0
  0
CLASS
  1
WIPEOUT
  2
AcDbWipeout
  3
"WipeOut|Product Desc: Object Enabler for WipeOut entity^I^I^I^I^I^I|Company: Autodesk, Inc.^I^I^I^I^I^I|WEB Address: www.autodesk.com"
 90
      127
 91
        0
280
     0
281
     1
  0
CLASS
  1
WIPEOUTVARIABLES
  2
AcDbWipeoutVariables
  3
"WipeOut|Product Desc:     WipeOut Dbx Application|Company:          Autodesk, Inc.|WEB Address:      www.autodesk.com"
 90
        0
 91
        0
280
     0
281
     0
  0
CLASS
  1
RTEXT
  2
RText
  3
RText|AutoCAD Express Tool|expresstools@autodesk.com
 90
     1023
 91
        0
280
     0
281
     1
  0
CLASS
  1
ARCALIGNEDTEXT
  2
AcDbArcAlignedText
  3
ATEXT|AutoCAD Express Tool|expresstools@autodesk.com
 90
        0
 91
        0
280
     0
281
     1
  0
CLASS
  1
ACME_DOCUMENT
  2
AcMeDbDoc
  3
AcMeServices
 90
        0
 91
        2
280
     0
281
     0
  0
CLASS
  1
AMGSETTINGSOBJ
  2
AmgSettingsObj
  3
"AcadM|Product Description: AutoCAD Mechanical 2000|Company: Autodesk"
 90
        0
 91
        2
280
     0
281
     0
  0
CLASS
  1
ACMESCOPE
  2
AcMeScope
  3
AcMeServices
 90
        0
 91
        1
280
     0
281
     0
  0
CLASS
  1
ACMECOMMANDHISTORY
  2
AcMeCommandHistory
  3
AcMeServices
 90
        0
 91
        1
280
     0
281
     0
  0
CLASS
  1
ACIMSYSVARMAN
  2
AcImSysVarManager
  3
AcMeServices
 90
        0
 91
        5
280
     0
281
     0
  0
CLASS
  1
ACIMINTSYSVAR
  2
AcImIntSysVar
  3
AcMeServices
 90
        0
 91
       26
280
     0
281
     0
  0
CLASS
  1
ACMEDRAWINGMAN
  2
AcMeDrawingMan
  3
AcMeServices
 90
        0
 91
        1
280
     0
281
     0
  0
CLASS
  1
ACMEVIEW
  2
AcMeView
  3
AcMeServices
 90
        0
 91
        1
280
     0
281
     0
  0
CLASS
  1
ACDBENTITYCACHE
  2
AcMeEntityCache
  3
AcMeServices
 90
        0
 91
        1
280
     0
281
     0
  0
CLASS
  1
GSMANAGER
  2
AcMeGSManager
  3
AcMeServices
 90
        0
 91
        1
280
     0
281
     0
  0
CLASS
  1
AMDTINTERNALREACTOR
  2
AmdtInternalReactor
  3
AcMeServices
 90
        0
 91
        2
280
     0
281
     0
  0
CLASS
  1
ACMESTATEMGR
  2
AcMeStateMgr
  3
AcMeServices
 90
        0
 91
        1
280
     0
281
     0
  0
CLASS
  1
ACGREFMASTER
  2
AcGrefMaster
  3
AcAttribServices
 90
        0
 91
        1
280
     0
281
     0
  0
CLASS
  1
AM_DRAWING_MGR
  2
AcDmDwgMgr
  3
AcMechDwgViewMgmt
 90
        0
 91
        1
280
     0
281
     0
  0
CLASS
  1
AM_DWG_DOCUMENT
  2
AcDmDwgDocument
  3
AcMechDwgViewMgmt
 90
        0
 91
        1
280
     0
281
     0
  0
CLASS
  1
AM_DWG_SHEET
  2
AcDmSheet
  3
AcMechDwgViewMgmt
 90
        0
 91
        2
280
     0
281
     0
  0
CLASS
  1
AM_VIEWDIMPARMAP
  2
AcDmViewDimParMap
  3
AcMechDwgViewMgmt
 90
        0
 91
        2
280
     0
281
     0
  0
CLASS
  1
ACIMREALSYSVAR
  2
AcImRealSysVar
  3
AcMeServices
 90
        0
 91
        1
280
     0
281
     0
  0
CLASS
  1
AM_DWGMGR_NAME
  2
AcDmDwgMgrName
  3
AcMechDwgViewMgmt
 90
        0
 91
        1
280
     0
281
     0
  0
CLASS
  1
ACME_DATABASE
  2
AcMeDbDatabase
  3
AcMeServices
 90
        0
 91
        1
280
     0
281
     0
  0
CLASS
  1
ACRFINSADJUSTERMGR
  2
AcRfInsAdjusterMgr
  3
AcMeServices
 90
        0
 91
        1
280
     0
281
     0
  0
CLASS
  1
ACGREFACADMASTER
  2
AcGrefacadMaster
  3
AcGrefServices
 90
        0
 91
        1
280
     0
281
     0
  0
CLASS
  1
AMDTMENUSTATEMGR
  2
AmdtMenuStateMgr
  3
McadcomServices
 90
        0
 91
        1
280
     0
281
     0
  0
CLASS
  1
AMDTMCOMMENUSTATE
  2
AmdtMcomMenuState
  3
McadcomServices
 90
        0
 91
        1
280
     0
281
     0
  0
CLASS
  1
AMIMASTER
  2
AmiMaster
  3
AmiServices
 90
        0
 91
        1
280
     0
281
     0
  0
CLASS
  1
MAPIAMMOUDLE
  2
MApiAmModule
  3
MApiAmServices
 90
        0
 91
        1
280
     0
281
     0
  0
CLASS
  1
AMDTADMENUSTATE
  2
AmdtAdMenuState
  3
DesignerServices
 90
        0
 91
        1
280
     0
281
     0
  0
CLASS
  1
ADAPPL
  2
AcAdAppl
  3
DesignerServices
 90
        0
 91
        1
280
     0
281
     0
  0
CLASS
  1
DEPMGR
  2
AcAdDepMgr
  3
DesignerServices
 90
        0
 91
        1
280
     0
281
     0
  0
CLASS
  1
PARAMMGR
  2
AcAdParamMgr
  3
DesignerServices
 90
        0
 91
        1
280
     0
281
     0
  0
CLASS
  1
PARAMSCOPE
  2
AcAdParamScope
  3
DesignerServices
 90
        0
 91
        1
280
     0
281
     0
  0
CLASS
  1
NAMEDAPPL
  2
AcAdNamedAppl
  3
DesignerServices
 90
        0
 91
        1
280
     0
281
     0
  0
CLASS
  1
AMDTDMMENUSTATE
  2
AmdtDmMenuState
  3
AcMechDwgViewMgmt
 90
        0
 91
        1
280
     0
281
     0
  0
CLASS
  1
AMDTAMMENUSTATE
  2
AmdtAmMenuState
  3
DesignerAssemblies
 90
        0
 91
        1
280
     0
281
     0
  0
CLASS
  1
ACIMSTRSYSVAR
  2
AcImStrSysVar
  3
AcMeServices
 90
        0
 91
        5
280
     0
281
     0
  0
CLASS
  1
ACAMPROJECT
  2
AcAmProject
  3
DesignerAssemblies
 90
        0
 91
        1
280
     0
281
     0
  0
CLASS
  1
ACAMGRCOMPDEF
  2
AcAmGrCompDef
  3
DesignerAssemblies
 90
        0
 91
        1
280
     0
281
     0
  0
CLASS
  1
ACCMCONTEXT
  2
AcCmContext
  3
DesignerAssemblies
 90
        0
 91
        1
280
     0
281
     0
  0
CLASS
  1
ACAMCOMPDEF
  2
AcAmCompDef
  3
DesignerAssemblies
 90
        0
 91
        1
280
     0
281
     0
  0
CLASS
  1
ACAMCOMPDEFMGR
  2
AcAmCompDefMgr
  3
DesignerAssemblies
 90
        0
 91
        1
280
     0
281
     0
  0
CLASS
  1
AMCONTEXTMGR
  2
AcAmContextMgr
  3
DesignerAssemblies
 90
        0
 91
        1
280
     0
281
     0
  0
CLASS
  1
ACAMCONTEXTMODELER
  2
AcAmContextModeler
  3
DesignerAssemblies
 90
        0
 91
        1
280
     0
281
     0
  0
CLASS
  1
ACMDATADICTIONARY
  2
AcmDataDictionary
  3
"AcmSymBB|Product Description: AutoCAD Mechanical 2004 DX|Company: Autodesk"
 90
        0
 91
        1
280
     0
281
     0
  0
CLASS
  1
CATALOGSTATE
  2
AcAmCatalogState
  3
DesignerAssemblies
 90
        0
 91
        1
280
     0
281
     0
  0
CLASS
  1
ACAMGRCOMPDEFSET
  2
AcAmGrCompDefSet
  3
DesignerAssemblies
 90
        0
 91
        1
280
     0
281
     0
  0
CLASS
  1
AMDTBROWSERDBTAB
  2
AmdtBrowserDbTab
  3
McadcomServices
 90
        0
 91
        1
280
     0
281
     0
  0
CLASS
  1
CBROWSERAPPOBJECT
  2
CBrowserAppObject
  3
McadcomServices
 90
        0
 91
        3
280
     0
281
     0
  0
CLASS
  1
DM_PLACEHOLDER
  2
AcDmSelsetPlaceholder
  3
AcMechDwgViewMgmt
 90
        0
 91
        1
280
     0
281
     0
  0
CLASS
  1
ACMSTANDARDANSI
  2
AcmStandardANSI
  3
"Amdt_StdImp|Product Description: AutoCAD Mechanical 2004 DX|Company: Autodesk"
 90
        0
 91
        1
280
     0
281
     0
  0
CLASS
  1
AMGOBJPROPCFG
  2
AmgObjPropCfg
  3
"AmgLay|Product Description: AutoCAD Mechanical 2000|Company: Autodesk"
 90
        1
 91
        1
280
     0
281
     0
  0
CLASS
  1
ACMSURFSTANDARDANSI
  2
AcmSurfTextStdANSI
  3
"Amdt_StdImp|Product Description: AutoCAD Mechanical 2004 DX|Company: Autodesk"
 90
        0
 91
        1
280
     0
281
     0
  0
CLASS
  1
ACMFCFSTANDARDANSI
  2
AcmFCFStdANSI
  3
"Amdt_StdImp|Product Description: AutoCAD Mechanical 2004 DX|Company: Autodesk"
 90
        0
 91
        1
280
     0
281
     0
  0
CLASS
  1
ACMWELDSTANDARDANSI
  2
AcmWeldingStdANSI
  3
"Amdt_StdImp|Product Description: AutoCAD Mechanical 2004 DX|Company: Autodesk"
 90
        0
 91
        1
280
     0
281
     0
  0
CLASS
  1
ACMIDSTANDARDANSI
  2
AcmIdStdANSI
  3
"Amdt_StdImp|Product Description: AutoCAD Mechanical 2004 DX|Company: Autodesk"
 90
        0
 91
        1
280
     0
281
     0
  0
CLASS
  1
ACMDATUMSTANDARDANSI
  2
AcmDatumStdANSI
  3
"Amdt_StdImp|Product Description: AutoCAD Mechanical 2004 DX|Company: Autodesk"
 90
        0
 91
        1
280
     0
281
     0
  0
CLASS
  1
ACMBOMSTANDARDANSI
  2
AcmBOMStdANSI
  3
"Amdt_StdImp|Product Description: AutoCAD Mechanical 2004 DX|Company: Autodesk"
 90
        0
 91
        1
280
     0
281
     0
  0
CLASS
  1
ACMDETAILSTANDARDANSI
  2
AmdtDetailSymStdANSI
  3
"Amdt_StdImp|Product Description: AutoCAD Mechanical 2004 DX|Company: Autodesk"
 90
        0
 91
        1
280
     0
281
     0
  0
CLASS
  1
ACMSECTIONSTANDARDANSI
  2
AmdtSectionSymStdANSI
  3
"Amdt_StdImp|Product Description: AutoCAD Mechanical 2004 DX|Company: Autodesk"
 90
        0
 91
        1
280
     0
281
     0
  0
CLASS
  1
ACMCENTERLINESTANDARDANSI
  2
AmdtCenterLineStdANSI
  3
"Amdt_StdImp|Product Description: AutoCAD Mechanical 2004 DX|Company: Autodesk"
 90
        0
 91
        1
280
     0
281
     0
  0
CLASS
  1
ACMTHREADLINESTANDARDANSI
  2
AmdtThreadLineStdANSI
  3
"Amdt_StdImp|Product Description: AutoCAD Mechanical 2004 DX|Company: Autodesk"
 90
        0
 91
        1
280
     0
281
     0
  0
CLASS
  1
ACMNOTESTANDARDANSI
  2
AmdtNoteStdANSI
  3
"Amdt_StdImp|Product Description: AutoCAD Mechanical 2004 DX|Company: Autodesk"
 90
        0
 91
        1
280
     0
281
     0
  0
CLASS
  1
AMDTNOTETEMPLATEDB
  2
AmdtNoteTemplateDB
  3
AMDT_STDIMP_MODULE_NAME
 90
        0
 91
        4
280
     0
281
     0
  0
CLASS
  1
ACAMGLAYSTD
  2
AcAmgLayStd
  3
"AcAmgLayStd|Product Description: AutoCAD Mechanical 2000|Company: Autodesk"
 90
        0
 91
        1
280
     0
281
     0
  0
CLASS
  1
ACAMGDIMSTD
  2
AcAmgDimStd
  3
"AcAmgDimStd|Product Description: AutoCAD Mechanical 2000|Company: Autodesk"
 90
        0
 91
        1
280
     0
281
     0
  0
CLASS
  1
ACAMGHOLECHARTSTDANSI
  2
AcAmgHoleChartStdANSI
  3
ACMSYMBB_MODULE_NAME
 90
        0
 91
        1
280
     0
281
     0
  0
CLASS
  1
ACAMGTITLESTD
  2
AcAmgTitleStd
  3
"TITLEAPP"
 90
        0
 91
        1
280
     0
281
     0
  0
CLASS
  1
ACAMGFILTERDAT
  2
AcAmgFilterDat
  3
"AcadM|Product Description: AutoCAD Mechanical 2000|Company: Autodesk"
 90
        0
 91
        6
280
     0
281
     0
  0
CLASS
  1
TABLESTYLE
  2
AcDbTableStyle
  3
ObjectDBX Classes
 90
     2047
 91
        1
280
     0
281
     0
  0
ENDSEC
  0
SECTION
  2
TABLES
  0
TABLE
  2
VPORT
  5
8
330
0
100
AcDbSymbolTable
 70
     4
  0
VPORT
  5
12149
330
8
100
AcDbSymbolTableRecord
100
AcDbViewportTableRecord
  2
*Active
 70
     0
 10
0.0
 20
0.0
 11
1.0
 21
1.0
 12
-51449.75338690088
 22
13179.27588896538
 13
0.0
 23
0.0
 14
1.0
 24
1.0
 15
0.0
 25
0.0
 16
0.0
 26
0.0
 36
1.0
 17
0.0
 27
0.0
 37
0.0
 40
615.1348526006879
 41
1.504492939666238
 42
50.0
 43
0.0
 44
0.0
 50
0.0
 51
0.0
 71
     0
 72
 20000
 73
     1
 74
     1
 75
     0
 76
     0
 77
     0
 78
     0
281
     0
 65
     0
110
0.0
120
0.0
130
0.0
111
1.0
121
0.0
131
0.0
112
0.0
122
1.0
132
0.0
 79
     0
146
0.0
  0
ENDTAB
  0
TABLE
  2
LTYPE
  5
5
330
0
100
AcDbSymbolTable
 70
    16
  0
LTYPE
  5
14
330
5
100
AcDbSymbolTableRecord
100
AcDbLinetypeTableRecord
  2
ByBlock
 70
     0
  3

 72
    65
 73
     0
 40
0.0
  0
LTYPE
  5
15
330
5
100
AcDbSymbolTableRecord
100
AcDbLinetypeTableRecord
  2
ByLayer
 70
     0
  3

 72
    65
 73
     0
 40
0.0
  0
LTYPE
  5
16
330
5
100
AcDbSymbolTableRecord
100
AcDbLinetypeTableRecord
  2
CONTINUOUS
 70
     0
  3
Solid line
 72
    65
 73
     0
 40
0.0
  0
LTYPE
  5
1F5
330
5
100
AcDbSymbolTableRecord
100
AcDbLinetypeTableRecord
  2
CENTER
 70
     0
  3
____ _ ____ _ ____ _ ____ _ ____ _ ____ _ ____
 72
    65
 73
     4
 40
0.6
 49
0.375
 74
     0
 49
-0.075
 74
     0
 49
0.075
 74
     0
 49
-0.075
 74
     0
  0
LTYPE
  5
1F6
330
5
100
AcDbSymbolTableRecord
100
AcDbLinetypeTableRecord
  2
HIDDEN
 70
     0
  3
- - - - - - - - - - - - - - - - - - - -
 72
    65
 73
     2
 40
0.2
 49
0.1
 74
     0
 49
-0.1
 74
     0
  0
LTYPE
  5
499
330
5
100
AcDbSymbolTableRecord
100
AcDbLinetypeTableRecord
  2
PHANTOM2
 70
     0
  3
Phantom (.5x) ___ _ _ ___ _ _ ___ _ _ ___ _ _
 72
    65
 73
     6
 40
1.25
 49
0.625
 74
     0
 49
-0.125
 74
     0
 49
0.125
 74
     0
 49
-0.125
 74
     0
 49
0.125
 74
     0
 49
-0.125
 74
     0
  0
LTYPE
  5
4E3
330
5
100
AcDbSymbolTableRecord
100
AcDbLinetypeTableRecord
  2
Amconstr
 70
     0
  3
_______________________
 72
    65
 73
     2
 40
9999.0
 49
9999.0
 74
     0
 49
0.0
 74
     0
  0
LTYPE
  5
4E9
330
5
100
AcDbSymbolTableRecord
100
AcDbLinetypeTableRecord
  2
CENTER2
 70
     0
  3
Center (.5x) ___ _ ___ _ ___ _ ___ _ ___ _ ___
 72
    65
 73
     4
 40
1.125
 49
0.75
 74
     0
 49
-0.125
 74
     0
 49
0.125
 74
     0
 49
-0.125
 74
     0
  0
LTYPE
  5
4EA
330
5
100
AcDbSymbolTableRecord
100
AcDbLinetypeTableRecord
  2
HIDDEN2
 70
     0
  3
Hidden (.5x) _ _ _ _ _ _ _ _ _ _ _ _ _ _ _ _ _
 72
    65
 73
     2
 40
0.1875
 49
0.125
 74
     0
 49
-0.0625
 74
     0
  0
LTYPE
  5
4EB
330
5
100
AcDbSymbolTableRecord
100
AcDbLinetypeTableRecord
  2
Amzigzag2
 70
     0
  3
/\/-/\/-/\/-/\/-/\/-/\/
 72
    65
 73
     2
 40
0.4401
 49
0.0001
 74
     4
 75
   135
340
4E7
 46
0.0016
 50
0.0
 44
0.0
 45
0.0
 49
-0.4400000000000001
 74
     0
  0
LTYPE
  5
4F9
330
5
100
AcDbSymbolTableRecord
100
AcDbLinetypeTableRecord
  2
ACANSTGB
 70
     0
  3
__ . . __ . .
 72
    65
 73
     6
 40
0.35433070866
 49
0.15748031496
 74
     0
 49
-0.03937007874
 74
     0
 49
0.03937007874
 74
     0
 49
-0.03937007874
 74
     0
 49
0.03937007874
 74
     0
 49
-0.03937007874
 74
     0
  0
LTYPE
  5
4FA
330
5
100
AcDbSymbolTableRecord
100
AcDbLinetypeTableRecord
  2
ACANSTGL
 70
     0
  3
_ _ _ _ _
 72
    65
 73
     2
 40
0.11811023622
 49
0.07874015748
 74
     0
 49
-0.03937007874
 74
     0
  0
LTYPE
  5
F3D4
330
5
100
AcDbSymbolTableRecord
100
AcDbLinetypeTableRecord
  2
AM_ISO02W050
 70
     0
  3
__ __ __ __ __ __ __ __ __ __ __ __ __ __ __
 72
    65
 73
     2
 40
7.5
 49
6.0
 74
     0
 49
-1.5
 74
     0
  0
LTYPE
  5
F3D5
330
5
100
AcDbSymbolTableRecord
100
AcDbLinetypeTableRecord
  2
AM_ISO08W050
 70
     0
  3
____ . ____ . ____ . ____ . ____ . ____ . ____
 72
    65
 73
     4
 40
18.0
 49
12.0
 74
     0
 49
-1.5
 74
     0
 49
3.0
 74
     0
 49
-1.5
 74
     0
  0
LTYPE
  5
F3D6
330
5
100
AcDbSymbolTableRecord
100
AcDbLinetypeTableRecord
  2
AM_ISO09W050
 70
     0
  3
_____ . . _____ . . _____ . . ____ .. ____
 72
    65
 73
     6
 40
22.5
 49
12.0
 74
     0
 49
-1.5
 74
     0
 49
3.0
 74
     0
 49
-1.5
 74
     0
 49
3.0
 74
     0
 49
-1.5
 74
     0
  0
LTYPE
  5
F3D7
330
5
100
AcDbSymbolTableRecord
100
AcDbLinetypeTableRecord
  2
AM_ISO08W050x2
 70
     0
  3
__ . __ . __ . __ . __ . __
 72
    65
 73
     4
 40
9.0
 49
6.0
 74
     0
 49
-0.75
 74
     0
 49
1.5
 74
     0
 49
-0.75
 74
     0
  0
LTYPE
  5
F3D8
330
5
100
AcDbSymbolTableRecord
100
AcDbLinetypeTableRecord
  2
AM_ISO02W050x2
 70
     0
  3
 _ _ _ _ _ _ _ _ _ _ _ _
 72
    65
 73
     2
 40
3.75
 49
3.0
 74
     0
 49
-0.75
 74
     0
  0
LTYPE
  5
F3D9
330
5
100
AcDbSymbolTableRecord
100
AcDbLinetypeTableRecord
  2
Amzigzag
 70
     0
  3
/\/-/\/-/\/-/\/-/\/-/\/
 72
    65
 73
     2
 40
11.0001
 49
0.0001
 74
     4
 75
   135
340
4E7
 46
0.04
 50
0.0
 44
0.0
 45
0.0
 49
-11.0
 74
     0
  0
ENDTAB
  0
TABLE
  2
LAYER
  5
2
102
{ACAD_XDICTIONARY
360
7BD
102
}
330
0
100
AcDbSymbolTable
 70
    11
  0
LAYER
  5
10
330
2
100
AcDbSymbolTableRecord
100
AcDbLayerTableRecord
  2
0
 70
     0
 62
     7
  6
CONTINUOUS
370
    -3
390
F
  0
LAYER
  5
BAA
330
2
100
AcDbSymbolTableRecord
100
AcDbLayerTableRecord
  2
dim
 70
     0
 62
     2
  6
CONTINUOUS
370
    -3
390
F
  0
LAYER
  5
1905
330
2
100
AcDbSymbolTableRecord
100
AcDbLayerTableRecord
  2
cen
 70
     0
 62
     1
  6
CENTER2
370
    -3
390
F
  0
LAYER
  5
2634
330
2
100
AcDbSymbolTableRecord
100
AcDbLayerTableRecord
  2
titleblock
 70
     0
 62
     2
  6
CONTINUOUS
370
    -3
390
F
  0
LAYER
  5
89BC
330
2
100
AcDbSymbolTableRecord
100
AcDbLayerTableRecord
  2
hid
 70
     0
 62
     5
  6
HIDDEN
370
    -3
390
F
  0
LAYER
  5
E8D3
330
2
100
AcDbSymbolTableRecord
100
AcDbLayerTableRecord
  2
Defpoints
 70
     0
 62
     7
  6
CONTINUOUS
290
     0
370
    -3
390
F
  0
LAYER
  5
F043
330
2
100
AcDbSymbolTableRecord
100
AcDbLayerTableRecord
  2
hat
 70
     0
 62
     4
  6
CONTINUOUS
370
    -3
390
F
  0
LAYER
  5
110FB
330
2
100
AcDbSymbolTableRecord
100
AcDbLayerTableRecord
  2
3467
 70
     0
 62
     7
  6
CONTINUOUS
370
    -3
390
F
  0
LAYER
  5
11899
330
2
100
AcDbSymbolTableRecord
100
AcDbLayerTableRecord
  2
DEFAULT_2
 70
     0
 62
     8
  6
HIDDEN
370
    -3
390
F
  0
LAYER
  5
1189A
330
2
100
AcDbSymbolTableRecord
100
AcDbLayerTableRecord
  2
1
 70
     0
 62
     2
  6
CENTER2
370
    -3
390
F
  0
LAYER
  5
1208C
330
2
100
AcDbSymbolTableRecord
100
AcDbLayerTableRecord
  2
II
 70
     0
 62
     4
  6
HIDDEN
370
    -3
390
F
  0
ENDTAB
  0
TABLE
  2
STYLE
  5
3
330
0
100
AcDbSymbolTable
 70
     5
  0
STYLE
  5
11
330
3
100
AcDbSymbolTableRecord
100
AcDbTextStyleTableRecord
  2
STANDARD
 70
     0
 40
0.0
 41
0.8
 50
0.0
 71
     0
 42
18.24038416454277
  3
txt
  4

  0
STYLE
  5
4E7
330
3
100
AcDbSymbolTableRecord
100
AcDbTextStyleTableRecord
  2

 70
     1
 40
0.0
 41
1.0
 50
0.0
 71
     0
 42
0.2
  3
ltypeshp.shx
  4

  0
STYLE
  5
4EC
330
3
100
AcDbSymbolTableRecord
100
AcDbTextStyleTableRecord
  2
ACANSTS
 70
     0
 40
1.0
 41
1.0
 50
0.0
 71
     0
 42
0.2
  3
romans.shx
  4
gbcbig.shx
  0
STYLE
  5
4F8
330
3
100
AcDbSymbolTableRecord
100
AcDbTextStyleTableRecord
  2
ACANSGDT
 70
     0
 40
0.0
 41
1.0
 50
0.0
 71
     0
 42
0.2
  3
amgdtans.shx
  4

  0
STYLE
  5
11868
330
3
100
AcDbSymbolTableRecord
100
AcDbTextStyleTableRecord
  2
hz
 70
     0
 40
0.0
 41
0.8
 50
0.0
 71
     0
 42
9.743462296453799
  3

  4

1001
ACAD
1000
SimSun
1071
    34306
  0
ENDTAB
  0
TABLE
  2
VIEW
  5
6
330
0
100
AcDbSymbolTable
 70
     0
  0
ENDTAB
  0
TABLE
  2
UCS
  5
7
330
0
100
AcDbSymbolTable
 70
     0
  0
ENDTAB
  0
TABLE
  2
APPID
  5
9
330
0
100
AcDbSymbolTable
 70
    13
  0
APPID
  5
20D
330
9
100
AcDbSymbolTableRecord
100
AcDbRegAppTableRecord
  2
ACAD
 70
     0
  0
APPID
  5
47D
330
9
100
AcDbSymbolTableRecord
100
AcDbRegAppTableRecord
  2
MCAD_NO_VIS
 70
     0
  0
APPID
  5
47E
330
9
100
AcDbSymbolTableRecord
100
AcDbRegAppTableRecord
  2
ACAD_TEMP_GRAPHIC
 70
     0
  0
APPID
  5
4AE
330
9
100
AcDbSymbolTableRecord
100
AcDbRegAppTableRecord
  2
AD_DRAW
 70
     0
  0
APPID
  5
4B1
330
9
100
AcDbSymbolTableRecord
100
AcDbRegAppTableRecord
  2
ACATTRIBSERVICES
 70
     0
  0
APPID
  5
4CF
330
9
100
AcDbSymbolTableRecord
100
AcDbRegAppTableRecord
  2
DESIGNERASSEMBLIES
 70
     0
  0
APPID
  5
4D5
330
9
100
AcDbSymbolTableRecord
100
AcDbRegAppTableRecord
  2
ACADM_DIM_EDIT
 70
     0
  0
APPID
  5
4D6
330
9
100
AcDbSymbolTableRecord
100
AcDbRegAppTableRecord
  2
AMDT_DM_ADJ
 70
     0
  0
APPID
  5
518
330
9
100
AcDbSymbolTableRecord
100
AcDbRegAppTableRecord
  2
DCO15
 70
     0
  0
APPID
  5
342D
330
9
100
AcDbSymbolTableRecord
100
AcDbRegAppTableRecord
  2
GENIUS_GENDTOL_13
 70
     0
  0
APPID
  5
AA83
330
9
100
AcDbSymbolTableRecord
100
AcDbRegAppTableRecord
  2
ACAD_DSTYLE_DIMTEXT_FILL
 70
     0
  0
APPID
  5
12114
330
9
100
AcDbSymbolTableRecord
100
AcDbRegAppTableRecord
  2
ACAD_DSTYLE_DIMARC_LENGTH_SYMBOL
 70
     0
  0
APPID
  5
12115
330
9
100
AcDbSymbolTableRecord
100
AcDbRegAppTableRecord
  2
ACAD_DSTYLE_DIMJOGGED_JOGANGLE_SYMBOL
 70
     0
  0
ENDTAB
  0
TABLE
  2
DIMSTYLE
  5
A
330
0
100
AcDbSymbolTable
 70
    10
100
AcDbDimStyleTable
 71
     1
340
20E
  0
DIMSTYLE
105
20E
330
A
100
AcDbSymbolTableRecord
100
AcDbDimStyleTableRecord
  2
STANDARD
 70
     0
 40
35.0
 41
0.1875
 47
0.001
 48
0.001
 78
     9
140
0.15625
271
     1
272
     1
284
     4
340
11
  0
DIMSTYLE
105
503
330
A
100
AcDbSymbolTableRecord
100
AcDbDimStyleTableRecord
  2
AM_ANSI
 70
     0
  4
mm
 41
0.1
 42
0.05
 43
0.5
 44
0.1
 47
0.1
 48
0.1
 78
     7
 79
     2
140
0.12
141
0.0
146
0.71
147
0.06
176
   256
177
   256
178
     2
274
     4
284
     7
340
11
371
    -1
372
    -1
1001
ACAD_DSTYLE_DIMARC_LENGTH_SYMBOL
1070
   379
1070
     1
1001
ACAD_DSTYLE_DIMJOGGED_JOGANGLE_SYMBOL
1070
   384
1040
0.7853981633974483
  0
DIMSTYLE
105
504
330
A
100
AcDbSymbolTableRecord
100
AcDbDimStyleTableRecord
  2
AM_ANSI$3
 70
     0
  4
mm
 41
0.1
 42
0.05
 43
0.5
 44
0.1
 47
0.1
 48
0.1
 78
     7
 79
     2
140
0.12
141
0.0
146
0.71
147
0.06
176
   256
177
   256
178
     2
274
     4
284
     7
288
     1
289
     0
340
11
371
    -1
372
    -1
1001
ACAD_DSTYLE_DIMARC_LENGTH_SYMBOL
1070
   379
1070
     1
1001
ACAD_DSTYLE_DIMJOGGED_JOGANGLE_SYMBOL
1070
   384
1040
0.7853981633974483
  0
DIMSTYLE
105
505
330
A
100
AcDbSymbolTableRecord
100
AcDbDimStyleTableRecord
  2
AM_ANSI$4
 70
     0
  4
mm
 41
0.1
 42
0.05
 43
0.5
 44
0.1
 47
0.1
 48
0.1
 78
     7
 79
     2
140
0.12
141
0.0
146
0.71
147
0.06
176
   256
177
   256
178
     2
274
     4
284
     7
288
     1
289
     0
340
11
371
    -1
372
    -1
1001
ACAD_DSTYLE_DIMARC_LENGTH_SYMBOL
1070
   379
1070
     1
1001
ACAD_DSTYLE_DIMJOGGED_JOGANGLE_SYMBOL
1070
   384
1040
0.7853981633974483
  0
DIMSTYLE
105
506
330
A
100
AcDbSymbolTableRecord
100
AcDbDimStyleTableRecord
  2
AM_ANSI$7
 70
     0
  4
mm
 41
0.1
 42
0.05
 43
0.5
 44
0.1
 47
0.1
 48
0.1
 78
     7
 79
     2
140
0.24
141
0.0
146
0.71
147
0.06
176
   256
177
   256
178
     2
274
     4
284
     7
340
11
371
    -1
372
    -1
1001
ACAD_DSTYLE_DIMARC_LENGTH_SYMBOL
1070
   379
1070
     1
1001
ACAD_DSTYLE_DIMJOGGED_JOGANGLE_SYMBOL
1070
   384
1040
0.7853981633974483
  0
DIMSTYLE
105
507
330
A
100
AcDbSymbolTableRecord
100
AcDbDimStyleTableRecord
  2
AM_ANSI$SF
 70
     0
  4
mm
 41
0.1
 42
0.05
 43
0.5
 44
0.1
 47
0.1
 48
0.1
 75
     1
 76
     1
 78
     7
 79
     2
140
0.12
141
0.0
146
0.71
147
0.06
176
   256
177
   256
178
     2
274
     4
284
     7
340
11
371
    -1
372
    -1
1001
ACAD_DSTYLE_DIMARC_LENGTH_SYMBOL
1070
   379
1070
     1
1001
ACAD_DSTYLE_DIMJOGGED_JOGANGLE_SYMBOL
1070
   384
1040
0.7853981633974483
  0
DIMSTYLE
105
50C
330
A
100
AcDbSymbolTableRecord
100
AcDbDimStyleTableRecord
  2
AM_ANSI$SH
 70
     0
  4
mm
 41
0.1
 42
0.05
 43
0.5
 44
0.1
 47
0.1
 48
0.1
 75
     1
 76
     1
 78
     7
 79
     2
140
0.12
141
0.0
146
0.71
147
0.06
173
     1
176
   256
177
   256
178
     2
274
     4
284
     7
340
11
343
508
371
    -1
372
    -1
1001
ACAD_DSTYLE_DIMARC_LENGTH_SYMBOL
1070
   379
1070
     1
1001
ACAD_DSTYLE_DIMJOGGED_JOGANGLE_SYMBOL
1070
   384
1040
0.7853981633974483
  0
DIMSTYLE
105
110FC
330
A
100
AcDbSymbolTableRecord
100
AcDbDimStyleTableRecord
  2
chenming
 70
     0
 40
35.0
 41
0.1875
 47
0.001
 48
0.001
 78
    12
 79
     2
140
0.15625
179
     1
271
     1
272
     1
284
     4
340
11
341
86F3
  0
DIMSTYLE
105
110FD
330
A
100
AcDbSymbolTableRecord
100
AcDbDimStyleTableRecord
  2
STANDARD0.5
 70
     0
 40
40.0
 41
0.1875
 44
0.12
 47
0.001
 48
0.001
 78
     4
140
0.15625
144
0.5
179
     1
271
     1
272
     1
284
     4
340
11
  0
DIMSTYLE
105
110FE
330
A
100
AcDbSymbolTableRecord
100
AcDbDimStyleTableRecord
  2
instruction
 70
     0
 40
40.0
 41
0.1875
 44
0.12
 47
0.001
 48
0.001
 78
     4
140
0.15625
271
     0
272
     0
284
     4
340
11
  0
ENDTAB
  0
TABLE
  2
BLOCK_RECORD
  5
1
330
0
100
AcDbSymbolTable
 70
   148
  0
BLOCK_RECORD
  5
1F
102
{ACAD_XDICTIONARY
360
51A
102
}
330
1
100
AcDbSymbolTableRecord
100
AcDbBlockTableRecord
  2
*MODEL_SPACE
340
22
  0
BLOCK_RECORD
  5
1B
330
1
100
AcDbSymbolTableRecord
100
AcDbBlockTableRecord
  2
*PAPER_SPACE
340
1E
  0
BLOCK_RECORD
  5
508
330
1
100
AcDbSymbolTableRecord
100
AcDbBlockTableRecord
  2
GENAXEH
340
0
  0
BLOCK_RECORD
  5
2516
330
1
100
AcDbSymbolTableRecord
100
AcDbBlockTableRecord
  2
KOHLER_BL0
340
0
102
{BLKREFS
331
F47B
102
}
  0
BLOCK_RECORD
  5
25DB
330
1
100
AcDbSymbolTableRecord
100
AcDbBlockTableRecord
  2
C_ARROW_BL1
340
0
102
{BLKREFS
331
F47C
331
F5BD
102
}
  0
BLOCK_RECORD
  5
25EF
330
1
100
AcDbSymbolTableRecord
100
AcDbBlockTableRecord
  2
C_ARROW_BL2
340
0
102
{BLKREFS
331
F47D
331
F5BE
102
}
  0
BLOCK_RECORD
  5
2603
330
1
100
AcDbSymbolTableRecord
100
AcDbBlockTableRecord
  2
C_ARROW_BL3
340
0
102
{BLKREFS
331
F47E
331
F5BF
102
}
  0
BLOCK_RECORD
  5
2617
330
1
100
AcDbSymbolTableRecord
100
AcDbBlockTableRecord
  2
C_ARROW_BL4
340
0
102
{BLKREFS
331
F47F
102
}
  0
BLOCK_RECORD
  5
86F3
330
1
100
AcDbSymbolTableRecord
100
AcDbBlockTableRecord
  2
_CLOSED
340
0
  0
BLOCK_RECORD
  5
C0E8
330
1
100
AcDbSymbolTableRecord
100
AcDbBlockTableRecord
  2
C_ARROW_BL0
340
0
102
{BLKREFS
331
F5BC
102
}
  0
BLOCK_RECORD
  5
C0FF
102
{ACAD_XDICTIONARY
360
C275
102
}
330
1
100
AcDbSymbolTableRecord
100
AcDbBlockTableRecord
  2
china_e
340
0
  0
BLOCK_RECORD
  5
F3DA
102
{ACAD_XDICTIONARY
360
F4DE
102
}
330
1
100
AcDbSymbolTableRecord
100
AcDbBlockTableRecord
  2
china_d
340
0
  0
ENDTAB
  0
ENDSEC
  0
SECTION
  2
BLOCKS
  0
BLOCK
  5
20
330
1F
100
AcDbEntity
  8
0
100
AcDbBlockBegin
  2
*MODEL_SPACE
 70
     0
 10
0.0
 20
0.0
 30
0.0
  3
*MODEL_SPACE
  1

  0
ENDBLK
  5
21
330
1F
100
AcDbEntity
  8
0
100
AcDbBlockEnd
  0
BLOCK
  5
1C
330
1B
100
AcDbEntity
 67
     1
  8
0
100
AcDbBlockBegin
  2
*PAPER_SPACE
 70
     0
 10
0.0
 20
0.0
 30
0.0
  3
*PAPER_SPACE
  1

  0
ENDBLK
  5
1D
330
1B
100
AcDbEntity
 67
     1
  8
0
100
AcDbBlockEnd
  0
BLOCK
  5
50A
330
508
100
AcDbEntity
  8
0
370
     0
100
AcDbBlockBegin
  2
GENAXEH
 70
     0
 10
0.0
 20
0.0
 30
0.0
  3
GENAXEH
  1

  0
LINE
  5
509
330
508
100
AcDbEntity
  8
0
100
AcDbLine
 10
-1.0
 20
0.0
 30
0.0
 11
1.0
 21
0.0
 31
0.0
  0
ENDBLK
  5
50B
330
508
100
AcDbEntity
  8
0
370
     0
100
AcDbBlockEnd
  0
BLOCK
  5
2517
330
2516
100
AcDbEntity
  8
0
 62
     2
100
AcDbBlockBegin
  2
KOHLER_BL0
 70
     0
 10
30.1873715
 20
2.174145999999999
 30
0.0
  3
KOHLER_BL0
  1

  0
ARC
  5
2518
330
2516
100
AcDbEntity
  8
0
  6
Continuous
 62
     2
100
AcDbCircle
 10
30.753184
 20
2.22961475
 30
0.0
 40
0.03065625
100
AcDbArc
 50
270.0000000000006
 51
90.00000000000019
  0
LINE
  5
2519
330
2516
100
AcDbEntity
  8
0
  6
Continuous
 62
     2
100
AcDbLine
 10
29.503184
 20
2.033520999999999
 30
0.0
 11
29.503184
 21
2.314770999999999
 31
0.0
  0
LINE
  5
251A
330
2516
100
AcDbEntity
  8
0
  6
Continuous
 62
     2
100
AcDbLine
 10
29.503184
 20
2.314770999999999
 30
0.0
 11
29.570184
 21
2.314770999999999
 31
0.0
  0
LINE
  5
251B
330
2516
100
AcDbEntity
  8
0
  6
Continuous
 62
     2
100
AcDbLine
 10
29.503184
 20
2.033520999999999
 30
0.0
 11
29.570184
 21
2.033520999999999
 31
0.0
  0
LINE
  5
251C
330
2516
100
AcDbEntity
  8
0
  6
Continuous
 62
     2
100
AcDbLine
 10
29.753184
 20
2.314770999999999
 30
0.0
 11
29.628184
 21
2.189770999999999
 31
0.0
  0
LINE
  5
251D
330
2516
100
AcDbEntity
  8
0
  6
Continuous
 62
     2
100
AcDbLine
 10
29.628184
 20
2.189770999999999
 30
0.0
 11
29.753184
 21
2.033520999999999
 31
0.0
  0
CIRCLE
  5
251E
330
2516
100
AcDbEntity
  8
0
  6
Continuous
 62
     2
100
AcDbCircle
 10
29.862559
 20
2.174145999999999
 30
0.0
 40
0.073625
  0
LINE
  5
251F
330
2516
100
AcDbEntity
  8
0
  6
Continuous
 62
     2
100
AcDbLine
 10
29.6673821352
 20
2.033520999999999
 30
0.0
 11
29.753184
 21
2.033520999999999
 31
0.0
  0
CIRCLE
  5
2520
330
2516
100
AcDbEntity
  8
0
  6
Continuous
 62
     2
100
AcDbCircle
 10
29.862559
 20
2.174145999999999
 30
0.0
 40
0.140625
  0
LINE
  5
2521
330
2516
100
AcDbEntity
  8
0
  6
Continuous
 62
     2
100
AcDbLine
 10
29.570184
 20
2.033520999999999
 30
0.0
 11
29.570184
 21
2.155018668999999
 31
0.0
  0
LINE
  5
2522
330
2516
100
AcDbEntity
  8
0
  6
Continuous
 62
     2
100
AcDbLine
 10
29.6584316913
 20
2.314770999999999
 30
0.0
 11
29.570184
 21
2.2265233087
 31
0.0
  0
LINE
  5
2523
330
2516
100
AcDbEntity
  8
0
  6
Continuous
 62
     2
100
AcDbLine
 10
29.570184
 20
2.155018668999999
 30
0.0
 11
29.6673821352
 21
2.033520999999999
 31
0.0
  0
LINE
  5
2524
330
2516
100
AcDbEntity
  8
0
  6
Continuous
 62
     2
100
AcDbLine
 10
29.6584316913
 20
2.314770999999999
 30
0.0
 11
29.753184
 21
2.314770999999999
 31
0.0
  0
LINE
  5
2525
330
2516
100
AcDbEntity
  8
0
  6
Continuous
 62
     2
100
AcDbLine
 10
29.570184
 20
2.314770999999999
 30
0.0
 11
29.570184
 21
2.2265233087
 31
0.0
  0
LINE
  5
2526
330
2516
100
AcDbEntity
  8
0
  6
Continuous
 62
     2
100
AcDbLine
 10
30.034434
 20
2.314770999999999
 30
0.0
 11
30.034434
 21
2.033520999999999
 31
0.0
  0
LINE
  5
2527
330
2516
100
AcDbEntity
  8
0
  6
Continuous
 62
     2
100
AcDbLine
 10
30.101434
 20
2.033520999999999
 30
0.0
 11
30.101434
 21
2.156270999999999
 31
0.0
  0
LINE
  5
2528
330
2516
100
AcDbEntity
  8
0
  6
Continuous
 62
     2
100
AcDbLine
 10
30.101434
 20
2.223270999999999
 30
0.0
 11
30.101434
 21
2.314770999999999
 31
0.0
  0
LINE
  5
2529
330
2516
100
AcDbEntity
  8
0
  6
Continuous
 62
     2
100
AcDbLine
 10
30.179559
 20
2.033520999999999
 30
0.0
 11
30.179559
 21
2.156270999999999
 31
0.0
  0
LINE
  5
252A
330
2516
100
AcDbEntity
  8
0
  6
Continuous
 62
     2
100
AcDbLine
 10
30.179559
 20
2.223270999999999
 30
0.0
 11
30.179559
 21
2.314770999999999
 31
0.0
  0
LINE
  5
252B
330
2516
100
AcDbEntity
  8
0
  6
Continuous
 62
     2
100
AcDbLine
 10
30.246559
 20
2.314770999999999
 30
0.0
 11
30.246559
 21
2.033520999999999
 31
0.0
  0
LINE
  5
252C
330
2516
100
AcDbEntity
  8
0
  6
Continuous
 62
     2
100
AcDbLine
 10
30.101434
 20
2.223270999999999
 30
0.0
 11
30.179559
 21
2.223270999999999
 31
0.0
  0
LINE
  5
252D
330
2516
100
AcDbEntity
  8
0
  6
Continuous
 62
     2
100
AcDbLine
 10
30.101434
 20
2.156270999999999
 30
0.0
 11
30.179559
 21
2.156270999999999
 31
0.0
  0
LINE
  5
252E
330
2516
100
AcDbEntity
  8
0
  6
Continuous
 62
     2
100
AcDbLine
 10
30.179559
 20
2.033520999999999
 30
0.0
 11
30.246559
 21
2.033520999999999
 31
0.0
  0
LINE
  5
252F
330
2516
100
AcDbEntity
  8
0
  6
Continuous
 62
     2
100
AcDbLine
 10
30.034434
 20
2.033520999999999
 30
0.0
 11
30.101434
 21
2.033520999999999
 31
0.0
  0
LINE
  5
2530
330
2516
100
AcDbEntity
  8
0
  6
Continuous
 62
     2
100
AcDbLine
 10
30.179559
 20
2.314770999999999
 30
0.0
 11
30.246559
 21
2.314770999999999
 31
0.0
  0
LINE
  5
2531
330
2516
100
AcDbEntity
  8
0
  6
Continuous
 62
     2
100
AcDbLine
 10
30.034434
 20
2.314770999999999
 30
0.0
 11
30.101434
 21
2.314770999999999
 31
0.0
  0
LINE
  5
2532
330
2516
100
AcDbEntity
  8
0
  6
Continuous
 62
     2
100
AcDbLine
 10
30.277809
 20
2.314770999999999
 30
0.0
 11
30.277809
 21
2.033520999999999
 31
0.0
  0
LINE
  5
2533
330
2516
100
AcDbEntity
  8
0
  6
Continuous
 62
     2
100
AcDbLine
 10
30.434059
 20
2.100521
 30
0.0
 11
30.434059
 21
2.033520999999999
 31
0.0
  0
LINE
  5
2534
330
2516
100
AcDbEntity
  8
0
  6
Continuous
 62
     2
100
AcDbLine
 10
30.277809
 20
2.033520999999999
 30
0.0
 11
30.434059
 21
2.033520999999999
 31
0.0
  0
LINE
  5
2535
330
2516
100
AcDbEntity
  8
0
  6
Continuous
 62
     2
100
AcDbLine
 10
30.344809
 20
2.100521
 30
0.0
 11
30.344809
 21
2.314770999999999
 31
0.0
  0
LINE
  5
2536
330
2516
100
AcDbEntity
  8
0
  6
Continuous
 62
     2
100
AcDbLine
 10
30.344809
 20
2.100521
 30
0.0
 11
30.434059
 21
2.100521
 31
0.0
  0
LINE
  5
2537
330
2516
100
AcDbEntity
  8
0
  6
Continuous
 62
     2
100
AcDbLine
 10
30.277809
 20
2.314770999999999
 30
0.0
 11
30.344809
 21
2.314770999999999
 31
0.0
  0
LINE
  5
2538
330
2516
100
AcDbEntity
  8
0
  6
Continuous
 62
     2
100
AcDbLine
 10
30.465309
 20
2.033520999999999
 30
0.0
 11
30.621559
 21
2.033520999999999
 31
0.0
  0
LINE
  5
2539
330
2516
100
AcDbEntity
  8
0
  6
Continuous
 62
     2
100
AcDbLine
 10
30.621559
 20
2.100521
 30
0.0
 11
30.621559
 21
2.033520999999999
 31
0.0
  0
LINE
  5
253A
330
2516
100
AcDbEntity
  8
0
  6
Continuous
 62
     2
100
AcDbLine
 10
30.532309
 20
2.100521
 30
0.0
 11
30.621559
 21
2.100521
 31
0.0
  0
LINE
  5
253B
330
2516
100
AcDbEntity
  8
0
  6
Continuous
 62
     2
100
AcDbLine
 10
30.532309
 20
2.148458499999999
 30
0.0
 11
30.532309
 21
2.100521
 31
0.0
  0
LINE
  5
253C
330
2516
100
AcDbEntity
  8
0
  6
Continuous
 62
     2
100
AcDbLine
 10
30.532309
 20
2.247771
 30
0.0
 11
30.621559
 21
2.247771
 31
0.0
  0
LINE
  5
253D
330
2516
100
AcDbEntity
  8
0
  6
Continuous
 62
     2
100
AcDbLine
 10
30.465309
 20
2.314770999999999
 30
0.0
 11
30.465309
 21
2.033520999999999
 31
0.0
  0
LINE
  5
253E
330
2516
100
AcDbEntity
  8
0
  6
Continuous
 62
     2
100
AcDbLine
 10
30.621559
 20
2.247771
 30
0.0
 11
30.621559
 21
2.314770999999999
 31
0.0
  0
LINE
  5
253F
330
2516
100
AcDbEntity
  8
0
  6
Continuous
 62
     2
100
AcDbLine
 10
30.465309
 20
2.314770999999999
 30
0.0
 11
30.621559
 21
2.314770999999999
 31
0.0
  0
LINE
  5
2540
330
2516
100
AcDbEntity
  8
0
  6
Continuous
 62
     2
100
AcDbLine
 10
30.532309
 20
2.199833499999999
 30
0.0
 11
30.621559
 21
2.199833499999999
 31
0.0
  0
LINE
  5
2541
330
2516
100
AcDbEntity
  8
0
  6
Continuous
 62
     2
100
AcDbLine
 10
30.621559
 20
2.199833499999999
 30
0.0
 11
30.621559
 21
2.148458499999999
 31
0.0
  0
LINE
  5
2542
330
2516
100
AcDbEntity
  8
0
  6
Continuous
 62
     2
100
AcDbLine
 10
30.532309
 20
2.148458499999999
 30
0.0
 11
30.621559
 21
2.148458499999999
 31
0.0
  0
LINE
  5
2543
330
2516
100
AcDbEntity
  8
0
  6
Continuous
 62
     2
100
AcDbLine
 10
30.532309
 20
2.199833499999999
 30
0.0
 11
30.532309
 21
2.247771
 31
0.0
  0
LINE
  5
2544
330
2516
100
AcDbEntity
  8
0
  6
Continuous
 62
     2
100
AcDbLine
 10
30.652809
 20
2.033520999999999
 30
0.0
 11
30.652809
 21
2.314770999999999
 31
0.0
  0
LINE
  5
2545
330
2516
100
AcDbEntity
  8
0
  6
Continuous
 62
     2
100
AcDbLine
 10
30.719809
 20
2.142895999999999
 30
0.0
 11
30.719809
 21
2.033520999999999
 31
0.0
  0
ARC
  5
2546
330
2516
100
AcDbEntity
  8
0
  6
Continuous
 62
     2
100
AcDbCircle
 10
30.7543715
 20
2.228833499999999
 30
0.0
 40
0.0859375
100
AcDbArc
 50
304.1679402531007
 51
90.00000000000019
  0
LINE
  5
2547
330
2516
100
AcDbEntity
  8
0
  6
Continuous
 62
     2
100
AcDbLine
 10
30.7543715
 20
2.314770999999999
 30
0.0
 11
30.652809
 21
2.314770999999999
 31
0.0
  0
LINE
  5
2548
330
2516
100
AcDbEntity
  8
0
  6
Continuous
 62
     2
100
AcDbLine
 10
30.753184
 20
2.260270999999999
 30
0.0
 11
30.719809
 21
2.260270999999999
 31
0.0
  0
LINE
  5
2549
330
2516
100
AcDbEntity
  8
0
  6
Continuous
 62
     2
100
AcDbLine
 10
30.8026357616
 20
2.1577292458
 30
0.0
 11
30.871559
 21
2.033520999999999
 31
0.0
  0
LINE
  5
254A
330
2516
100
AcDbEntity
  8
0
  6
Continuous
 62
     2
100
AcDbLine
 10
30.7949350526
 20
2.033520999999999
 30
0.0
 11
30.7342427922
 21
2.142895999999999
 31
0.0
  0
LINE
  5
254B
330
2516
100
AcDbEntity
  8
0
  6
Continuous
 62
     2
100
AcDbLine
 10
30.652809
 20
2.033520999999999
 30
0.0
 11
30.719809
 21
2.033520999999999
 31
0.0
  0
LINE
  5
254C
330
2516
100
AcDbEntity
  8
0
  6
Continuous
 62
     2
100
AcDbLine
 10
30.7949350526
 20
2.033520999999999
 30
0.0
 11
30.871559
 21
2.033520999999999
 31
0.0
  0
LINE
  5
254D
330
2516
100
AcDbEntity
  8
0
  6
Continuous
 62
     2
100
AcDbLine
 10
30.753184
 20
2.198958499999999
 30
0.0
 11
30.719809
 21
2.198958499999999
 31
0.0
  0
LINE
  5
254E
330
2516
100
AcDbEntity
  8
0
  6
Continuous
 62
     2
100
AcDbLine
 10
30.719809
 20
2.260270999999999
 30
0.0
 11
30.719809
 21
2.198958499999999
 31
0.0
  0
LINE
  5
254F
330
2516
100
AcDbEntity
  8
0
  6
Continuous
 62
     2
100
AcDbLine
 10
30.719809
 20
2.142895999999999
 30
0.0
 11
30.7342427922
 21
2.142895999999999
 31
0.0
  0
POLYLINE
  5
2550
330
2516
100
AcDbEntity
  8
0
  6
Continuous
 62
     2
100
AcDb2dPolyline
 66
     1
 10
0.0
 20
0.0
 30
0.0
 70
     1
  0
VERTEX
  5
2551
330
2550
100
AcDbEntity
  8
0
  6
Continuous
 62
     2
100
AcDbVertex
100
AcDb2dVertex
 10
30.871559
 20
2.033520999999999
 30
0.0
  0
VERTEX
  5
2552
330
2550
100
AcDbEntity
  8
0
  6
Continuous
 62
     2
100
AcDbVertex
100
AcDb2dVertex
 10
30.7949350526
 20
2.033520999999999
 30
0.0
  0
VERTEX
  5
2553
330
2550
100
AcDbEntity
  8
0
  6
Continuous
 62
     2
100
AcDbVertex
100
AcDb2dVertex
 10
30.7342427922
 20
2.142895999999999
 30
0.0
  0
VERTEX
  5
2554
330
2550
100
AcDbEntity
  8
0
  6
Continuous
 62
     2
100
AcDbVertex
100
AcDb2dVertex
 10
30.719809
 20
2.142895999999999
 30
0.0
  0
VERTEX
  5
2555
330
2550
100
AcDbEntity
  8
0
  6
Continuous
 62
     2
100
AcDbVertex
100
AcDb2dVertex
 10
30.719809
 20
2.033520999999999
 30
0.0
  0
VERTEX
  5
2556
330
2550
100
AcDbEntity
  8
0
  6
Continuous
 62
     2
100
AcDbVertex
100
AcDb2dVertex
 10
30.652809
 20
2.033520999999999
 30
0.0
  0
VERTEX
  5
2557
330
2550
100
AcDbEntity
  8
0
  6
Continuous
 62
     2
100
AcDbVertex
100
AcDb2dVertex
 10
30.652809
 20
2.260270999999999
 30
0.0
  0
VERTEX
  5
2558
330
2550
100
AcDbEntity
  8
0
  6
Continuous
 62
     2
100
AcDbVertex
100
AcDb2dVertex
 10
30.719809
 20
2.260270999999999
 30
0.0
  0
VERTEX
  5
2559
330
2550
100
AcDbEntity
  8
0
  6
Continuous
 62
     2
100
AcDbVertex
100
AcDb2dVertex
 10
30.719809
 20
2.198958499999999
 30
0.0
  0
VERTEX
  5
255A
330
2550
100
AcDbEntity
  8
0
  6
Continuous
 62
     2
100
AcDbVertex
100
AcDb2dVertex
 10
30.753184
 20
2.198958499999999
 30
0.0
  0
VERTEX
  5
255B
330
2550
100
AcDbEntity
  8
0
  6
Continuous
 62
     2
100
AcDbVertex
100
AcDb2dVertex
 10
30.833650134
 20
2.198958499999999
 30
0.0
  0
VERTEX
  5
255C
330
2550
100
AcDbEntity
  8
0
  6
Continuous
 62
     2
100
AcDbVertex
100
AcDb2dVertex
 10
30.8247683179
 20
2.1795431162
 30
0.0
  0
VERTEX
  5
255D
330
2550
100
AcDbEntity
  8
0
  6
Continuous
 62
     2
100
AcDbVertex
100
AcDb2dVertex
 10
30.8026357616
 20
2.1577292458
 30
0.0
  0
VERTEX
  5
255E
330
2550
100
AcDbEntity
  8
0
  6
Continuous
 62
     2
100
AcDbVertex
100
AcDb2dVertex
 10
30.871559
 20
2.033520999999999
 30
0.0
  0
SEQEND
  5
255F
330
2550
100
AcDbEntity
  8
0
  6
Continuous
 62
     2
  0
POLYLINE
  5
2560
330
2516
100
AcDbEntity
  8
0
  6
Continuous
 62
     2
100
AcDb2dPolyline
 66
     1
 10
0.0
 20
0.0
 30
0.0
 70
     1
  0
VERTEX
  5
2561
330
2560
100
AcDbEntity
  8
0
  6
Continuous
 62
     2
100
AcDbVertex
100
AcDb2dVertex
 10
30.652809
 20
2.260270999999999
 30
0.0
  0
VERTEX
  5
2562
330
2560
100
AcDbEntity
  8
0
  6
Continuous
 62
     2
100
AcDbVertex
100
AcDb2dVertex
 10
30.652809
 20
2.314770999999999
 30
0.0
  0
VERTEX
  5
2563
330
2560
100
AcDbEntity
  8
0
  6
Continuous
 62
     2
100
AcDbVertex
100
AcDb2dVertex
 10
30.7543715
 20
2.314770999999999
 30
0.0
  0
VERTEX
  5
2564
330
2560
100
AcDbEntity
  8
0
  6
Continuous
 62
     2
100
AcDbVertex
100
AcDb2dVertex
 10
30.7849349823
 20
2.309152410999999
 30
0.0
  0
VERTEX
  5
2565
330
2560
100
AcDbEntity
  8
0
  6
Continuous
 62
     2
100
AcDbVertex
100
AcDb2dVertex
 10
30.811501987
 20
2.293031329899999
 30
0.0
  0
VERTEX
  5
2566
330
2560
100
AcDbEntity
  8
0
  6
Continuous
 62
     2
100
AcDbVertex
100
AcDb2dVertex
 10
30.8305986155
 20
2.268515747599999
 30
0.0
  0
VERTEX
  5
2567
330
2560
100
AcDbEntity
  8
0
  6
Continuous
 62
     2
100
AcDbVertex
100
AcDb2dVertex
 10
30.8397277946
 20
2.238811318999999
 30
0.0
  0
VERTEX
  5
2568
330
2560
100
AcDbEntity
  8
0
  6
Continuous
 62
     2
100
AcDbVertex
100
AcDb2dVertex
 10
30.8376957941
 20
2.207802191799999
 30
0.0
  0
VERTEX
  5
2569
330
2560
100
AcDbEntity
  8
0
  6
Continuous
 62
     2
100
AcDbVertex
100
AcDb2dVertex
 10
30.833650134
 20
2.198958499999999
 30
0.0
  0
VERTEX
  5
256A
330
2560
100
AcDbEntity
  8
0
  6
Continuous
 62
     2
100
AcDbVertex
100
AcDb2dVertex
 10
30.753184
 20
2.198958499999999
 30
0.0
  0
VERTEX
  5
256B
330
2560
100
AcDbEntity
  8
0
  6
Continuous
 62
     2
100
AcDbVertex
100
AcDb2dVertex
 10
30.768512125
 20
2.203065658699999
 30
0.0
  0
VERTEX
  5
256C
330
2560
100
AcDbEntity
  8
0
  6
Continuous
 62
     2
100
AcDbVertex
100
AcDb2dVertex
 10
30.7797330913
 20
2.214286625
 30
0.0
  0
VERTEX
  5
256D
330
2560
100
AcDbEntity
  8
0
  6
Continuous
 62
     2
100
AcDbVertex
100
AcDb2dVertex
 10
30.78384025
 20
2.22961475
 30
0.0
  0
VERTEX
  5
256E
330
2560
100
AcDbEntity
  8
0
  6
Continuous
 62
     2
100
AcDbVertex
100
AcDb2dVertex
 10
30.7797330913
 20
2.244942875
 30
0.0
  0
VERTEX
  5
256F
330
2560
100
AcDbEntity
  8
0
  6
Continuous
 62
     2
100
AcDbVertex
100
AcDb2dVertex
 10
30.768512125
 20
2.256163841299999
 30
0.0
  0
VERTEX
  5
2570
330
2560
100
AcDbEntity
  8
0
  6
Continuous
 62
     2
100
AcDbVertex
100
AcDb2dVertex
 10
30.753184
 20
2.260270999999999
 30
0.0
  0
VERTEX
  5
2571
330
2560
100
AcDbEntity
  8
0
  6
Continuous
 62
     2
100
AcDbVertex
100
AcDb2dVertex
 10
30.719809
 20
2.260270999999999
 30
0.0
  0
VERTEX
  5
2572
330
2560
100
AcDbEntity
  8
0
  6
Continuous
 62
     2
100
AcDbVertex
100
AcDb2dVertex
 10
30.652809
 20
2.260270999999999
 30
0.0
  0
SEQEND
  5
2573
330
2560
100
AcDbEntity
  8
0
  6
Continuous
 62
     2
  0
POLYLINE
  5
2574
330
2516
100
AcDbEntity
  8
0
  6
Continuous
 62
     2
100
AcDb2dPolyline
 66
     1
 10
0.0
 20
0.0
 30
0.0
 70
     1
  0
VERTEX
  5
2575
330
2574
100
AcDbEntity
  8
0
  6
Continuous
 62
     2
100
AcDbVertex
100
AcDb2dVertex
 10
29.570184
 20
2.033520999999999
 30
0.0
  0
VERTEX
  5
2576
330
2574
100
AcDbEntity
  8
0
  6
Continuous
 62
     2
100
AcDbVertex
100
AcDb2dVertex
 10
29.503184
 20
2.033520999999999
 30
0.0
  0
VERTEX
  5
2577
330
2574
100
AcDbEntity
  8
0
  6
Continuous
 62
     2
100
AcDbVertex
100
AcDb2dVertex
 10
29.503184
 20
2.314770999999999
 30
0.0
  0
VERTEX
  5
2578
330
2574
100
AcDbEntity
  8
0
  6
Continuous
 62
     2
100
AcDbVertex
100
AcDb2dVertex
 10
29.570184
 20
2.314770999999999
 30
0.0
  0
VERTEX
  5
2579
330
2574
100
AcDbEntity
  8
0
  6
Continuous
 62
     2
100
AcDbVertex
100
AcDb2dVertex
 10
29.570184
 20
2.2265233087
 30
0.0
  0
VERTEX
  5
257A
330
2574
100
AcDbEntity
  8
0
  6
Continuous
 62
     2
100
AcDbVertex
100
AcDb2dVertex
 10
29.6584316913
 20
2.314770999999999
 30
0.0
  0
VERTEX
  5
257B
330
2574
100
AcDbEntity
  8
0
  6
Continuous
 62
     2
100
AcDbVertex
100
AcDb2dVertex
 10
29.753184
 20
2.314770999999999
 30
0.0
  0
VERTEX
  5
257C
330
2574
100
AcDbEntity
  8
0
  6
Continuous
 62
     2
100
AcDbVertex
100
AcDb2dVertex
 10
29.628184
 20
2.189770999999999
 30
0.0
  0
VERTEX
  5
257D
330
2574
100
AcDbEntity
  8
0
  6
Continuous
 62
     2
100
AcDbVertex
100
AcDb2dVertex
 10
29.753184
 20
2.033520999999999
 30
0.0
  0
VERTEX
  5
257E
330
2574
100
AcDbEntity
  8
0
  6
Continuous
 62
     2
100
AcDbVertex
100
AcDb2dVertex
 10
29.6673821352
 20
2.033520999999999
 30
0.0
  0
VERTEX
  5
257F
330
2574
100
AcDbEntity
  8
0
  6
Continuous
 62
     2
100
AcDbVertex
100
AcDb2dVertex
 10
29.570184
 20
2.155018668999999
 30
0.0
  0
VERTEX
  5
2580
330
2574
100
AcDbEntity
  8
0
  6
Continuous
 62
     2
100
AcDbVertex
100
AcDb2dVertex
 10
29.570184
 20
2.033520999999999
 30
0.0
  0
SEQEND
  5
2581
330
2574
100
AcDbEntity
  8
0
  6
Continuous
 62
     2
  0
POLYLINE
  5
2582
330
2516
100
AcDbEntity
  8
0
  6
Continuous
 62
     2
100
AcDb2dPolyline
 66
     1
 10
0.0
 20
0.0
 30
0.0
 70
     1
  0
VERTEX
  5
2583
330
2582
100
AcDbEntity
  8
0
  6
Continuous
 62
     2
100
AcDbVertex
100
AcDb2dVertex
 10
29.862559
 20
2.033520999999999
 30
0.0
  0
VERTEX
  5
2584
330
2582
100
AcDbEntity
  8
0
  6
Continuous
 62
     2
100
AcDbVertex
100
AcDb2dVertex
 10
29.8191034852
 20
2.0404036774
 30
0.0
  0
VERTEX
  5
2585
330
2582
100
AcDbEntity
  8
0
  6
Continuous
 62
     2
100
AcDbVertex
100
AcDb2dVertex
 10
29.7799016989
 20
2.0603779852
 30
0.0
  0
VERTEX
  5
2586
330
2582
100
AcDbEntity
  8
0
  6
Continuous
 62
     2
100
AcDbVertex
100
AcDb2dVertex
 10
29.7487909852
 20
2.0914886989
 30
0.0
  0
VERTEX
  5
2587
330
2582
100
AcDbEntity
  8
0
  6
Continuous
 62
     2
100
AcDbVertex
100
AcDb2dVertex
 10
29.7288166774
 20
2.1306904852
 30
0.0
  0
VERTEX
  5
2588
330
2582
100
AcDbEntity
  8
0
  6
Continuous
 62
     2
100
AcDbVertex
100
AcDb2dVertex
 10
29.721934
 20
2.174145999999999
 30
0.0
  0
VERTEX
  5
2589
330
2582
100
AcDbEntity
  8
0
  6
Continuous
 62
     2
100
AcDbVertex
100
AcDb2dVertex
 10
29.7288166774
 20
2.2176015148
 30
0.0
  0
VERTEX
  5
258A
330
2582
100
AcDbEntity
  8
0
  6
Continuous
 62
     2
100
AcDbVertex
100
AcDb2dVertex
 10
29.7440287706
 20
2.2474569287
 30
0.0
  0
VERTEX
  5
258B
330
2582
100
AcDbEntity
  8
0
  6
Continuous
 62
     2
100
AcDbVertex
100
AcDb2dVertex
 10
29.869352258
 20
2.2474569287
 30
0.0
  0
VERTEX
  5
258C
330
2582
100
AcDbEntity
  8
0
  6
Continuous
 62
     2
100
AcDbVertex
100
AcDb2dVertex
 10
29.8424105624
 20
2.244960412999999
 30
0.0
  0
VERTEX
  5
258D
330
2582
100
AcDbEntity
  8
0
  6
Continuous
 62
     2
100
AcDbVertex
100
AcDb2dVertex
 10
29.8181900249
 20
2.2329000184
 30
0.0
  0
VERTEX
  5
258E
330
2582
100
AcDbEntity
  8
0
  6
Continuous
 62
     2
100
AcDbVertex
100
AcDb2dVertex
 10
29.7999617634
 20
2.212904567999999
 30
0.0
  0
VERTEX
  5
258F
330
2582
100
AcDbEntity
  8
0
  6
Continuous
 62
     2
100
AcDbVertex
100
AcDb2dVertex
 10
29.7901876055
 20
2.187674558199999
 30
0.0
  0
VERTEX
  5
2590
330
2582
100
AcDbEntity
  8
0
  6
Continuous
 62
     2
100
AcDbVertex
100
AcDb2dVertex
 10
29.7901876055
 20
2.160617441799999
 30
0.0
  0
VERTEX
  5
2591
330
2582
100
AcDbEntity
  8
0
  6
Continuous
 62
     2
100
AcDbVertex
100
AcDb2dVertex
 10
29.7999617634
 20
2.135387431999999
 30
0.0
  0
VERTEX
  5
2592
330
2582
100
AcDbEntity
  8
0
  6
Continuous
 62
     2
100
AcDbVertex
100
AcDb2dVertex
 10
29.8181900249
 20
2.1153919816
 30
0.0
  0
VERTEX
  5
2593
330
2582
100
AcDbEntity
  8
0
  6
Continuous
 62
     2
100
AcDbVertex
100
AcDb2dVertex
 10
29.8424105624
 20
2.103331587
 30
0.0
  0
VERTEX
  5
2594
330
2582
100
AcDbEntity
  8
0
  6
Continuous
 62
     2
100
AcDbVertex
100
AcDb2dVertex
 10
29.869352258
 20
2.1008350713
 30
0.0
  0
VERTEX
  5
2595
330
2582
100
AcDbEntity
  8
0
  6
Continuous
 62
     2
100
AcDbVertex
100
AcDb2dVertex
 10
29.9810892294
 20
2.1008350713
 30
0.0
  0
VERTEX
  5
2596
330
2582
100
AcDbEntity
  8
0
  6
Continuous
 62
     2
100
AcDbVertex
100
AcDb2dVertex
 10
29.9763270148
 20
2.0914886989
 30
0.0
  0
VERTEX
  5
2597
330
2582
100
AcDbEntity
  8
0
  6
Continuous
 62
     2
100
AcDbVertex
100
AcDb2dVertex
 10
29.9452163011
 20
2.0603779852
 30
0.0
  0
VERTEX
  5
2598
330
2582
100
AcDbEntity
  8
0
  6
Continuous
 62
     2
100
AcDbVertex
100
AcDb2dVertex
 10
29.9060145148
 20
2.0404036774
 30
0.0
  0
VERTEX
  5
2599
330
2582
100
AcDbEntity
  8
0
  6
Continuous
 62
     2
100
AcDbVertex
100
AcDb2dVertex
 10
29.862559
 20
2.033520999999999
 30
0.0
  0
SEQEND
  5
259A
330
2582
100
AcDbEntity
  8
0
  6
Continuous
 62
     2
  0
POLYLINE
  5
259B
330
2516
100
AcDbEntity
  8
0
  6
Continuous
 62
     2
100
AcDb2dPolyline
 66
     1
 10
0.0
 20
0.0
 30
0.0
 70
     1
  0
VERTEX
  5
259C
330
259B
100
AcDbEntity
  8
0
  6
Continuous
 62
     2
100
AcDbVertex
100
AcDb2dVertex
 10
29.7440287706
 20
2.2474569287
 30
0.0
  0
VERTEX
  5
259D
330
259B
100
AcDbEntity
  8
0
  6
Continuous
 62
     2
100
AcDbVertex
100
AcDb2dVertex
 10
29.7487909852
 20
2.2568033011
 30
0.0
  0
VERTEX
  5
259E
330
259B
100
AcDbEntity
  8
0
  6
Continuous
 62
     2
100
AcDbVertex
100
AcDb2dVertex
 10
29.7799016989
 20
2.2879140148
 30
0.0
  0
VERTEX
  5
259F
330
259B
100
AcDbEntity
  8
0
  6
Continuous
 62
     2
100
AcDbVertex
100
AcDb2dVertex
 10
29.8191034852
 20
2.3078883226
 30
0.0
  0
VERTEX
  5
25A0
330
259B
100
AcDbEntity
  8
0
  6
Continuous
 62
     2
100
AcDbVertex
100
AcDb2dVertex
 10
29.862559
 20
2.314770999999999
 30
0.0
  0
VERTEX
  5
25A1
330
259B
100
AcDbEntity
  8
0
  6
Continuous
 62
     2
100
AcDbVertex
100
AcDb2dVertex
 10
29.9060145148
 20
2.3078883226
 30
0.0
  0
VERTEX
  5
25A2
330
259B
100
AcDbEntity
  8
0
  6
Continuous
 62
     2
100
AcDbVertex
100
AcDb2dVertex
 10
29.9452163011
 20
2.2879140148
 30
0.0
  0
VERTEX
  5
25A3
330
259B
100
AcDbEntity
  8
0
  6
Continuous
 62
     2
100
AcDbVertex
100
AcDb2dVertex
 10
29.9763270148
 20
2.2568033011
 30
0.0
  0
VERTEX
  5
25A4
330
259B
100
AcDbEntity
  8
0
  6
Continuous
 62
     2
100
AcDbVertex
100
AcDb2dVertex
 10
29.9963013226
 20
2.2176015148
 30
0.0
  0
VERTEX
  5
25A5
330
259B
100
AcDbEntity
  8
0
  6
Continuous
 62
     2
100
AcDbVertex
100
AcDb2dVertex
 10
30.003184
 20
2.174145999999999
 30
0.0
  0
VERTEX
  5
25A6
330
259B
100
AcDbEntity
  8
0
  6
Continuous
 62
     2
100
AcDbVertex
100
AcDb2dVertex
 10
29.9963013226
 20
2.1306904852
 30
0.0
  0
VERTEX
  5
25A7
330
259B
100
AcDbEntity
  8
0
  6
Continuous
 62
     2
100
AcDbVertex
100
AcDb2dVertex
 10
29.9810892294
 20
2.1008350713
 30
0.0
  0
VERTEX
  5
25A8
330
259B
100
AcDbEntity
  8
0
  6
Continuous
 62
     2
100
AcDbVertex
100
AcDb2dVertex
 10
29.869352258
 20
2.1008350713
 30
0.0
  0
VERTEX
  5
25A9
330
259B
100
AcDbEntity
  8
0
  6
Continuous
 62
     2
100
AcDbVertex
100
AcDb2dVertex
 10
29.8953764864
 20
2.108239602699999
 30
0.0
  0
VERTEX
  5
25AA
330
259B
100
AcDbEntity
  8
0
  6
Continuous
 62
     2
100
AcDbVertex
100
AcDb2dVertex
 10
29.9169685315
 20
2.1245451582
 30
0.0
  0
VERTEX
  5
25AB
330
259B
100
AcDbEntity
  8
0
  6
Continuous
 62
     2
100
AcDbVertex
100
AcDb2dVertex
 10
29.9312122679
 20
2.147549582299999
 30
0.0
  0
VERTEX
  5
25AC
330
259B
100
AcDbEntity
  8
0
  6
Continuous
 62
     2
100
AcDbVertex
100
AcDb2dVertex
 10
29.936184
 20
2.174145999999999
 30
0.0
  0
VERTEX
  5
25AD
330
259B
100
AcDbEntity
  8
0
  6
Continuous
 62
     2
100
AcDbVertex
100
AcDb2dVertex
 10
29.9312122679
 20
2.200742417699999
 30
0.0
  0
VERTEX
  5
25AE
330
259B
100
AcDbEntity
  8
0
  6
Continuous
 62
     2
100
AcDbVertex
100
AcDb2dVertex
 10
29.9169685315
 20
2.2237468418
 30
0.0
  0
VERTEX
  5
25AF
330
259B
100
AcDbEntity
  8
0
  6
Continuous
 62
     2
100
AcDbVertex
100
AcDb2dVertex
 10
29.8953764864
 20
2.240052397299999
 30
0.0
  0
VERTEX
  5
25B0
330
259B
100
AcDbEntity
  8
0
  6
Continuous
 62
     2
100
AcDbVertex
100
AcDb2dVertex
 10
29.869352258
 20
2.2474569287
 30
0.0
  0
VERTEX
  5
25B1
330
259B
100
AcDbEntity
  8
0
  6
Continuous
 62
     2
100
AcDbVertex
100
AcDb2dVertex
 10
29.7440287706
 20
2.2474569287
 30
0.0
  0
SEQEND
  5
25B2
330
259B
100
AcDbEntity
  8
0
  6
Continuous
 62
     2
  0
POLYLINE
  5
25B3
330
2516
100
AcDbEntity
  8
0
  6
Continuous
 62
     2
100
AcDb2dPolyline
 66
     1
 10
0.0
 20
0.0
 30
0.0
 70
     1
  0
VERTEX
  5
25B4
330
25B3
100
AcDbEntity
  8
0
  6
Continuous
 62
     2
100
AcDbVertex
100
AcDb2dVertex
 10
30.101434
 20
2.033520999999999
 30
0.0
  0
VERTEX
  5
25B5
330
25B3
100
AcDbEntity
  8
0
  6
Continuous
 62
     2
100
AcDbVertex
100
AcDb2dVertex
 10
30.034434
 20
2.033520999999999
 30
0.0
  0
VERTEX
  5
25B6
330
25B3
100
AcDbEntity
  8
0
  6
Continuous
 62
     2
100
AcDbVertex
100
AcDb2dVertex
 10
30.034434
 20
2.314770999999999
 30
0.0
  0
VERTEX
  5
25B7
330
25B3
100
AcDbEntity
  8
0
  6
Continuous
 62
     2
100
AcDbVertex
100
AcDb2dVertex
 10
30.101434
 20
2.314770999999999
 30
0.0
  0
VERTEX
  5
25B8
330
25B3
100
AcDbEntity
  8
0
  6
Continuous
 62
     2
100
AcDbVertex
100
AcDb2dVertex
 10
30.101434
 20
2.223270999999999
 30
0.0
  0
VERTEX
  5
25B9
330
25B3
100
AcDbEntity
  8
0
  6
Continuous
 62
     2
100
AcDbVertex
100
AcDb2dVertex
 10
30.179559
 20
2.223270999999999
 30
0.0
  0
VERTEX
  5
25BA
330
25B3
100
AcDbEntity
  8
0
  6
Continuous
 62
     2
100
AcDbVertex
100
AcDb2dVertex
 10
30.179559
 20
2.314770999999999
 30
0.0
  0
VERTEX
  5
25BB
330
25B3
100
AcDbEntity
  8
0
  6
Continuous
 62
     2
100
AcDbVertex
100
AcDb2dVertex
 10
30.246559
 20
2.314770999999999
 30
0.0
  0
VERTEX
  5
25BC
330
25B3
100
AcDbEntity
  8
0
  6
Continuous
 62
     2
100
AcDbVertex
100
AcDb2dVertex
 10
30.246559
 20
2.033520999999999
 30
0.0
  0
VERTEX
  5
25BD
330
25B3
100
AcDbEntity
  8
0
  6
Continuous
 62
     2
100
AcDbVertex
100
AcDb2dVertex
 10
30.179559
 20
2.033520999999999
 30
0.0
  0
VERTEX
  5
25BE
330
25B3
100
AcDbEntity
  8
0
  6
Continuous
 62
     2
100
AcDbVertex
100
AcDb2dVertex
 10
30.179559
 20
2.156270999999999
 30
0.0
  0
VERTEX
  5
25BF
330
25B3
100
AcDbEntity
  8
0
  6
Continuous
 62
     2
100
AcDbVertex
100
AcDb2dVertex
 10
30.101434
 20
2.156270999999999
 30
0.0
  0
VERTEX
  5
25C0
330
25B3
100
AcDbEntity
  8
0
  6
Continuous
 62
     2
100
AcDbVertex
100
AcDb2dVertex
 10
30.101434
 20
2.033520999999999
 30
0.0
  0
SEQEND
  5
25C1
330
25B3
100
AcDbEntity
  8
0
  6
Continuous
 62
     2
  0
POLYLINE
  5
25C2
330
2516
100
AcDbEntity
  8
0
  6
Continuous
 62
     2
100
AcDb2dPolyline
 66
     1
 10
0.0
 20
0.0
 30
0.0
 70
     1
  0
VERTEX
  5
25C3
330
25C2
100
AcDbEntity
  8
0
  6
Continuous
 62
     2
100
AcDbVertex
100
AcDb2dVertex
 10
30.434059
 20
2.033520999999999
 30
0.0
  0
VERTEX
  5
25C4
330
25C2
100
AcDbEntity
  8
0
  6
Continuous
 62
     2
100
AcDbVertex
100
AcDb2dVertex
 10
30.277809
 20
2.033520999999999
 30
0.0
  0
VERTEX
  5
25C5
330
25C2
100
AcDbEntity
  8
0
  6
Continuous
 62
     2
100
AcDbVertex
100
AcDb2dVertex
 10
30.277809
 20
2.314770999999999
 30
0.0
  0
VERTEX
  5
25C6
330
25C2
100
AcDbEntity
  8
0
  6
Continuous
 62
     2
100
AcDbVertex
100
AcDb2dVertex
 10
30.344809
 20
2.314770999999999
 30
0.0
  0
VERTEX
  5
25C7
330
25C2
100
AcDbEntity
  8
0
  6
Continuous
 62
     2
100
AcDbVertex
100
AcDb2dVertex
 10
30.344809
 20
2.100521
 30
0.0
  0
VERTEX
  5
25C8
330
25C2
100
AcDbEntity
  8
0
  6
Continuous
 62
     2
100
AcDbVertex
100
AcDb2dVertex
 10
30.434059
 20
2.100521
 30
0.0
  0
VERTEX
  5
25C9
330
25C2
100
AcDbEntity
  8
0
  6
Continuous
 62
     2
100
AcDbVertex
100
AcDb2dVertex
 10
30.434059
 20
2.033520999999999
 30
0.0
  0
SEQEND
  5
25CA
330
25C2
100
AcDbEntity
  8
0
  6
Continuous
 62
     2
  0
POLYLINE
  5
25CB
330
2516
100
AcDbEntity
  8
0
  6
Continuous
 62
     2
100
AcDb2dPolyline
 66
     1
 10
0.0
 20
0.0
 30
0.0
 70
     1
  0
VERTEX
  5
25CC
330
25CB
100
AcDbEntity
  8
0
  6
Continuous
 62
     2
100
AcDbVertex
100
AcDb2dVertex
 10
30.621559
 20
2.033520999999999
 30
0.0
  0
VERTEX
  5
25CD
330
25CB
100
AcDbEntity
  8
0
  6
Continuous
 62
     2
100
AcDbVertex
100
AcDb2dVertex
 10
30.465309
 20
2.033520999999999
 30
0.0
  0
VERTEX
  5
25CE
330
25CB
100
AcDbEntity
  8
0
  6
Continuous
 62
     2
100
AcDbVertex
100
AcDb2dVertex
 10
30.465309
 20
2.314770999999999
 30
0.0
  0
VERTEX
  5
25CF
330
25CB
100
AcDbEntity
  8
0
  6
Continuous
 62
     2
100
AcDbVertex
100
AcDb2dVertex
 10
30.621559
 20
2.314770999999999
 30
0.0
  0
VERTEX
  5
25D0
330
25CB
100
AcDbEntity
  8
0
  6
Continuous
 62
     2
100
AcDbVertex
100
AcDb2dVertex
 10
30.621559
 20
2.247771
 30
0.0
  0
VERTEX
  5
25D1
330
25CB
100
AcDbEntity
  8
0
  6
Continuous
 62
     2
100
AcDbVertex
100
AcDb2dVertex
 10
30.532309
 20
2.247771
 30
0.0
  0
VERTEX
  5
25D2
330
25CB
100
AcDbEntity
  8
0
  6
Continuous
 62
     2
100
AcDbVertex
100
AcDb2dVertex
 10
30.532309
 20
2.199833499999999
 30
0.0
  0
VERTEX
  5
25D3
330
25CB
100
AcDbEntity
  8
0
  6
Continuous
 62
     2
100
AcDbVertex
100
AcDb2dVertex
 10
30.621559
 20
2.199833499999999
 30
0.0
  0
VERTEX
  5
25D4
330
25CB
100
AcDbEntity
  8
0
  6
Continuous
 62
     2
100
AcDbVertex
100
AcDb2dVertex
 10
30.621559
 20
2.148458499999999
 30
0.0
  0
VERTEX
  5
25D5
330
25CB
100
AcDbEntity
  8
0
  6
Continuous
 62
     2
100
AcDbVertex
100
AcDb2dVertex
 10
30.532309
 20
2.148458499999999
 30
0.0
  0
VERTEX
  5
25D6
330
25CB
100
AcDbEntity
  8
0
  6
Continuous
 62
     2
100
AcDbVertex
100
AcDb2dVertex
 10
30.532309
 20
2.100521
 30
0.0
  0
VERTEX
  5
25D7
330
25CB
100
AcDbEntity
  8
0
  6
Continuous
 62
     2
100
AcDbVertex
100
AcDb2dVertex
 10
30.621559
 20
2.100521
 30
0.0
  0
VERTEX
  5
25D8
330
25CB
100
AcDbEntity
  8
0
  6
Continuous
 62
     2
100
AcDbVertex
100
AcDb2dVertex
 10
30.621559
 20
2.033520999999999
 30
0.0
  0
SEQEND
  5
25D9
330
25CB
100
AcDbEntity
  8
0
  6
Continuous
 62
     2
  0
ENDBLK
  5
25DA
330
2516
100
AcDbEntity
  8
0
 62
     0
100
AcDbBlockEnd
  0
BLOCK
  5
25DC
330
25DB
100
AcDbEntity
  8
0
 62
     2
100
AcDbBlockBegin
  2
C_ARROW_BL1
 70
     0
 10
17.0
 20
0.3125
 30
0.0
  3
C_ARROW_BL1
  1

  0
LINE
  5
25DD
330
25DB
100
AcDbEntity
  8
0
  6
Continuous
100
AcDbLine
 10
17.0
 20
0.5
 30
0.0
 11
16.90625
 21
0.3125
 31
0.0
  0
LINE
  5
25DE
330
25DB
100
AcDbEntity
  8
0
  6
Continuous
100
AcDbLine
 10
17.0
 20
0.5
 30
0.0
 11
17.09375
 21
0.3125
 31
0.0
  0
LINE
  5
25DF
330
25DB
100
AcDbEntity
  8
0
  6
Continuous
100
AcDbLine
 10
17.0234375
 20
0.3125
 30
0.0
 11
17.09375
 21
0.3125
 31
0.0
  0
LINE
  5
25E0
330
25DB
100
AcDbEntity
  8
0
  6
Continuous
100
AcDbLine
 10
17.0234375
 20
0.125
 30
0.0
 11
17.0234375
 21
0.3125
 31
0.0
  0
LINE
  5
25E1
330
25DB
100
AcDbEntity
  8
0
  6
Continuous
100
AcDbLine
 10
17.0234375
 20
0.125
 30
0.0
 11
16.9765625
 21
0.125
 31
0.0
  0
LINE
  5
25E2
330
25DB
100
AcDbEntity
  8
0
  6
Continuous
100
AcDbLine
 10
16.9765625
 20
0.3125
 30
0.0
 11
16.9765625
 21
0.125
 31
0.0
  0
LINE
  5
25E3
330
25DB
100
AcDbEntity
  8
0
  6
Continuous
100
AcDbLine
 10
16.90625
 20
0.3125
 30
0.0
 11
16.9765625
 21
0.3125
 31
0.0
  0
POLYLINE
  5
25E4
330
25DB
100
AcDbEntity
  8
0
  6
Continuous
 62
     7
100
AcDb2dPolyline
 66
     1
 10
0.0
 20
0.0
 30
0.0
 70
     1
  0
VERTEX
  5
25E5
330
25E4
100
AcDbEntity
  8
0
  6
Continuous
 62
     7
100
AcDbVertex
100
AcDb2dVertex
 10
17.0
 20
0.5
 30
0.0
  0
VERTEX
  5
25E6
330
25E4
100
AcDbEntity
  8
0
  6
Continuous
 62
     7
100
AcDbVertex
100
AcDb2dVertex
 10
17.09375
 20
0.3125
 30
0.0
  0
VERTEX
  5
25E7
330
25E4
100
AcDbEntity
  8
0
  6
Continuous
 62
     7
100
AcDbVertex
100
AcDb2dVertex
 10
17.0234375
 20
0.3125
 30
0.0
  0
VERTEX
  5
25E8
330
25E4
100
AcDbEntity
  8
0
  6
Continuous
 62
     7
100
AcDbVertex
100
AcDb2dVertex
 10
17.0234375
 20
0.125
 30
0.0
  0
VERTEX
  5
25E9
330
25E4
100
AcDbEntity
  8
0
  6
Continuous
 62
     7
100
AcDbVertex
100
AcDb2dVertex
 10
16.9765625
 20
0.125
 30
0.0
  0
VERTEX
  5
25EA
330
25E4
100
AcDbEntity
  8
0
  6
Continuous
 62
     7
100
AcDbVertex
100
AcDb2dVertex
 10
16.9765625
 20
0.3125
 30
0.0
  0
VERTEX
  5
25EB
330
25E4
100
AcDbEntity
  8
0
  6
Continuous
 62
     7
100
AcDbVertex
100
AcDb2dVertex
 10
16.90625
 20
0.3125
 30
0.0
  0
VERTEX
  5
25EC
330
25E4
100
AcDbEntity
  8
0
  6
Continuous
 62
     7
100
AcDbVertex
100
AcDb2dVertex
 10
17.0
 20
0.5
 30
0.0
  0
SEQEND
  5
25ED
330
25E4
100
AcDbEntity
  8
0
  6
Continuous
 62
     7
  0
ENDBLK
  5
25EE
330
25DB
100
AcDbEntity
  8
0
 62
     0
100
AcDbBlockEnd
  0
BLOCK
  5
25F0
330
25EF
100
AcDbEntity
  8
0
 62
     2
100
AcDbBlockBegin
  2
C_ARROW_BL2
 70
     0
 10
17.0
 20
21.6875
 30
0.0
  3
C_ARROW_BL2
  1

  0
LINE
  5
25F1
330
25EF
100
AcDbEntity
  8
0
  6
Continuous
100
AcDbLine
 10
17.0
 20
21.5
 30
0.0
 11
17.09375
 21
21.6875
 31
0.0
  0
LINE
  5
25F2
330
25EF
100
AcDbEntity
  8
0
  6
Continuous
100
AcDbLine
 10
17.0
 20
21.5
 30
0.0
 11
16.90625
 21
21.6875
 31
0.0
  0
LINE
  5
25F3
330
25EF
100
AcDbEntity
  8
0
  6
Continuous
100
AcDbLine
 10
16.9765625
 20
21.6875
 30
0.0
 11
16.90625
 21
21.6875
 31
0.0
  0
LINE
  5
25F4
330
25EF
100
AcDbEntity
  8
0
  6
Continuous
100
AcDbLine
 10
16.9765625
 20
21.875
 30
0.0
 11
16.9765625
 21
21.6875
 31
0.0
  0
LINE
  5
25F5
330
25EF
100
AcDbEntity
  8
0
  6
Continuous
100
AcDbLine
 10
16.9765625
 20
21.875
 30
0.0
 11
17.0234375
 21
21.875
 31
0.0
  0
LINE
  5
25F6
330
25EF
100
AcDbEntity
  8
0
  6
Continuous
100
AcDbLine
 10
17.0234375
 20
21.6875
 30
0.0
 11
17.0234375
 21
21.875
 31
0.0
  0
LINE
  5
25F7
330
25EF
100
AcDbEntity
  8
0
  6
Continuous
100
AcDbLine
 10
17.09375
 20
21.6875
 30
0.0
 11
17.0234375
 21
21.6875
 31
0.0
  0
POLYLINE
  5
25F8
330
25EF
100
AcDbEntity
  8
0
  6
Continuous
 62
     7
100
AcDb2dPolyline
 66
     1
 10
0.0
 20
0.0
 30
0.0
 70
     1
  0
VERTEX
  5
25F9
330
25F8
100
AcDbEntity
  8
0
  6
Continuous
 62
     7
100
AcDbVertex
100
AcDb2dVertex
 10
17.0
 20
21.5
 30
0.0
  0
VERTEX
  5
25FA
330
25F8
100
AcDbEntity
  8
0
  6
Continuous
 62
     7
100
AcDbVertex
100
AcDb2dVertex
 10
16.90625
 20
21.6875
 30
0.0
  0
VERTEX
  5
25FB
330
25F8
100
AcDbEntity
  8
0
  6
Continuous
 62
     7
100
AcDbVertex
100
AcDb2dVertex
 10
16.9765625
 20
21.6875
 30
0.0
  0
VERTEX
  5
25FC
330
25F8
100
AcDbEntity
  8
0
  6
Continuous
 62
     7
100
AcDbVertex
100
AcDb2dVertex
 10
16.9765625
 20
21.875
 30
0.0
  0
VERTEX
  5
25FD
330
25F8
100
AcDbEntity
  8
0
  6
Continuous
 62
     7
100
AcDbVertex
100
AcDb2dVertex
 10
17.0234375
 20
21.875
 30
0.0
  0
VERTEX
  5
25FE
330
25F8
100
AcDbEntity
  8
0
  6
Continuous
 62
     7
100
AcDbVertex
100
AcDb2dVertex
 10
17.0234375
 20
21.6875
 30
0.0
  0
VERTEX
  5
25FF
330
25F8
100
AcDbEntity
  8
0
  6
Continuous
 62
     7
100
AcDbVertex
100
AcDb2dVertex
 10
17.09375
 20
21.6875
 30
0.0
  0
VERTEX
  5
2600
330
25F8
100
AcDbEntity
  8
0
  6
Continuous
 62
     7
100
AcDbVertex
100
AcDb2dVertex
 10
17.0
 20
21.5
 30
0.0
  0
SEQEND
  5
2601
330
25F8
100
AcDbEntity
  8
0
  6
Continuous
 62
     7
  0
ENDBLK
  5
2602
330
25EF
100
AcDbEntity
  8
0
 62
     0
100
AcDbBlockEnd
  0
BLOCK
  5
2604
330
2603
100
AcDbEntity
  8
0
 62
     2
100
AcDbBlockBegin
  2
C_ARROW_BL3
 70
     0
 10
0.3125
 20
11.0
 30
0.0
  3
C_ARROW_BL3
  1

  0
LINE
  5
2605
330
2603
100
AcDbEntity
  8
0
  6
Continuous
100
AcDbLine
 10
0.5
 20
11.0
 30
0.0
 11
0.3125
 21
11.09375
 31
0.0
  0
LINE
  5
2606
330
2603
100
AcDbEntity
  8
0
  6
Continuous
100
AcDbLine
 10
0.5
 20
11.0
 30
0.0
 11
0.3125
 21
10.90625
 31
0.0
  0
LINE
  5
2607
330
2603
100
AcDbEntity
  8
0
  6
Continuous
100
AcDbLine
 10
0.3125
 20
10.9765625
 30
0.0
 11
0.3125
 21
10.90625
 31
0.0
  0
LINE
  5
2608
330
2603
100
AcDbEntity
  8
0
  6
Continuous
100
AcDbLine
 10
0.125
 20
10.9765625
 30
0.0
 11
0.3125
 21
10.9765625
 31
0.0
  0
LINE
  5
2609
330
2603
100
AcDbEntity
  8
0
  6
Continuous
100
AcDbLine
 10
0.125
 20
10.9765625
 30
0.0
 11
0.125
 21
11.0234375
 31
0.0
  0
LINE
  5
260A
330
2603
100
AcDbEntity
  8
0
  6
Continuous
100
AcDbLine
 10
0.3125
 20
11.0234375
 30
0.0
 11
0.125
 21
11.0234375
 31
0.0
  0
LINE
  5
260B
330
2603
100
AcDbEntity
  8
0
  6
Continuous
100
AcDbLine
 10
0.3125
 20
11.09375
 30
0.0
 11
0.3125
 21
11.0234375
 31
0.0
  0
POLYLINE
  5
260C
330
2603
100
AcDbEntity
  8
0
  6
Continuous
 62
     7
100
AcDb2dPolyline
 66
     1
 10
0.0
 20
0.0
 30
0.0
 70
     1
  0
VERTEX
  5
260D
330
260C
100
AcDbEntity
  8
0
  6
Continuous
 62
     7
100
AcDbVertex
100
AcDb2dVertex
 10
0.5
 20
11.0
 30
0.0
  0
VERTEX
  5
260E
330
260C
100
AcDbEntity
  8
0
  6
Continuous
 62
     7
100
AcDbVertex
100
AcDb2dVertex
 10
0.3125
 20
10.90625
 30
0.0
  0
VERTEX
  5
260F
330
260C
100
AcDbEntity
  8
0
  6
Continuous
 62
     7
100
AcDbVertex
100
AcDb2dVertex
 10
0.3125
 20
10.9765625
 30
0.0
  0
VERTEX
  5
2610
330
260C
100
AcDbEntity
  8
0
  6
Continuous
 62
     7
100
AcDbVertex
100
AcDb2dVertex
 10
0.125
 20
10.9765625
 30
0.0
  0
VERTEX
  5
2611
330
260C
100
AcDbEntity
  8
0
  6
Continuous
 62
     7
100
AcDbVertex
100
AcDb2dVertex
 10
0.125
 20
11.0234375
 30
0.0
  0
VERTEX
  5
2612
330
260C
100
AcDbEntity
  8
0
  6
Continuous
 62
     7
100
AcDbVertex
100
AcDb2dVertex
 10
0.3125
 20
11.0234375
 30
0.0
  0
VERTEX
  5
2613
330
260C
100
AcDbEntity
  8
0
  6
Continuous
 62
     7
100
AcDbVertex
100
AcDb2dVertex
 10
0.3125
 20
11.09375
 30
0.0
  0
VERTEX
  5
2614
330
260C
100
AcDbEntity
  8
0
  6
Continuous
 62
     7
100
AcDbVertex
100
AcDb2dVertex
 10
0.5
 20
11.0
 30
0.0
  0
SEQEND
  5
2615
330
260C
100
AcDbEntity
  8
0
  6
Continuous
 62
     7
  0
ENDBLK
  5
2616
330
2603
100
AcDbEntity
  8
0
 62
     0
100
AcDbBlockEnd
  0
BLOCK
  5
2618
330
2617
100
AcDbEntity
  8
0
 62
     2
100
AcDbBlockBegin
  2
C_ARROW_BL4
 70
     0
 10
33.6875
 20
11.0
 30
0.0
  3
C_ARROW_BL4
  1

  0
LINE
  5
2619
330
2617
100
AcDbEntity
  8
0
  6
Continuous
100
AcDbLine
 10
33.5
 20
11.0
 30
0.0
 11
33.6875
 21
10.90625
 31
0.0
  0
LINE
  5
261A
330
2617
100
AcDbEntity
  8
0
  6
Continuous
100
AcDbLine
 10
33.5
 20
11.0
 30
0.0
 11
33.6875
 21
11.09375
 31
0.0
  0
LINE
  5
261B
330
2617
100
AcDbEntity
  8
0
  6
Continuous
100
AcDbLine
 10
33.6875
 20
11.0234375
 30
0.0
 11
33.6875
 21
11.09375
 31
0.0
  0
LINE
  5
261C
330
2617
100
AcDbEntity
  8
0
  6
Continuous
100
AcDbLine
 10
33.875
 20
11.0234375
 30
0.0
 11
33.6875
 21
11.0234375
 31
0.0
  0
LINE
  5
261D
330
2617
100
AcDbEntity
  8
0
  6
Continuous
100
AcDbLine
 10
33.875
 20
11.0234375
 30
0.0
 11
33.875
 21
10.9765625
 31
0.0
  0
LINE
  5
261E
330
2617
100
AcDbEntity
  8
0
  6
Continuous
100
AcDbLine
 10
33.6875
 20
10.9765625
 30
0.0
 11
33.875
 21
10.9765625
 31
0.0
  0
LINE
  5
261F
330
2617
100
AcDbEntity
  8
0
  6
Continuous
100
AcDbLine
 10
33.6875
 20
10.90625
 30
0.0
 11
33.6875
 21
10.9765625
 31
0.0
  0
POLYLINE
  5
2620
330
2617
100
AcDbEntity
  8
0
  6
Continuous
 62
     7
100
AcDb2dPolyline
 66
     1
 10
0.0
 20
0.0
 30
0.0
 70
     1
  0
VERTEX
  5
2621
330
2620
100
AcDbEntity
  8
0
  6
Continuous
 62
     7
100
AcDbVertex
100
AcDb2dVertex
 10
33.5
 20
11.0
 30
0.0
  0
VERTEX
  5
2622
330
2620
100
AcDbEntity
  8
0
  6
Continuous
 62
     7
100
AcDbVertex
100
AcDb2dVertex
 10
33.6875
 20
11.09375
 30
0.0
  0
VERTEX
  5
2623
330
2620
100
AcDbEntity
  8
0
  6
Continuous
 62
     7
100
AcDbVertex
100
AcDb2dVertex
 10
33.6875
 20
11.0234375
 30
0.0
  0
VERTEX
  5
2624
330
2620
100
AcDbEntity
  8
0
  6
Continuous
 62
     7
100
AcDbVertex
100
AcDb2dVertex
 10
33.875
 20
11.0234375
 30
0.0
  0
VERTEX
  5
2625
330
2620
100
AcDbEntity
  8
0
  6
Continuous
 62
     7
100
AcDbVertex
100
AcDb2dVertex
 10
33.875
 20
10.9765625
 30
0.0
  0
VERTEX
  5
2626
330
2620
100
AcDbEntity
  8
0
  6
Continuous
 62
     7
100
AcDbVertex
100
AcDb2dVertex
 10
33.6875
 20
10.9765625
 30
0.0
  0
VERTEX
  5
2627
330
2620
100
AcDbEntity
  8
0
  6
Continuous
 62
     7
100
AcDbVertex
100
AcDb2dVertex
 10
33.6875
 20
10.90625
 30
0.0
  0
VERTEX
  5
2628
330
2620
100
AcDbEntity
  8
0
  6
Continuous
 62
     7
100
AcDbVertex
100
AcDb2dVertex
 10
33.5
 20
11.0
 30
0.0
  0
SEQEND
  5
2629
330
2620
100
AcDbEntity
  8
0
  6
Continuous
 62
     7
  0
ENDBLK
  5
262A
330
2617
100
AcDbEntity
  8
0
 62
     0
100
AcDbBlockEnd
  0
BLOCK
  5
86F4
330
86F3
100
AcDbEntity
  8
0
100
AcDbBlockBegin
  2
_CLOSED
 70
     0
 10
0.0
 20
0.0
 30
0.0
  3
_CLOSED
  1

  0
LINE
  5
86F5
330
86F3
100
AcDbEntity
  8
0
  6
ByBlock
 62
     0
100
AcDbLine
 10
0.0
 20
0.0
 30
0.0
 11
-1.0
 21
0.1666666667
 31
0.0
  0
LINE
  5
86F6
330
86F3
100
AcDbEntity
  8
0
  6
ByBlock
 62
     0
100
AcDbLine
 10
-1.0
 20
0.1666666667
 30
0.0
 11
-1.0
 21
-0.1666666667
 31
0.0
  0
LINE
  5
86F7
330
86F3
100
AcDbEntity
  8
0
  6
ByBlock
 62
     0
100
AcDbLine
 10
-1.0
 20
-0.1666666667
 30
0.0
 11
0.0
 21
0.0
 31
0.0
  0
LINE
  5
86F8
330
86F3
100
AcDbEntity
  8
0
  6
ByBlock
 62
     0
100
AcDbLine
 10
-1.0
 20
0.0
 30
0.0
 11
0.0
 21
0.0
 31
0.0
  0
ENDBLK
  5
86F9
330
86F3
100
AcDbEntity
  8
0
  6
ByBlock
 62
     0
100
AcDbBlockEnd
  0
BLOCK
  5
C0E9
330
C0E8
100
AcDbEntity
  8
0
 62
     8
100
AcDbBlockBegin
  2
C_ARROW_BL0
 70
     0
 10
22.0
 20
33.6875
 30
0.0
  3
C_ARROW_BL0
  1

  0
LINE
  5
C0EA
330
C0E8
100
AcDbEntity
  8
titleblock
  6
HIDDEN
 62
     8
100
AcDbLine
 10
22.0
 20
33.5
 30
0.0
 11
22.09375
 21
33.6875
 31
0.0
  0
LINE
  5
C0EB
330
C0E8
100
AcDbEntity
  8
titleblock
  6
HIDDEN
 62
     8
100
AcDbLine
 10
22.0
 20
33.5
 30
0.0
 11
21.90625
 21
33.6875
 31
0.0
  0
LINE
  5
C0EC
330
C0E8
100
AcDbEntity
  8
titleblock
  6
HIDDEN
 62
     8
100
AcDbLine
 10
21.9765625
 20
33.6875
 30
0.0
 11
21.90625
 21
33.6875
 31
0.0
  0
LINE
  5
C0ED
330
C0E8
100
AcDbEntity
  8
titleblock
  6
HIDDEN
 62
     8
100
AcDbLine
 10
21.9765625
 20
33.875
 30
0.0
 11
21.9765625
 21
33.6875
 31
0.0
  0
LINE
  5
C0EE
330
C0E8
100
AcDbEntity
  8
titleblock
  6
HIDDEN
 62
     8
100
AcDbLine
 10
21.9765625
 20
33.875
 30
0.0
 11
22.0234375
 21
33.875
 31
0.0
  0
LINE
  5
C0EF
330
C0E8
100
AcDbEntity
  8
titleblock
  6
HIDDEN
 62
     8
100
AcDbLine
 10
22.0234375
 20
33.6875
 30
0.0
 11
22.0234375
 21
33.875
 31
0.0
  0
LINE
  5
C0F0
330
C0E8
100
AcDbEntity
  8
titleblock
  6
HIDDEN
 62
     8
100
AcDbLine
 10
22.09375
 20
33.6875
 30
0.0
 11
22.0234375
 21
33.6875
 31
0.0
  0
POLYLINE
  5
C0F1
330
C0E8
100
AcDbEntity
  8
titleblock
  6
HIDDEN
 62
     8
100
AcDb2dPolyline
 66
     1
 10
0.0
 20
0.0
 30
0.0
 70
     1
  0
VERTEX
  5
C0F2
330
C0F1
100
AcDbEntity
  8
titleblock
  6
HIDDEN
 62
     8
100
AcDbVertex
100
AcDb2dVertex
 10
22.0
 20
33.5
 30
0.0
  0
VERTEX
  5
C0F3
330
C0F1
100
AcDbEntity
  8
titleblock
  6
HIDDEN
 62
     8
100
AcDbVertex
100
AcDb2dVertex
 10
21.90625
 20
33.6875
 30
0.0
  0
VERTEX
  5
C0F4
330
C0F1
100
AcDbEntity
  8
titleblock
  6
HIDDEN
 62
     8
100
AcDbVertex
100
AcDb2dVertex
 10
21.9765625
 20
33.6875
 30
0.0
  0
VERTEX
  5
C0F5
330
C0F1
100
AcDbEntity
  8
titleblock
  6
HIDDEN
 62
     8
100
AcDbVertex
100
AcDb2dVertex
 10
21.9765625
 20
33.875
 30
0.0
  0
VERTEX
  5
C0F6
330
C0F1
100
AcDbEntity
  8
titleblock
  6
HIDDEN
 62
     8
100
AcDbVertex
100
AcDb2dVertex
 10
22.0234375
 20
33.875
 30
0.0
  0
VERTEX
  5
C0F7
330
C0F1
100
AcDbEntity
  8
titleblock
  6
HIDDEN
 62
     8
100
AcDbVertex
100
AcDb2dVertex
 10
22.0234375
 20
33.6875
 30
0.0
  0
VERTEX
  5
C0F8
330
C0F1
100
AcDbEntity
  8
titleblock
  6
HIDDEN
 62
     8
100
AcDbVertex
100
AcDb2dVertex
 10
22.09375
 20
33.6875
 30
0.0
  0
VERTEX
  5
C0F9
330
C0F1
100
AcDbEntity
  8
titleblock
  6
HIDDEN
 62
     8
100
AcDbVertex
100
AcDb2dVertex
 10
22.0
 20
33.5
 30
0.0
  0
SEQEND
  5
C0FA
330
C0F1
100
AcDbEntity
  8
titleblock
  6
HIDDEN
 62
     8
  0
ENDBLK
  5
C0FB
330
C0E8
100
AcDbEntity
  8
0
 62
     0
100
AcDbBlockEnd
  0
BLOCK
  5
C276
330
C0FF
100
AcDbEntity
  8
0
370
     0
100
AcDbBlockBegin
  2
china_e
 70
     0
 10
0.0
 20
0.0
 30
0.0
  3
china_e
  1

  0
SOLID
  5
F4E6
330
C0FF
100
AcDbEntity
  8
titleblock
  6
ByBlock
100
AcDbTrace
 10
1036.50443178252
 20
54.59675703181999
 30
0.0
 11
1034.40062598252
 21
54.21999883181999
 31
0.0
 12
1037.06658458252
 22
55.15083263181999
 32
0.0
 13
1037.06658458252
 23
55.15083263181999
 33
0.0
  0
SOLID
  5
F4E7
330
C0FF
100
AcDbEntity
  8
titleblock
  6
ByBlock
100
AcDbTrace
 10
1037.06658458252
 20
55.15083263181999
 30
0.0
 11
1034.40062598252
 21
54.21999883181999
 31
0.0
 12
1037.29218738252
 22
55.64399903182
 32
0.0
 13
1037.29218738252
 23
55.64399903182
 33
0.0
  0
SOLID
  5
F4E8
330
C0FF
100
AcDbEntity
  8
titleblock
  6
ByBlock
100
AcDbTrace
 10
1037.29218738252
 20
55.64399903182
 30
0.0
 11
1034.40062598252
 21
54.21999883181999
 31
0.0
 12
1035.24835098252
 22
55.64399903182
 32
0.0
 13
1035.24835098252
 23
55.64399903182
 33
0.0
  0
SOLID
  5
F4E9
330
C0FF
100
AcDbEntity
  8
titleblock
  6
ByBlock
100
AcDbTrace
 10
1034.40062598252
 20
54.21999883181999
 30
0.0
 11
1032.69882598252
 21
51.44187383182
 31
0.0
 12
1035.24835098252
 22
55.64399903182
 32
0.0
 13
1035.24835098252
 23
55.64399903182
 33
0.0
  0
SOLID
  5
F4EA
330
C0FF
100
AcDbEntity
  8
titleblock
  6
ByBlock
100
AcDbTrace
 10
1035.24835098252
 20
55.64399903182
 30
0.0
 11
1032.69882598252
 21
51.44187383182
 31
0.0
 12
1034.40062598252
 22
55.64399903182
 32
0.0
 13
1034.40062598252
 23
55.64399903182
 33
0.0
  0
SOLID
  5
F4EB
330
C0FF
100
AcDbEntity
  8
titleblock
  6
ByBlock
100
AcDbTrace
 10
1034.40062598252
 20
55.64399903182
 30
0.0
 11
1032.69882598252
 21
51.44187383182
 31
0.0
 12
1034.40062598252
 22
57.20132383182
 32
0.0
 13
1034.40062598252
 23
57.20132383182
 33
0.0
  0
SOLID
  5
F4EC
330
C0FF
100
AcDbEntity
  8
titleblock
  6
ByBlock
100
AcDbTrace
 10
1032.69882598252
 20
51.44187383182
 30
0.0
 11
1032.69882598252
 21
57.20132383182
 31
0.0
 12
1034.40062598252
 22
57.20132383182
 32
0.0
 13
1034.40062598252
 23
57.20132383182
 33
0.0
  0
SOLID
  5
F4ED
330
C0FF
100
AcDbEntity
  8
titleblock
  6
ByBlock
100
AcDbTrace
 10
1034.40062598252
 20
54.21999883181999
 30
0.0
 11
1034.40062598252
 21
51.44187383182
 31
0.0
 12
1032.69882598252
 22
51.44187383182
 32
0.0
 13
1032.69882598252
 23
51.44187383182
 33
0.0
  0
SOLID
  5
F4EE
330
C0FF
100
AcDbEntity
  8
titleblock
  6
ByBlock
100
AcDbTrace
 10
1034.40062598252
 20
54.21999883181999
 30
0.0
 11
1036.50443178252
 21
54.59675703181999
 31
0.0
 12
1034.76724958252
 22
54.21999883181999
 32
0.0
 13
1034.76724958252
 23
54.21999883181999
 33
0.0
  0
SOLID
  5
F4EF
330
C0FF
100
AcDbEntity
  8
titleblock
  6
ByBlock
100
AcDbTrace
 10
1034.76724958252
 20
54.21999883181999
 30
0.0
 11
1036.50443178252
 21
54.59675703181999
 31
0.0
 12
1036.308826382519
 22
51.44187383182
 32
0.0
 13
1036.308826382519
 23
51.44187383182
 33
0.0
  0
SOLID
  5
F4F0
330
C0FF
100
AcDbEntity
  8
titleblock
  6
ByBlock
100
AcDbTrace
 10
1036.50443178252
 20
54.59675703181999
 30
0.0
 11
1038.25507598252
 21
51.44187383182
 31
0.0
 12
1036.308826382519
 22
51.44187383182
 32
0.0
 13
1036.308826382519
 23
51.44187383182
 33
0.0
  0
SOLID
  5
F4F1
330
C0FF
100
AcDbEntity
  8
titleblock
  6
ByBlock
100
AcDbTrace
 10
1037.27749976394
 20
57.41074683182
 30
0.0
 11
1032.76163376394
 21
57.20132383182
 31
0.0
 12
1036.79243596394
 22
58.03342783181999
 32
0.0
 13
1036.79243596394
 23
58.03342783181999
 33
0.0
  0
SOLID
  5
F4F2
330
C0FF
100
AcDbEntity
  8
titleblock
  6
ByBlock
100
AcDbTrace
 10
1036.79243596394
 20
58.03342783181999
 30
0.0
 11
1032.76163376394
 21
57.20132383182
 31
0.0
 12
1036.11763416394
 22
58.44290123182
 32
0.0
 13
1036.11763416394
 23
58.44290123182
 33
0.0
  0
SOLID
  5
F4F3
330
C0FF
100
AcDbEntity
  8
titleblock
  6
ByBlock
100
AcDbTrace
 10
1036.11763416394
 20
58.44290123182
 30
0.0
 11
1032.76163376394
 21
57.20132383182
 31
0.0
 12
1035.34133396394
 22
58.58562383181999
 32
0.0
 13
1035.34133396394
 23
58.58562383181999
 33
0.0
  0
SOLID
  5
F4F4
330
C0FF
100
AcDbEntity
  8
titleblock
  6
ByBlock
100
AcDbTrace
 10
1032.76163376394
 20
57.20132383182
 30
0.0
 11
1032.76163376394
 21
58.58562383181999
 31
0.0
 12
1035.34133396394
 22
58.58562383181999
 32
0.0
 13
1035.34133396394
 23
58.58562383181999
 33
0.0
  0
SOLID
  5
F4F5
330
C0FF
100
AcDbEntity
  8
titleblock
  6
ByBlock
100
AcDbTrace
 10
1032.76163376394
 20
57.20132383182
 30
0.0
 11
1037.27749976394
 21
57.41074683182
 31
0.0
 12
1034.46343376394
 22
57.20132383182
 32
0.0
 13
1034.46343376394
 23
57.20132383182
 33
0.0
  0
SOLID
  5
F4F6
330
C0FF
100
AcDbEntity
  8
titleblock
  6
ByBlock
100
AcDbTrace
 10
1034.46343376394
 20
57.20132383182
 30
0.0
 11
1037.27749976394
 21
57.41074683182
 31
0.0
 12
1035.31115876394
 22
57.20132383182
 32
0.0
 13
1035.31115876394
 23
57.20132383182
 33
0.0
  0
SOLID
  5
F4F7
330
C0FF
100
AcDbEntity
  8
titleblock
  6
ByBlock
100
AcDbTrace
 10
1035.31115876394
 20
57.20132383182
 30
0.0
 11
1037.27749976394
 21
57.41074683182
 31
0.0
 12
1035.70048996394
 22
57.09700603182
 32
0.0
 13
1035.70048996394
 23
57.09700603182
 33
0.0
  0
SOLID
  5
F4F8
330
C0FF
100
AcDbEntity
  8
titleblock
  6
ByBlock
100
AcDbTrace
 10
1035.70048996394
 20
57.09700603182
 30
0.0
 11
1037.27749976394
 21
57.41074683182
 31
0.0
 12
1035.98550336394
 22
56.81199263182
 32
0.0
 13
1035.98550336394
 23
56.81199263182
 33
0.0
  0
SOLID
  5
F4F9
330
C0FF
100
AcDbEntity
  8
titleblock
  6
ByBlock
100
AcDbTrace
 10
1037.27749976394
 20
57.41074683182
 30
0.0
 11
1037.50937636394
 21
56.65623983182
 31
0.0
 12
1035.98550336394
 22
56.81199263182
 32
0.0
 13
1035.98550336394
 23
56.81199263182
 33
0.0
  0
SOLID
  5
F4FA
330
C0FF
100
AcDbEntity
  8
titleblock
  6
ByBlock
100
AcDbTrace
 10
1036.08982116394
 20
56.42266143181999
 30
0.0
 11
1035.98550336394
 21
56.81199263182
 31
0.0
 12
1037.50937636394
 22
56.65623983182
 32
0.0
 13
1037.50937636394
 23
56.65623983182
 33
0.0
  0
SOLID
  5
F4FB
330
C0FF
100
AcDbEntity
  8
titleblock
  6
ByBlock
100
AcDbTrace
 10
1036.08982116394
 20
56.42266143181999
 30
0.0
 11
1037.50937636394
 21
56.65623983182
 31
0.0
 12
1035.98550336394
 22
56.03333023182
 32
0.0
 13
1035.98550336394
 23
56.03333023182
 33
0.0
  0
SOLID
  5
F4FC
330
C0FF
100
AcDbEntity
  8
titleblock
  6
ByBlock
100
AcDbTrace
 10
1037.50937636394
 20
56.65623983182
 30
0.0
 11
1037.45776356394
 21
55.86861123182
 31
0.0
 12
1035.98550336394
 22
56.03333023182
 32
0.0
 13
1035.98550336394
 23
56.03333023182
 33
0.0
  0
SOLID
  5
F4FD
330
C0FF
100
AcDbEntity
  8
titleblock
  6
ByBlock
100
AcDbTrace
 10
1035.70048996394
 20
55.74831683181999
 30
0.0
 11
1035.98550336394
 21
56.03333023182
 31
0.0
 12
1037.45776356394
 22
55.86861123182
 32
0.0
 13
1037.45776356394
 23
55.86861123182
 33
0.0
  0
SOLID
  5
F4FE
330
C0FF
100
AcDbEntity
  8
titleblock
  6
ByBlock
100
AcDbTrace
 10
1035.70048996394
 20
55.74831683181999
 30
0.0
 11
1037.45776356394
 21
55.86861123182
 31
0.0
 12
1035.31115876394
 22
55.64399903182
 32
0.0
 13
1035.31115876394
 23
55.64399903182
 33
0.0
  0
SOLID
  5
F4FF
330
C0FF
100
AcDbEntity
  8
titleblock
  6
ByBlock
100
AcDbTrace
 10
1037.45776356394
 20
55.86861123182
 30
0.0
 11
1037.35499516394
 21
55.64399903182
 31
0.0
 12
1035.31115876394
 22
55.64399903182
 32
0.0
 13
1035.31115876394
 23
55.64399903182
 33
0.0
  0
SOLID
  5
F500
330
C0FF
100
AcDbEntity
  8
titleblock
  6
ByBlock
100
AcDbTrace
 10
1005.20015098252
 20
56.34412463181999
 30
0.0
 11
1007.44165018252
 21
58.58562383181999
 31
0.0
 12
1009.84835098252
 22
58.58562383181999
 32
0.0
 13
1009.84835098252
 23
58.58562383181999
 33
0.0
  0
SOLID
  5
F501
330
C0FF
100
AcDbEntity
  8
titleblock
  6
ByBlock
100
AcDbTrace
 10
1009.84835098252
 20
58.58562383181999
 30
0.0
 11
1006.67335098252
 21
55.41062383182
 31
0.0
 12
1005.20015098252
 22
56.34412463181999
 32
0.0
 13
1005.20015098252
 23
56.34412463181999
 33
0.0
  0
SOLID
  5
F502
330
C0FF
100
AcDbEntity
  8
titleblock
  6
ByBlock
100
AcDbTrace
 10
1006.67335098252
 20
55.41062383182
 30
0.0
 11
1005.20015098252
 21
54.52792303182
 31
0.0
 12
1005.20015098252
 22
56.34412463181999
 32
0.0
 13
1005.20015098252
 23
56.34412463181999
 33
0.0
  0
SOLID
  5
F503
330
C0FF
100
AcDbEntity
  8
titleblock
  6
ByBlock
100
AcDbTrace
 10
1005.20015098252
 20
54.52792303182
 30
0.0
 11
1003.49835098252
 21
51.44187383182
 31
0.0
 12
1005.20015098252
 22
56.34412463181999
 32
0.0
 13
1005.20015098252
 23
56.34412463181999
 33
0.0
  0
SOLID
  5
F504
330
C0FF
100
AcDbEntity
  8
titleblock
  6
ByBlock
100
AcDbTrace
 10
1005.20015098252
 20
56.34412463181999
 30
0.0
 11
1003.49835098252
 21
51.44187383182
 31
0.0
 12
1005.20015098252
 22
58.58562383181999
 32
0.0
 13
1005.20015098252
 23
58.58562383181999
 33
0.0
  0
SOLID
  5
F505
330
C0FF
100
AcDbEntity
  8
titleblock
  6
ByBlock
100
AcDbTrace
 10
1003.49835098252
 20
51.44187383182
 30
0.0
 11
1003.49835098252
 21
58.58562383181999
 31
0.0
 12
1005.20015098252
 22
58.58562383181999
 32
0.0
 13
1005.20015098252
 23
58.58562383181999
 33
0.0
  0
SOLID
  5
F506
330
C0FF
100
AcDbEntity
  8
titleblock
  6
ByBlock
100
AcDbTrace
 10
1005.20015098252
 20
54.52792303182
 30
0.0
 11
1005.20015098252
 21
51.44187383182
 31
0.0
 12
1003.49835098252
 22
51.44187383182
 32
0.0
 13
1003.49835098252
 23
51.44187383182
 33
0.0
  0
SOLID
  5
F507
330
C0FF
100
AcDbEntity
  8
titleblock
  6
ByBlock
100
AcDbTrace
 10
1005.20015098252
 20
54.52792303182
 30
0.0
 11
1006.67335098252
 21
55.41062383182
 31
0.0
 12
1007.66898018252
 22
51.44187383182
 32
0.0
 13
1007.66898018252
 23
51.44187383182
 33
0.0
  0
SOLID
  5
F508
330
C0FF
100
AcDbEntity
  8
titleblock
  6
ByBlock
100
AcDbTrace
 10
1006.67335098252
 20
55.41062383182
 30
0.0
 11
1009.84835098252
 21
51.44187383182
 31
0.0
 12
1007.66898018252
 22
51.44187383182
 32
0.0
 13
1007.66898018252
 23
51.44187383182
 33
0.0
  0
SOLID
  5
F509
330
C0FF
100
AcDbEntity
  8
titleblock
  6
ByBlock
100
AcDbTrace
 10
1011.49950338252
 20
56.50610043181999
 30
0.0
 11
1009.22942918252
 21
56.11753123181999
 31
0.0
 12
1012.11471678252
 22
56.81242443181999
 32
0.0
 13
1012.11471678252
 23
56.81242443181999
 33
0.0
  0
SOLID
  5
F50A
330
C0FF
100
AcDbEntity
  8
titleblock
  6
ByBlock
100
AcDbTrace
 10
1012.79901818252
 20
56.87584823182
 30
0.0
 11
1012.11471678252
 21
56.81242443181999
 31
0.0
 12
1009.61581398252
 22
56.87584823182
 32
0.0
 13
1009.61581398252
 23
56.87584823182
 33
0.0
  0
SOLID
  5
F50B
330
C0FF
100
AcDbEntity
  8
titleblock
  6
ByBlock
100
AcDbTrace
 10
1009.22942918252
 20
56.11753123181999
 30
0.0
 11
1009.61581398252
 21
56.87584823182
 31
0.0
 12
1012.11471678252
 22
56.81242443181999
 32
0.0
 13
1012.11471678252
 23
56.81242443181999
 33
0.0
  0
SOLID
  5
F50C
330
C0FF
100
AcDbEntity
  8
titleblock
  6
ByBlock
100
AcDbTrace
 10
1011.49950338252
 20
56.50610043181999
 30
0.0
 11
1011.03651218252
 21
55.99822743182
 31
0.0
 12
1009.22942918252
 22
56.11753123181999
 32
0.0
 13
1009.22942918252
 23
56.11753123181999
 33
0.0
  0
SOLID
  5
F50D
330
C0FF
100
AcDbEntity
  8
titleblock
  6
ByBlock
100
AcDbTrace
 10
1010.78825258252
 20
55.35738543182
 30
0.0
 11
1009.05460098252
 21
55.01374883181999
 31
0.0
 12
1011.03651218252
 22
55.99822743182
 32
0.0
 13
1011.03651218252
 23
55.99822743182
 33
0.0
  0
SOLID
  5
F50E
330
C0FF
100
AcDbEntity
  8
titleblock
  6
ByBlock
100
AcDbTrace
 10
1009.05460098252
 20
55.01374883181999
 30
0.0
 11
1009.22942918252
 21
56.11753123181999
 31
0.0
 12
1011.03651218252
 22
55.99822743182
 32
0.0
 13
1011.03651218252
 23
55.99822743182
 33
0.0
  0
SOLID
  5
F50F
330
C0FF
100
AcDbEntity
  8
titleblock
  6
ByBlock
100
AcDbTrace
 10
1010.78825258252
 20
55.35738543182
 30
0.0
 11
1010.78825258252
 21
54.67011223181999
 31
0.0
 12
1009.05460098252
 22
55.01374883181999
 32
0.0
 13
1009.05460098252
 23
55.01374883181999
 33
0.0
  0
SOLID
  5
F510
330
C0FF
100
AcDbEntity
  8
titleblock
  6
ByBlock
100
AcDbTrace
 10
1011.03651218252
 20
54.02927023182
 30
0.0
 11
1009.22942918252
 21
53.90996643181999
 31
0.0
 12
1010.78825258252
 22
54.67011223181999
 32
0.0
 13
1010.78825258252
 23
54.67011223181999
 33
0.0
  0
SOLID
  5
F511
330
C0FF
100
AcDbEntity
  8
titleblock
  6
ByBlock
100
AcDbTrace
 10
1009.22942918252
 20
53.90996643181999
 30
0.0
 11
1009.05460098252
 21
55.01374883181999
 31
0.0
 12
1010.78825258252
 22
54.67011223181999
 32
0.0
 13
1010.78825258252
 23
54.67011223181999
 33
0.0
  0
SOLID
  5
F512
330
C0FF
100
AcDbEntity
  8
titleblock
  6
ByBlock
100
AcDbTrace
 10
1011.03651218252
 20
54.02927023182
 30
0.0
 11
1011.49950338252
 21
53.52139723181999
 31
0.0
 12
1009.22942918252
 22
53.90996643181999
 32
0.0
 13
1009.22942918252
 23
53.90996643181999
 33
0.0
  0
SOLID
  5
F513
330
C0FF
100
AcDbEntity
  8
titleblock
  6
ByBlock
100
AcDbTrace
 10
1015.63713798252
 20
53.15164943182
 30
0.0
 11
1009.73676878252
 21
52.91426103182001
 31
0.0
 12
1012.79901818252
 22
53.15164943182
 32
0.0
 13
1012.79901818252
 23
53.15164943182
 33
0.0
  0
SOLID
  5
F514
330
C0FF
100
AcDbEntity
  8
titleblock
  6
ByBlock
100
AcDbTrace
 10
1012.79901818252
 20
53.15164943182
 30
0.0
 11
1009.73676878252
 21
52.91426103182001
 31
0.0
 12
1012.11471678252
 22
53.21507323182
 32
0.0
 13
1012.11471678252
 23
53.21507323182
 33
0.0
  0
SOLID
  5
F515
330
C0FF
100
AcDbEntity
  8
titleblock
  6
ByBlock
100
AcDbTrace
 10
1012.11471678252
 20
53.21507323182
 30
0.0
 11
1009.73676878252
 21
52.91426103182001
 31
0.0
 12
1011.49950338252
 22
53.52139723181999
 32
0.0
 13
1011.49950338252
 23
53.52139723181999
 33
0.0
  0
SOLID
  5
F516
330
C0FF
100
AcDbEntity
  8
titleblock
  6
ByBlock
100
AcDbTrace
 10
1009.73676878252
 20
52.91426103182001
 30
0.0
 11
1009.22942918252
 21
53.90996643181999
 31
0.0
 12
1011.49950338252
 22
53.52139723181999
 32
0.0
 13
1011.49950338252
 23
53.52139723181999
 33
0.0
  0
SOLID
  5
F517
330
C0FF
100
AcDbEntity
  8
titleblock
  6
ByBlock
100
AcDbTrace
 10
1015.63713798252
 20
53.15164943182
 30
0.0
 11
1015.51618318252
 21
52.91426103182001
 31
0.0
 12
1009.73676878252
 22
52.91426103182001
 32
0.0
 13
1009.73676878252
 23
52.91426103182001
 33
0.0
  0
SOLID
  5
F518
330
C0FF
100
AcDbEntity
  8
titleblock
  6
ByBlock
100
AcDbTrace
 10
1010.52698818252
 20
52.12404163182
 30
0.0
 11
1009.73676878252
 21
52.91426103182001
 31
0.0
 12
1015.51618318252
 22
52.91426103182001
 32
0.0
 13
1015.51618318252
 23
52.91426103182001
 33
0.0
  0
SOLID
  5
F519
330
C0FF
100
AcDbEntity
  8
titleblock
  6
ByBlock
100
AcDbTrace
 10
1015.51618318252
 20
52.91426103182001
 30
0.0
 11
1014.72596378252
 21
52.12404163182
 31
0.0
 12
1010.52698818252
 22
52.12404163182
 32
0.0
 13
1010.52698818252
 23
52.12404163182
 33
0.0
  0
SOLID
  5
F51A
330
C0FF
100
AcDbEntity
  8
titleblock
  6
ByBlock
100
AcDbTrace
 10
1011.52269358252
 20
51.61670203182
 30
0.0
 11
1010.52698818252
 21
52.12404163182
 31
0.0
 12
1014.72596378252
 22
52.12404163182
 32
0.0
 13
1014.72596378252
 23
52.12404163182
 33
0.0
  0
SOLID
  5
F51B
330
C0FF
100
AcDbEntity
  8
titleblock
  6
ByBlock
100
AcDbTrace
 10
1014.72596378252
 20
52.12404163182
 30
0.0
 11
1013.73025838252
 21
51.61670203182
 31
0.0
 12
1011.52269358252
 22
51.61670203182
 32
0.0
 13
1011.52269358252
 23
51.61670203182
 33
0.0
  0
SOLID
  5
F51C
330
C0FF
100
AcDbEntity
  8
titleblock
  6
ByBlock
100
AcDbTrace
 10
1012.62647598252
 20
51.44187383182
 30
0.0
 11
1011.52269358252
 21
51.61670203182
 31
0.0
 12
1013.73025838252
 22
51.61670203182
 32
0.0
 13
1013.73025838252
 23
51.61670203182
 33
0.0
  0
SOLID
  5
F51D
330
C0FF
100
AcDbEntity
  8
titleblock
  6
ByBlock
100
AcDbTrace
 10
1012.62647598252
 20
58.58562383181999
 30
0.0
 11
1013.73025838252
 21
58.41079563182
 31
0.0
 12
1011.52269358252
 22
58.41079563182
 32
0.0
 13
1011.52269358252
 23
58.41079563182
 33
0.0
  0
SOLID
  5
F51E
330
C0FF
100
AcDbEntity
  8
titleblock
  6
ByBlock
100
AcDbTrace
 10
1010.52698818252
 20
57.90345603181999
 30
0.0
 11
1011.52269358252
 21
58.41079563182
 31
0.0
 12
1013.73025838252
 22
58.41079563182
 32
0.0
 13
1013.73025838252
 23
58.41079563182
 33
0.0
  0
SOLID
  5
F51F
330
C0FF
100
AcDbEntity
  8
titleblock
  6
ByBlock
100
AcDbTrace
 10
1013.73025838252
 20
58.41079563182
 30
0.0
 11
1014.72596378252
 21
57.90345603181999
 31
0.0
 12
1010.52698818252
 22
57.90345603181999
 32
0.0
 13
1010.52698818252
 23
57.90345603181999
 33
0.0
  0
SOLID
  5
F520
330
C0FF
100
AcDbEntity
  8
titleblock
  6
ByBlock
100
AcDbTrace
 10
1009.73676878252
 20
57.11323663182
 30
0.0
 11
1010.52698818252
 21
57.90345603181999
 31
0.0
 12
1014.72596378252
 22
57.90345603181999
 32
0.0
 13
1014.72596378252
 23
57.90345603181999
 33
0.0
  0
SOLID
  5
F521
330
C0FF
100
AcDbEntity
  8
titleblock
  6
ByBlock
100
AcDbTrace
 10
1014.72596378252
 20
57.90345603181999
 30
0.0
 11
1015.51618318252
 21
57.11323663182
 31
0.0
 12
1009.73676878252
 22
57.11323663182
 32
0.0
 13
1009.73676878252
 23
57.11323663182
 33
0.0
  0
SOLID
  5
F522
330
C0FF
100
AcDbEntity
  8
titleblock
  6
ByBlock
100
AcDbTrace
 10
1009.61581398252
 20
56.87584823182
 30
0.0
 11
1009.73676878252
 21
57.11323663182
 31
0.0
 12
1015.51618318252
 22
57.11323663182
 32
0.0
 13
1015.51618318252
 23
57.11323663182
 33
0.0
  0
SOLID
  5
F523
330
C0FF
100
AcDbEntity
  8
titleblock
  6
ByBlock
100
AcDbTrace
 10
1009.61581398252
 20
56.87584823182
 30
0.0
 11
1015.51618318252
 21
57.11323663182
 31
0.0
 12
1012.79901818252
 22
56.87584823182
 32
0.0
 13
1012.79901818252
 23
56.87584823182
 33
0.0
  0
SOLID
  5
F524
330
C0FF
100
AcDbEntity
  8
titleblock
  6
ByBlock
100
AcDbTrace
 10
1012.79901818252
 20
56.87584823182
 30
0.0
 11
1015.51618318252
 21
57.11323663182
 31
0.0
 12
1013.46002778252
 22
56.68776123181999
 32
0.0
 13
1013.46002778252
 23
56.68776123181999
 33
0.0
  0
SOLID
  5
F525
330
C0FF
100
AcDbEntity
  8
titleblock
  6
ByBlock
100
AcDbTrace
 10
1013.46002778252
 20
56.68776123181999
 30
0.0
 11
1015.51618318252
 21
57.11323663182
 31
0.0
 12
1014.00848998252
 22
56.27361423182
 32
0.0
 13
1014.00848998252
 23
56.27361423182
 33
0.0
  0
SOLID
  5
F526
330
C0FF
100
AcDbEntity
  8
titleblock
  6
ByBlock
100
AcDbTrace
 10
1015.51618318252
 20
57.11323663182
 30
0.0
 11
1016.02352278252
 21
56.11753123181999
 31
0.0
 12
1014.00848998252
 22
56.27361423182
 32
0.0
 13
1014.00848998252
 23
56.27361423182
 33
0.0
  0
SOLID
  5
F527
330
C0FF
100
AcDbEntity
  8
titleblock
  6
ByBlock
100
AcDbTrace
 10
1014.37026218252
 20
55.68928723182
 30
0.0
 11
1014.00848998252
 21
56.27361423182
 31
0.0
 12
1016.02352278252
 22
56.11753123181999
 32
0.0
 13
1016.02352278252
 23
56.11753123181999
 33
0.0
  0
SOLID
  5
F528
330
C0FF
100
AcDbEntity
  8
titleblock
  6
ByBlock
100
AcDbTrace
 10
1014.37026218252
 20
55.68928723182
 30
0.0
 11
1016.02352278252
 21
56.11753123181999
 31
0.0
 12
1014.49655098252
 22
55.01374883181999
 32
0.0
 13
1014.49655098252
 23
55.01374883181999
 33
0.0
  0
SOLID
  5
F529
330
C0FF
100
AcDbEntity
  8
titleblock
  6
ByBlock
100
AcDbTrace
 10
1016.02352278252
 20
56.11753123181999
 30
0.0
 11
1016.19835098252
 21
55.01374883181999
 31
0.0
 12
1014.49655098252
 22
55.01374883181999
 32
0.0
 13
1014.49655098252
 23
55.01374883181999
 33
0.0
  0
SOLID
  5
F52A
330
C0FF
100
AcDbEntity
  8
titleblock
  6
ByBlock
100
AcDbTrace
 10
1014.37026218252
 20
54.33821043182
 30
0.0
 11
1014.49655098252
 21
55.01374883181999
 31
0.0
 12
1016.19835098252
 22
55.01374883181999
 32
0.0
 13
1016.19835098252
 23
55.01374883181999
 33
0.0
  0
SOLID
  5
F52B
330
C0FF
100
AcDbEntity
  8
titleblock
  6
ByBlock
100
AcDbTrace
 10
1016.19835098252
 20
55.01374883181999
 30
0.0
 11
1016.02352278252
 21
53.90996643181999
 31
0.0
 12
1014.37026218252
 22
54.33821043182
 32
0.0
 13
1014.37026218252
 23
54.33821043182
 33
0.0
  0
SOLID
  5
F52C
330
C0FF
100
AcDbEntity
  8
titleblock
  6
ByBlock
100
AcDbTrace
 10
1014.00848998252
 20
53.75388343181999
 30
0.0
 11
1014.37026218252
 21
54.33821043182
 31
0.0
 12
1016.02352278252
 22
53.90996643181999
 32
0.0
 13
1016.02352278252
 23
53.90996643181999
 33
0.0
  0
SOLID
  5
F52D
330
C0FF
100
AcDbEntity
  8
titleblock
  6
ByBlock
100
AcDbTrace
 10
1014.00848998252
 20
53.75388343181999
 30
0.0
 11
1016.02352278252
 21
53.90996643181999
 31
0.0
 12
1013.46002778252
 22
53.33973643181999
 32
0.0
 13
1013.46002778252
 23
53.33973643181999
 33
0.0
  0
SOLID
  5
F52E
330
C0FF
100
AcDbEntity
  8
titleblock
  6
ByBlock
100
AcDbTrace
 10
1013.46002778252
 20
53.33973643181999
 30
0.0
 11
1016.02352278252
 21
53.90996643181999
 31
0.0
 12
1012.79901818252
 22
53.15164943182
 32
0.0
 13
1012.79901818252
 23
53.15164943182
 33
0.0
  0
SOLID
  5
F52F
330
C0FF
100
AcDbEntity
  8
titleblock
  6
ByBlock
100
AcDbTrace
 10
1016.02352278252
 20
53.90996643181999
 30
0.0
 11
1015.63713798252
 21
53.15164943182
 31
0.0
 12
1012.79901818252
 22
53.15164943182
 32
0.0
 13
1012.79901818252
 23
53.15164943182
 33
0.0
  0
SOLID
  5
F530
330
C0FF
100
AcDbEntity
  8
titleblock
  6
ByBlock
100
AcDbTrace
 10
1020.67827598252
 20
56.26152383182
 30
0.0
 11
1020.67827598252
 21
58.58562383181999
 31
0.0
 12
1022.38007598252
 22
58.58562383181999
 32
0.0
 13
1022.38007598252
 23
58.58562383181999
 33
0.0
  0
SOLID
  5
F531
330
C0FF
100
AcDbEntity
  8
titleblock
  6
ByBlock
100
AcDbTrace
 10
1020.67827598252
 20
56.26152383182
 30
0.0
 11
1018.69390098252
 21
54.55972383181999
 31
0.0
 12
1018.69390098252
 22
56.26152383182
 32
0.0
 13
1018.69390098252
 23
56.26152383182
 33
0.0
  0
SOLID
  5
F532
330
C0FF
100
AcDbEntity
  8
titleblock
  6
ByBlock
100
AcDbTrace
 10
1018.69390098252
 20
54.55972383181999
 30
0.0
 11
1016.99210098252
 21
51.44187383182
 31
0.0
 12
1018.69390098252
 22
56.26152383182
 32
0.0
 13
1018.69390098252
 23
56.26152383182
 33
0.0
  0
SOLID
  5
F533
330
C0FF
100
AcDbEntity
  8
titleblock
  6
ByBlock
100
AcDbTrace
 10
1018.69390098252
 20
56.26152383182
 30
0.0
 11
1016.99210098252
 21
51.44187383182
 31
0.0
 12
1018.69390098252
 22
58.58562383181999
 32
0.0
 13
1018.69390098252
 23
58.58562383181999
 33
0.0
  0
SOLID
  5
F534
330
C0FF
100
AcDbEntity
  8
titleblock
  6
ByBlock
100
AcDbTrace
 10
1016.99210098252
 20
51.44187383182
 30
0.0
 11
1016.99210098252
 21
58.58562383181999
 31
0.0
 12
1018.69390098252
 22
58.58562383181999
 32
0.0
 13
1018.69390098252
 23
58.58562383181999
 33
0.0
  0
SOLID
  5
F535
330
C0FF
100
AcDbEntity
  8
titleblock
  6
ByBlock
100
AcDbTrace
 10
1018.69390098252
 20
54.55972383181999
 30
0.0
 11
1018.69390098252
 21
51.44187383182
 31
0.0
 12
1016.99210098252
 22
51.44187383182
 32
0.0
 13
1016.99210098252
 23
51.44187383182
 33
0.0
  0
SOLID
  5
F536
330
C0FF
100
AcDbEntity
  8
titleblock
  6
ByBlock
100
AcDbTrace
 10
1018.69390098252
 20
54.55972383181999
 30
0.0
 11
1020.67827598252
 21
56.26152383182
 31
0.0
 12
1020.67827598252
 22
54.55972383181999
 32
0.0
 13
1020.67827598252
 23
54.55972383181999
 33
0.0
  0
SOLID
  5
F537
330
C0FF
100
AcDbEntity
  8
titleblock
  6
ByBlock
100
AcDbTrace
 10
1020.67827598252
 20
56.26152383182
 30
0.0
 11
1022.38007598252
 21
58.58562383181999
 31
0.0
 12
1020.67827598252
 22
54.55972383181999
 32
0.0
 13
1020.67827598252
 23
54.55972383181999
 33
0.0
  0
SOLID
  5
F538
330
C0FF
100
AcDbEntity
  8
titleblock
  6
ByBlock
100
AcDbTrace
 10
1020.67827598252
 20
54.55972383181999
 30
0.0
 11
1022.38007598252
 21
58.58562383181999
 31
0.0
 12
1020.67827598252
 22
51.44187383182
 32
0.0
 13
1020.67827598252
 23
51.44187383182
 33
0.0
  0
SOLID
  5
F539
330
C0FF
100
AcDbEntity
  8
titleblock
  6
ByBlock
100
AcDbTrace
 10
1022.38007598252
 20
58.58562383181999
 30
0.0
 11
1022.38007598252
 21
51.44187383182
 31
0.0
 12
1020.67827598252
 22
51.44187383182
 32
0.0
 13
1020.67827598252
 23
51.44187383182
 33
0.0
  0
SOLID
  5
F53A
330
C0FF
100
AcDbEntity
  8
titleblock
  6
ByBlock
100
AcDbTrace
 10
1027.14257598252
 20
53.14367383182
 30
0.0
 11
1023.17382598252
 21
51.44187383182
 31
0.0
 12
1024.87562598252
 22
53.14367383182
 32
0.0
 13
1024.87562598252
 23
53.14367383182
 33
0.0
  0
SOLID
  5
F53B
330
C0FF
100
AcDbEntity
  8
titleblock
  6
ByBlock
100
AcDbTrace
 10
1024.87562598252
 20
53.14367383182
 30
0.0
 11
1023.17382598252
 21
51.44187383182
 31
0.0
 12
1024.87562598252
 22
58.58562383181999
 32
0.0
 13
1024.87562598252
 23
58.58562383181999
 33
0.0
  0
SOLID
  5
F53C
330
C0FF
100
AcDbEntity
  8
titleblock
  6
ByBlock
100
AcDbTrace
 10
1023.17382598252
 20
51.44187383182
 30
0.0
 11
1023.17382598252
 21
58.58562383181999
 31
0.0
 12
1024.87562598252
 22
58.58562383181999
 32
0.0
 13
1024.87562598252
 23
58.58562383181999
 33
0.0
  0
SOLID
  5
F53D
330
C0FF
100
AcDbEntity
  8
titleblock
  6
ByBlock
100
AcDbTrace
 10
1027.14257598252
 20
53.14367383182
 30
0.0
 11
1027.14257598252
 21
51.44187383182
 31
0.0
 12
1023.17382598252
 22
51.44187383182
 32
0.0
 13
1023.17382598252
 23
51.44187383182
 33
0.0
  0
SOLID
  5
F53E
330
C0FF
100
AcDbEntity
  8
titleblock
  6
ByBlock
100
AcDbTrace
 10
1031.90507598252
 20
58.58562383181999
 30
0.0
 11
1031.90507598252
 21
56.88382383181998
 31
0.0
 12
1029.63812598252
 22
56.88382383181998
 32
0.0
 13
1029.63812598252
 23
56.88382383181998
 33
0.0
  0
SOLID
  5
F53F
330
C0FF
100
AcDbEntity
  8
titleblock
  6
ByBlock
100
AcDbTrace
 10
1031.90507598252
 20
55.66622403182
 30
0.0
 11
1031.90507598252
 21
54.36129903181999
 31
0.0
 12
1029.63812598252
 22
54.36129903181999
 32
0.0
 13
1029.63812598252
 23
54.36129903181999
 33
0.0
  0
SOLID
  5
F540
330
C0FF
100
AcDbEntity
  8
titleblock
  6
ByBlock
100
AcDbTrace
 10
1031.90507598252
 20
53.14367383182
 30
0.0
 11
1027.93632598252
 21
51.44187383182
 31
0.0
 12
1029.63812598252
 22
53.14367383182
 32
0.0
 13
1029.63812598252
 23
53.14367383182
 33
0.0
  0
SOLID
  5
F541
330
C0FF
100
AcDbEntity
  8
titleblock
  6
ByBlock
100
AcDbTrace
 10
1029.63812598252
 20
53.14367383182
 30
0.0
 11
1027.93632598252
 21
51.44187383182
 31
0.0
 12
1029.63812598252
 22
54.36129903181999
 32
0.0
 13
1029.63812598252
 23
54.36129903181999
 33
0.0
  0
SOLID
  5
F542
330
C0FF
100
AcDbEntity
  8
titleblock
  6
ByBlock
100
AcDbTrace
 10
1031.90507598252
 20
55.66622403182
 30
0.0
 11
1029.63812598252
 21
54.36129903181999
 31
0.0
 12
1029.63812598252
 22
55.66622403182
 32
0.0
 13
1029.63812598252
 23
55.66622403182
 33
0.0
  0
SOLID
  5
F543
330
C0FF
100
AcDbEntity
  8
titleblock
  6
ByBlock
100
AcDbTrace
 10
1029.63812598252
 20
54.36129903181999
 30
0.0
 11
1027.93632598252
 21
51.44187383182
 31
0.0
 12
1029.63812598252
 22
55.66622403182
 32
0.0
 13
1029.63812598252
 23
55.66622403182
 33
0.0
  0
SOLID
  5
F544
330
C0FF
100
AcDbEntity
  8
titleblock
  6
ByBlock
100
AcDbTrace
 10
1029.63812598252
 20
55.66622403182
 30
0.0
 11
1027.93632598252
 21
51.44187383182
 31
0.0
 12
1029.63812598252
 22
56.88382383181998
 32
0.0
 13
1029.63812598252
 23
56.88382383181998
 33
0.0
  0
SOLID
  5
F545
330
C0FF
100
AcDbEntity
  8
titleblock
  6
ByBlock
100
AcDbTrace
 10
1031.90507598252
 20
58.58562383181999
 30
0.0
 11
1029.63812598252
 21
56.88382383181998
 31
0.0
 12
1027.93632598252
 22
58.58562383181999
 32
0.0
 13
1027.93632598252
 23
58.58562383181999
 33
0.0
  0
SOLID
  5
F546
330
C0FF
100
AcDbEntity
  8
titleblock
  6
ByBlock
100
AcDbTrace
 10
1027.93632598252
 20
51.44187383182
 30
0.0
 11
1027.93632598252
 21
58.58562383181999
 31
0.0
 12
1029.63812598252
 22
56.88382383181998
 32
0.0
 13
1029.63812598252
 23
56.88382383181998
 33
0.0
  0
SOLID
  5
F547
330
C0FF
100
AcDbEntity
  8
titleblock
  6
ByBlock
100
AcDbTrace
 10
1031.90507598252
 20
53.14367383182
 30
0.0
 11
1031.90507598252
 21
51.44187383182
 31
0.0
 12
1027.93632598252
 22
51.44187383182
 32
0.0
 13
1027.93632598252
 23
51.44187383182
 33
0.0
  0
LINE
  5
F548
330
C0FF
100
AcDbEntity
  8
titleblock
  6
ByBlock
100
AcDbLine
 10
1104.9
 20
12.7
 30
0.0
 11
952.5
 21
12.7
 31
0.0
  0
LINE
  5
F549
330
C0FF
100
AcDbEntity
  8
titleblock
  6
ByBlock
100
AcDbLine
 10
1104.9
 20
12.7
 30
0.0
 11
1104.9
 21
93.98000000000001
 31
0.0
  0
LINE
  5
F54A
330
C0FF
100
AcDbEntity
  8
titleblock
  6
ByBlock
100
AcDbLine
 10
1104.9
 20
23.622
 30
0.0
 11
987.2979999999998
 21
23.622
 31
0.0
  0
LINE
  5
F54B
330
C0FF
100
AcDbEntity
  8
titleblock
  6
ByBlock
100
AcDbLine
 10
1104.9
 20
41.40199999999999
 30
0.0
 11
1057.91
 21
41.40199999999999
 31
0.0
  0
LINE
  5
F54C
330
C0FF
100
AcDbEntity
  8
titleblock
  6
ByBlock
100
AcDbLine
 10
987.2979999999998
 20
41.40199999999999
 30
0.0
 11
952.5
 21
41.40199999999999
 31
0.0
  0
LINE
  5
F54D
330
C0FF
100
AcDbEntity
  8
titleblock
  6
ByBlock
100
AcDbLine
 10
1104.9
 20
44.958
 30
0.0
 11
987.2979999999998
 21
44.958
 31
0.0
  0
LINE
  5
F54E
330
C0FF
100
AcDbEntity
  8
titleblock
  6
ByBlock
100
AcDbLine
 10
1104.9
 20
61.722
 30
0.0
 11
987.2979999999998
 21
61.722
 31
0.0
  0
LINE
  5
F54F
330
C0FF
100
AcDbEntity
  8
titleblock
  6
ByBlock
100
AcDbLine
 10
1083.563999999999
 20
67.30999999999998
 30
0.0
 11
987.2979999999998
 21
67.30999999999998
 31
0.0
  0
LINE
  5
F550
330
C0FF
100
AcDbEntity
  8
titleblock
  6
ByBlock
100
AcDbLine
 10
1104.9
 20
79.24800000000001
 30
0.0
 11
987.2979999999998
 21
79.24800000000001
 31
0.0
  0
LINE
  5
F551
330
C0FF
100
AcDbEntity
  8
titleblock
  6
ByBlock
100
AcDbLine
 10
1104.9
 20
87.62999999999999
 30
0.0
 11
952.5
 21
87.62999999999999
 31
0.0
  0
LINE
  5
F552
330
C0FF
100
AcDbEntity
  8
titleblock
  6
ByBlock
100
AcDbLine
 10
1104.9
 20
93.98000000000001
 30
0.0
 11
952.5
 21
93.98000000000001
 31
0.0
  0
LINE
  5
F553
330
C0FF
100
AcDbEntity
  8
titleblock
  6
ByBlock
100
AcDbLine
 10
1091.946
 20
12.7
 30
0.0
 11
1091.946
 21
23.622
 31
0.0
  0
LINE
  5
F554
330
C0FF
100
AcDbEntity
  8
titleblock
  6
ByBlock
100
AcDbLine
 10
1083.563999999999
 20
61.722
 30
0.0
 11
1083.563999999999
 21
87.62999999999999
 31
0.0
  0
LINE
  5
F555
330
C0FF
100
AcDbEntity
  8
titleblock
  6
ByBlock
100
AcDbLine
 10
1065.276
 20
67.30999999999998
 30
0.0
 11
1065.276
 21
87.62999999999999
 31
0.0
  0
LINE
  5
F556
330
C0FF
100
AcDbEntity
  8
titleblock
  6
ByBlock
100
AcDbLine
 10
1057.91
 20
41.40199999999999
 30
0.0
 11
1057.91
 21
67.30999999999998
 31
0.0
  0
LINE
  5
F557
330
C0FF
100
AcDbEntity
  8
titleblock
  6
ByBlock
100
AcDbLine
 10
1040.638
 20
67.30999999999998
 30
0.0
 11
1040.638
 21
87.62999999999999
 31
0.0
  0
LINE
  5
F558
330
C0FF
100
AcDbEntity
  8
titleblock
  6
ByBlock
100
AcDbLine
 10
1013.206
 20
67.30999999999998
 30
0.0
 11
1013.206
 21
79.24800000000001
 31
0.0
  0
LINE
  5
F559
330
C0FF
100
AcDbEntity
  8
titleblock
  6
ByBlock
100
AcDbLine
 10
987.2979999999998
 20
12.7
 30
0.0
 11
987.2979999999998
 21
87.62999999999999
 31
0.0
  0
LINE
  5
F55A
330
C0FF
100
AcDbEntity
  8
titleblock
  6
ByBlock
100
AcDbLine
 10
952.5
 20
12.7
 30
0.0
 11
952.5
 21
93.98000000000001
 31
0.0
  0
TEXT
  5
F55B
330
C0FF
100
AcDbEntity
  8
titleblock
  6
ByBlock
100
AcDbText
 10
1092.665666666666
 20
13.97
 30
0.0
 40
2.54
  1
x of x
 41
0.8
 72
     1
 11
1098.423
 21
13.97
 31
0.0
100
AcDbText
  0
TEXT
  5
F55C
330
C0FF
100
AcDbEntity
  8
titleblock
  6
ByBlock
100
AcDbText
 10
1018.4892
 20
15.113
 30
0.0
 40
6.095999999999999
  1
&dwg_name
 41
0.8
 72
     1
 11
1039.622
 21
15.113
 31
0.0
100
AcDbText
  0
TEXT
  5
F55D
330
C0FF
100
AcDbEntity
  8
titleblock
  6
ByBlock
100
AcDbText
 10
1025.779
 20
29.464
 30
0.0
 40
6.095999999999999
  1
&file_title
 41
0.8
 72
     1
 11
1046.099
 21
29.464
 31
0.0
100
AcDbText
  0
TEXT
  5
F55E
330
C0FF
100
AcDbEntity
  8
titleblock
  6
ByBlock
100
AcDbText
 10
1083.225333333333
 20
41.90999999999999
 30
0.0
 40
2.54
  1
&model_name
 41
0.8
 72
     2
 11
1103.884
 21
41.90999999999999
 31
0.0
100
AcDbText
  0
TEXT
  5
F55F
330
C0FF
100
AcDbEntity
  8
titleblock
  6
ByBlock
100
AcDbText
 10
953.5159999999999
 20
46.482
 30
0.0
 40
2.54
  1
    ANG %%p 
 41
0.8366666667
100
AcDbText
  0
TEXT
  5
F560
330
C0FF
100
AcDbEntity
  8
titleblock
  6
ByBlock
100
AcDbText
 10
974.7673333341799
 20
46.482
 30
0.0
 40
2.54
  1
&angular_tol_0_0
 41
0.8
100
AcDbText
  0
TEXT
  5
F561
330
C0FF
100
AcDbEntity
  8
titleblock
  6
ByBlock
100
AcDbText
 10
953.5159999999999
 20
52.06999999999999
 30
0.0
 40
2.54
  1
     .X %%p
 41
0.8407407407
100
AcDbText
  0
TEXT
  5
F562
330
C0FF
100
AcDbEntity
  8
0
  6
Continuous
 62
     2
370
     0
100
AcDbText
 10
38.2966666667
 20
2.049999999999999
 30
0.0
 40
0.1
  1
 
 41
0.8
100
AcDbText
  0
TEXT
  5
F563
330
C0FF
100
AcDbEntity
  8
titleblock
  6
ByBlock
100
AcDbText
 10
974.7673333341799
 20
52.06999999999999
 30
0.0
 40
2.54
  1
&linear_tol_0_0
 41
0.8
100
AcDbText
  0
TEXT
  5
F564
330
C0FF
100
AcDbEntity
  8
titleblock
  6
ByBlock
100
AcDbText
 10
953.5159999999999
 20
57.65799999999999
 30
0.0
 40
2.54
  1
    .XX %%p 
 41
0.8366666667
100
AcDbText
  0
TEXT
  5
F565
330
C0FF
100
AcDbEntity
  8
titleblock
  6
ByBlock
100
AcDbText
 10
974.7673333341799
 20
57.65799999999999
 30
0.0
 40
2.54
  1
&linear_tol_0_00
 41
0.8
100
AcDbText
  0
TEXT
  5
F566
330
C0FF
100
AcDbEntity
  8
titleblock
  6
ByBlock
100
AcDbText
 10
953.5159999999999
 20
63.246
 30
0.0
 40
2.54
  1
   .XXX %%p 
 41
0.8366666667
100
AcDbText
  0
TEXT
  5
F567
330
C0FF
100
AcDbEntity
  8
titleblock
  6
ByBlock
100
AcDbText
 10
974.7673333341799
 20
63.246
 30
0.0
 40
2.54
  1
&linear_tol_0_000
 41
0.8
100
AcDbText
  0
TEXT
  5
F568
330
C0FF
100
AcDbEntity
  8
titleblock
  6
ByBlock
100
AcDbText
 10
1060.196
 20
68.58
 30
0.0
 40
2.54
  1
&CHECKED_DATE:D
 41
0.8
 72
     1
 11
1074.42
 21
68.58
 31
0.0
100
AcDbText
  0
TEXT
  5
F569
330
C0FF
100
AcDbEntity
  8
titleblock
  6
ByBlock
100
AcDbText
 10
1043.813
 20
68.58
 30
0.0
 40
2.54
  1
&CHECKED:D
 41
0.8
 72
     1
 11
1052.957
 21
68.58
 31
0.0
100
AcDbText
  0
TEXT
  5
F56A
330
C0FF
100
AcDbEntity
  8
titleblock
  6
ByBlock
100
AcDbText
 10
1014.391333333333
 20
68.58
 30
0.0
 40
2.54
  1
&DRAWN_DATE:D
 41
0.8
 72
     1
 11
1026.922
 21
68.58
 31
0.0
100
AcDbText
  0
TEXT
  5
F56B
330
C0FF
100
AcDbEntity
  8
titleblock
  6
ByBlock
100
AcDbText
 10
991.7853333333333
 20
68.58
 30
0.0
 40
2.54
  1
MING CHEN
 41
0.8
 72
     1
 11
1000.252
 21
68.58
 31
0.0
100
AcDbText
  0
TEXT
  5
F56C
330
C0FF
100
AcDbEntity
  8
titleblock
  6
ByBlock
100
AcDbText
 10
1088.982666666666
 20
80.518
 30
0.0
 40
2.54
  1
&scale
 41
0.8
 72
     1
 11
1094.232
 21
80.518
 31
0.0
100
AcDbText
  0
TEXT
  5
F56D
330
C0FF
100
AcDbEntity
  8
titleblock
  6
ByBlock
100
AcDbText
 10
1037.378333333333
 20
80.518
 30
0.0
 40
2.54
  1
&APPROVED_DATE:D
 41
0.8
 72
     1
 11
1052.957
 21
80.518
 31
0.0
100
AcDbText
  0
TEXT
  5
F56E
330
C0FF
100
AcDbEntity
  8
titleblock
  6
ByBlock
100
AcDbText
 10
1003.469333333333
 20
80.518
 30
0.0
 40
2.54
  1
&APPROVED:D
 41
0.8
 72
     1
 11
1013.968
 21
80.518
 31
0.0
100
AcDbText
  0
TEXT
  5
F56F
330
C0FF
100
AcDbEntity
  8
titleblock
  6
ByBlock
100
AcDbText
 10
973.201
 20
89.535
 30
0.0
 40
2.54
  1
DIMENSIONING AND TOLERANCING PER ASME Y14.5M-1994
 41
0.95
 72
     1
 11
1028.7
 21
89.535
 31
0.0
100
AcDbText
  0
LINE
  5
F570
330
C0FF
100
AcDbEntity
  8
titleblock
  6
ByBlock
100
AcDbLine
 10
952.5
 20
12.7
 30
0.0
 11
838.1999999999999
 21
12.7
 31
0.0
  0
LINE
  5
F571
330
C0FF
100
AcDbEntity
  8
titleblock
  6
ByBlock
100
AcDbLine
 10
952.5
 20
12.7
 30
0.0
 11
952.5
 21
93.98000000000001
 31
0.0
  0
LINE
  5
F572
330
C0FF
100
AcDbEntity
  8
titleblock
  6
ByBlock
100
AcDbLine
 10
952.5
 20
19.304
 30
0.0
 11
838.1999999999999
 21
19.304
 31
0.0
  0
LINE
  5
F573
330
C0FF
100
AcDbEntity
  8
titleblock
  6
ByBlock
100
AcDbLine
 10
952.5
 20
25.908
 30
0.0
 11
838.1999999999999
 21
25.908
 31
0.0
  0
LINE
  5
F574
330
C0FF
100
AcDbEntity
  8
titleblock
  6
ByBlock
100
AcDbLine
 10
952.5
 20
32.0802
 30
0.0
 11
838.1999999999999
 21
32.0802
 31
0.0
  0
LINE
  5
F575
330
C0FF
100
AcDbEntity
  8
titleblock
  6
ByBlock
100
AcDbLine
 10
952.5
 20
38.2524
 30
0.0
 11
838.1999999999999
 21
38.2524
 31
0.0
  0
LINE
  5
F576
330
C0FF
100
AcDbEntity
  8
titleblock
  6
ByBlock
100
AcDbLine
 10
952.5
 20
44.42459999999999
 30
0.0
 11
838.1999999999999
 21
44.42459999999999
 31
0.0
  0
LINE
  5
F577
330
C0FF
100
AcDbEntity
  8
titleblock
  6
ByBlock
100
AcDbLine
 10
952.5
 20
50.5968
 30
0.0
 11
838.1999999999999
 21
50.5968
 31
0.0
  0
LINE
  5
F578
330
C0FF
100
AcDbEntity
  8
titleblock
  6
ByBlock
100
AcDbLine
 10
952.5
 20
56.76899999999999
 30
0.0
 11
838.1999999999999
 21
56.76899999999999
 31
0.0
  0
LINE
  5
F579
330
C0FF
100
AcDbEntity
  8
titleblock
  6
ByBlock
100
AcDbLine
 10
952.5
 20
62.9412
 30
0.0
 11
838.1999999999999
 21
62.9412
 31
0.0
  0
LINE
  5
F57A
330
C0FF
100
AcDbEntity
  8
titleblock
  6
ByBlock
100
AcDbLine
 10
952.5
 20
69.1134
 30
0.0
 11
838.1999999999999
 21
69.1134
 31
0.0
  0
LINE
  5
F57B
330
C0FF
100
AcDbEntity
  8
titleblock
  6
ByBlock
100
AcDbLine
 10
952.5
 20
75.28559999999998
 30
0.0
 11
838.1999999999999
 21
75.28559999999998
 31
0.0
  0
LINE
  5
F57C
330
C0FF
100
AcDbEntity
  8
titleblock
  6
ByBlock
100
AcDbLine
 10
952.5
 20
81.4578
 30
0.0
 11
838.1999999999999
 21
81.4578
 31
0.0
  0
LINE
  5
F57D
330
C0FF
100
AcDbEntity
  8
titleblock
  6
ByBlock
100
AcDbLine
 10
952.5
 20
87.62999999999999
 30
0.0
 11
838.1999999999999
 21
87.62999999999999
 31
0.0
  0
LINE
  5
F57E
330
C0FF
100
AcDbEntity
  8
titleblock
  6
ByBlock
100
AcDbLine
 10
952.5
 20
93.98000000000001
 30
0.0
 11
838.1999999999999
 21
93.98000000000001
 31
0.0
  0
LINE
  5
F57F
330
C0FF
100
AcDbEntity
  8
titleblock
  6
ByBlock
100
AcDbLine
 10
935.9899999999999
 20
19.304
 30
0.0
 11
935.9899999999999
 21
87.62999999999999
 31
0.0
  0
LINE
  5
F580
330
C0FF
100
AcDbEntity
  8
titleblock
  6
ByBlock
100
AcDbLine
 10
883.412
 20
19.304
 30
0.0
 11
883.412
 21
87.62999999999999
 31
0.0
  0
LINE
  5
F581
330
C0FF
100
AcDbEntity
  8
titleblock
  6
ByBlock
100
AcDbLine
 10
869.1879999999999
 20
19.304
 30
0.0
 11
869.1879999999999
 21
87.62999999999999
 31
0.0
  0
LINE
  5
F582
330
C0FF
100
AcDbEntity
  8
titleblock
  6
ByBlock
100
AcDbLine
 10
853.1859999999999
 20
19.304
 30
0.0
 11
853.1859999999999
 21
87.62999999999999
 31
0.0
  0
LINE
  5
F583
330
C0FF
100
AcDbEntity
  8
titleblock
  6
ByBlock
100
AcDbLine
 10
838.1999999999999
 20
12.7
 30
0.0
 11
838.1999999999999
 21
93.98000000000001
 31
0.0
  0
TEXT
  5
F584
330
C0FF
100
AcDbEntity
  8
titleblock
  6
ByBlock
100
AcDbText
 10
862.7745
 20
89.535
 30
0.0
 40
2.54
  1
ALL DIMENSIONS IN: MM [INCHES]
 41
0.95
 72
     1
 11
895.35
 21
89.535
 31
0.0
100
AcDbText
  0
TEXT
  5
F585
330
C0FF
100
AcDbEntity
  8
titleblock
  6
ByBlock
100
AcDbText
 10
988.1063573825199
 20
75.97014583181999
 30
0.0
 40
1.904999999999999
  1
DRAWN
 41
1.04
 51
0.000019
100
AcDbText
  0
TEXT
  5
F586
330
C0FF
100
AcDbEntity
  8
titleblock
  6
ByBlock
100
AcDbText
 10
1094.1691641846
 20
20.1048330313
 30
0.0
 40
1.904999999999999
  1
SHEET
 41
0.9399999999999998
 51
0.000019
100
AcDbText
  0
TEXT
  5
F587
330
C0FF
100
AcDbEntity
  8
titleblock
  6
ByBlock
100
AcDbText
 10
1064.58037258252
 20
63.34263743181999
 30
0.0
 40
2.54
  1
ACAD 2004
 41
0.8
 51
0.000019
100
AcDbText
  0
TEXT
  5
F588
330
C0FF
100
AcDbEntity
  8
titleblock
  6
ByBlock
100
AcDbText
 10
1090.62090978252
 20
75.41558763181999
 30
0.0
 40
1.904999999999999
  1
DWG
 51
0.000019
100
AcDbText
  0
TEXT
  5
F589
330
C0FF
100
AcDbEntity
  8
titleblock
  6
ByBlock
100
AcDbText
 10
993.2832583825199
 20
63.34657443181999
 30
0.0
 40
2.285999999999999
  1
DO NOT SCALE DRAWING
 41
1.199999999999999
 51
0.000019
100
AcDbText
  0
TEXT
  5
F58A
330
C0FF
100
AcDbEntity
  8
titleblock
  6
ByBlock
100
AcDbText
 10
1006.89753374726
 20
46.62049663181999
 30
0.0
 40
1.904999999999999
  1
KOHLER CO. CHINA
 41
1.02
 51
0.000019
 72
     1
 11
1021.14693374726
 21
46.62049663181999
 31
0.0
100
AcDbText
  0
TEXT
  5
F58B
330
C0FF
100
AcDbEntity
  8
titleblock
  6
ByBlock
100
AcDbText
 10
1059.07842778252
 20
57.86665143181998
 30
0.0
 40
1.904999999999999
  1
THIRD ANGLE PROJECTION
 51
0.000019
100
AcDbText
  0
TEXT
  5
F58C
330
C0FF
100
AcDbEntity
  8
titleblock
  6
ByBlock
100
AcDbText
 10
954.0065525825198
 20
37.89044043182
 30
0.0
 40
1.587499999999999
  1
THIS DRAWING IN DESIGN
 41
0.925
 51
0.000019
100
AcDbText
  0
TEXT
  5
F58D
330
C0FF
100
AcDbEntity
  8
titleblock
  6
ByBlock
100
AcDbText
 10
954.0065525825198
 20
34.95356543182
 30
0.0
 40
1.587499999999999
  1
AND DETAILS IS THE PROP-
 41
0.85
 51
0.000019
100
AcDbText
  0
TEXT
  5
F58E
330
C0FF
100
AcDbEntity
  8
titleblock
  6
ByBlock
100
AcDbText
 10
1089.85812238252
 20
63.54979983181999
 30
0.0
 40
1.904999999999999
  1
SIZE
 51
0.000019
100
AcDbText
  0
TEXT
  5
F58F
330
C0FF
100
AcDbEntity
  8
titleblock
  6
ByBlock
100
AcDbText
 10
954.0065525825198
 20
32.03256543182
 30
0.0
 40
1.587499999999999
  1
ERTY OF KOHLER CO. 
 51
0.000019
100
AcDbText
  0
TEXT
  5
F590
330
C0FF
100
AcDbEntity
  8
titleblock
  6
ByBlock
100
AcDbText
 10
954.0065525825198
 20
20.34856543182
 30
0.0
 40
1.587499999999999
  1
ALL RIGHTS OF DESIGN
 51
0.000019
100
AcDbText
  0
TEXT
  5
F591
330
C0FF
100
AcDbEntity
  8
titleblock
  6
ByBlock
100
AcDbText
 10
954.0065525825198
 20
17.42756543182
 30
0.0
 40
1.587499999999999
  1
OR INVENTION ARE
 51
0.000019
100
AcDbText
  0
TEXT
  5
F592
330
C0FF
100
AcDbEntity
  8
titleblock
  6
ByBlock
100
AcDbText
 10
954.0065525825198
 20
14.50656543182
 30
0.0
 40
1.587499999999999
  1
RESERVED.
 51
0.000019
100
AcDbText
  0
TEXT
  5
F593
330
C0FF
100
AcDbEntity
  8
titleblock
  6
ByBlock
100
AcDbText
 10
954.0065525825198
 20
29.19094043182
 30
0.0
 40
1.587499999999999
  1
AND MAY NOT BE USED
 51
0.000019
100
AcDbText
  0
TEXT
  5
F594
330
C0FF
100
AcDbEntity
  8
titleblock
  6
ByBlock
100
AcDbText
 10
954.0065525825198
 20
26.26994043182
 30
0.0
 40
1.587499999999999
  1
EXCEPT IN CONNECTION
 51
0.000019
100
AcDbText
  0
TEXT
  5
F595
330
C0FF
100
AcDbEntity
  8
titleblock
  6
ByBlock
100
AcDbText
 10
954.0065525825198
 20
23.26956543182
 30
0.0
 40
1.587499999999999
  1
WITH KOHLER CO. WORK.
 51
0.000019
100
AcDbText
  0
TEXT
  5
F596
330
C0FF
100
AcDbEntity
  8
titleblock
  6
ByBlock
100
AcDbText
 10
988.3717873825199
 20
19.96881003182
 30
0.0
 40
1.904999999999999
  1
DWG. NO.
 41
0.8
 51
0.000019
100
AcDbText
  0
TEXT
  5
F597
330
C0FF
100
AcDbEntity
  8
titleblock
  6
ByBlock
100
AcDbText
 10
988.5988887825199
 20
41.65263763181999
 30
0.0
 40
1.904999999999999
  1
DESCRIPTION
 41
1.05
 51
0.000019
100
AcDbText
  0
TEXT
  5
F598
330
C0FF
100
AcDbEntity
  8
titleblock
  6
ByBlock
100
AcDbText
 10
1014.52581178252
 20
76.02213963181999
 30
0.0
 40
1.904999999999999
  1
DATE
 41
1.09
 51
0.000019
100
AcDbText
  0
TEXT
  5
F599
330
C0FF
100
AcDbEntity
  8
titleblock
  6
ByBlock
100
AcDbText
 10
1041.48222218252
 20
76.20362263181999
 30
0.0
 40
1.904999999999999
  1
CHECKED
 41
0.99
 51
0.000019
100
AcDbText
  0
TEXT
  5
F59A
330
C0FF
100
AcDbEntity
  8
titleblock
  6
ByBlock
100
AcDbText
 10
1066.49885998252
 20
76.03006443182
 30
0.0
 40
1.904999999999999
  1
DATE
 41
1.09
 51
0.000019
100
AcDbText
  0
TEXT
  5
F59B
330
C0FF
100
AcDbEntity
  8
titleblock
  6
ByBlock
100
AcDbText
 10
987.99556258252
 20
84.77393823182
 30
0.0
 40
1.904999999999999
  1
APPROVED
 41
1.07
 51
0.000019
100
AcDbText
  0
TEXT
  5
F59C
330
C0FF
100
AcDbEntity
  8
titleblock
  6
ByBlock
100
AcDbText
 10
1041.37978398252
 20
84.80830443182
 30
0.0
 40
1.904999999999999
  1
DATE
 41
1.09
 51
0.000019
100
AcDbText
  0
TEXT
  5
F59D
330
C0FF
100
AcDbEntity
  8
titleblock
  6
ByBlock
100
AcDbText
 10
957.5831773825198
 20
83.57076563181999
 30
0.0
 40
1.904999999999999
  1
TOLERANCES
 41
1.229999999999999
 51
0.000019
100
AcDbText
  0
TEXT
  5
F59E
330
C0FF
100
AcDbEntity
  8
titleblock
  6
ByBlock
100
AcDbText
 10
1084.53052318252
 20
84.77355723181998
 30
0.0
 40
1.904999999999999
  1
SCALE
 41
1.069994666699999
 51
0.000019
100
AcDbText
  0
TEXT
  5
F59F
330
C0FF
100
AcDbEntity
  8
titleblock
  6
ByBlock
100
AcDbText
 10
963.9230173825199
 20
79.99889063181999
 30
0.0
 40
1.904999999999999
  1
UNLESS
 41
1.01
 51
0.000019
100
AcDbText
  0
TEXT
  5
F5A0
330
C0FF
100
AcDbEntity
  8
titleblock
  6
ByBlock
100
AcDbText
 10
960.5702173825198
 20
76.42701563182
 30
0.0
 40
1.904999999999999
  1
OTHERWISE
 41
1.04
 51
0.000019
100
AcDbText
  0
TEXT
  5
F5A1
330
C0FF
100
AcDbEntity
  8
titleblock
  6
ByBlock
100
AcDbText
 10
960.6616573825199
 20
72.85514063181999
 30
0.0
 40
1.904999999999999
  1
SPECIFIED
 41
1.03
 51
0.000019
100
AcDbText
  0
TEXT
  5
F5A2
330
C0FF
100
AcDbEntity
  8
titleblock
  6
ByBlock
100
AcDbText
 10
841.64091496982
 20
20.3732210137
 30
0.0
 40
2.285999999999999
  1
SHT
 41
0.9400037037
 51
0.000019
100
AcDbText
  0
TEXT
  5
F5A3
330
C0FF
100
AcDbEntity
  8
titleblock
  6
ByBlock
100
AcDbText
 10
857.1762156288999
 20
20.19668350546
 30
0.0
 40
2.285999999999999
  1
SYM
 51
0.000019
100
AcDbText
  0
TEXT
  5
F5A4
330
C0FF
100
AcDbEntity
  8
titleblock
  6
ByBlock
100
AcDbText
 10
873.9472788355
 20
20.3732210137
 30
0.0
 40
2.285999999999999
  1
BY
 41
0.9700055556
 51
0.000019
100
AcDbText
  0
TEXT
  5
F5A5
330
C0FF
100
AcDbEntity
  8
titleblock
  6
ByBlock
100
AcDbText
 10
895.5496923133399
 20
20.3732210137
 30
0.0
 40
2.285999999999999
  1
DESCRIPTION
 41
1.05
 51
0.000019
100
AcDbText
  0
TEXT
  5
F5A6
330
C0FF
100
AcDbEntity
  8
titleblock
  6
ByBlock
100
AcDbText
 10
939.6840691802998
 20
20.5497585194
 30
0.0
 40
2.285999999999999
  1
DATE
 41
1.09
 51
0.000019
100
AcDbText
  0
TEXT
  5
F5A7
330
C0FF
100
AcDbEntity
  8
titleblock
  6
ByBlock
100
AcDbText
 10
863.9540275825199
 20
14.72089063182
 30
0.0
 40
2.285999999999999
  1
DWG REVISION RECORD
 41
1.379999999999999
 51
0.000019
100
AcDbText
  0
TEXT
  5
F5A8
330
C0FF
100
AcDbEntity
  8
titleblock
  6
ByBlock
100
AcDbText
 10
1066.30155278252
 20
84.65786023181999
 30
0.0
 40
1.904999999999999
  1
PLOT DATE
 41
0.925
 51
0.000019
100
AcDbText
  0
TEXT
  5
F5A9
330
C0FF
100
AcDbEntity
  8
titleblock
  6
ByBlock
100
AcDbText
 10
1059.64052978252
 20
41.98126283181999
 30
0.0
 40
1.904999999999999
  1
PART NAME
 41
0.8
 51
0.000019
100
AcDbText
  0
TEXT
  5
F5AA
330
C0FF
100
AcDbEntity
  8
0
  6
Continuous
 62
     2
370
     0
100
AcDbText
 10
41.0936250938
 20
1.151749623299999
 30
0.0
 40
0.24
  1
 
 41
0.8
 51
0.000018724
100
AcDbText
  0
TEXT
  5
F5AB
330
C0FF
100
AcDbEntity
  8
titleblock
  6
ByBlock
100
AcDbText
 10
1090.02248430932
 20
67.71296347143999
 30
0.0
 40
6.095999999999999
  1
E
 41
1.199999999999999
100
AcDbText
  0
TEXT
  5
F5AC
330
C0FF
100
AcDbEntity
  8
0
  6
Continuous
100
AcDbText
 10
1109.556666666666
 20
50.8
 30
0.0
 40
6.349999999999999
  1
A
 41
0.8
 72
     1
 11
1111.25
 21
50.8
 31
0.0
100
AcDbText
  0
TEXT
  5
F5AD
330
C0FF
100
AcDbEntity
  8
0
  6
Continuous
100
AcDbText
 10
1109.556666666666
 20
158.75
 30
0.0
 40
6.349999999999999
  1
B
 41
0.8
 72
     1
 11
1111.25
 21
158.75
 31
0.0
100
AcDbText
  0
TEXT
  5
F5AE
330
C0FF
100
AcDbEntity
  8
0
  6
Continuous
100
AcDbText
 10
1109.556666666666
 20
266.7
 30
0.0
 40
6.349999999999999
  1
C
 41
0.8
 72
     1
 11
1111.25
 21
266.7
 31
0.0
100
AcDbText
  0
TEXT
  5
F5AF
330
C0FF
100
AcDbEntity
  8
0
  6
Continuous
100
AcDbText
 10
1109.556666666666
 20
374.65
 30
0.0
 40
6.349999999999999
  1
D
 41
0.8
 72
     1
 11
1111.25
 21
374.65
 31
0.0
100
AcDbText
  0
TEXT
  5
F5B0
330
C0FF
100
AcDbEntity
  8
0
  6
Continuous
100
AcDbText
 10
1109.556666666666
 20
482.5999999999999
 30
0.0
 40
6.349999999999999
  1
E
 41
0.8
 72
     1
 11
1111.25
 21
482.5999999999999
 31
0.0
100
AcDbText
  0
TEXT
  5
F5B1
330
C0FF
100
AcDbEntity
  8
0
  6
Continuous
100
AcDbText
 10
1109.556666666666
 20
590.5499999999999
 30
0.0
 40
6.349999999999999
  1
F
 41
0.8
 72
     1
 11
1111.25
 21
590.5499999999999
 31
0.0
100
AcDbText
  0
TEXT
  5
F5B2
330
C0FF
100
AcDbEntity
  8
0
  6
Continuous
100
AcDbText
 10
1109.556666666666
 20
698.5
 30
0.0
 40
6.349999999999999
  1
G
 41
0.8
 72
     1
 11
1111.25
 21
698.5
 31
0.0
100
AcDbText
  0
TEXT
  5
F5B3
330
C0FF
100
AcDbEntity
  8
0
  6
Continuous
100
AcDbText
 10
1109.556666666666
 20
806.4499999999998
 30
0.0
 40
6.349999999999999
  1
H
 41
0.8
 72
     1
 11
1111.25
 21
806.4499999999998
 31
0.0
100
AcDbText
  0
TEXT
  5
F5B4
330
C0FF
100
AcDbEntity
  8
0
  6
Continuous
100
AcDbText
 10
68.15666666666666
 20
3.174999999999999
 30
0.0
 40
6.349999999999999
  1
8
 41
0.8
 72
     1
 11
69.84999999999999
 21
3.174999999999999
 31
0.0
100
AcDbText
  0
TEXT
  5
F5B5
330
C0FF
100
AcDbEntity
  8
0
  6
Continuous
100
AcDbText
 10
207.8566666666667
 20
3.174999999999999
 30
0.0
 40
6.349999999999999
  1
7
 41
0.8
 72
     1
 11
209.55
 21
3.174999999999999
 31
0.0
100
AcDbText
  0
TEXT
  5
F5B6
330
C0FF
100
AcDbEntity
  8
0
  6
Continuous
100
AcDbText
 10
347.5566666666667
 20
3.174999999999999
 30
0.0
 40
6.349999999999999
  1
6
 41
0.8
 72
     1
 11
349.25
 21
3.174999999999999
 31
0.0
100
AcDbText
  0
TEXT
  5
F5B7
330
C0FF
100
AcDbEntity
  8
0
  6
Continuous
100
AcDbText
 10
487.2566666666666
 20
3.174999999999999
 30
0.0
 40
6.349999999999999
  1
5
 41
0.8
 72
     1
 11
488.9499999999999
 21
3.174999999999999
 31
0.0
100
AcDbText
  0
TEXT
  5
F5B8
330
C0FF
100
AcDbEntity
  8
0
  6
Continuous
100
AcDbText
 10
626.9566666666666
 20
3.174999999999999
 30
0.0
 40
6.349999999999999
  1
4
 41
0.8
 72
     1
 11
628.65
 21
3.174999999999999
 31
0.0
100
AcDbText
  0
TEXT
  5
F5B9
330
C0FF
100
AcDbEntity
  8
0
  6
Continuous
100
AcDbText
 10
766.6566666666665
 20
3.174999999999999
 30
0.0
 40
6.349999999999999
  1
3
 41
0.8
 72
     1
 11
768.3499999999999
 21
3.174999999999999
 31
0.0
100
AcDbText
  0
TEXT
  5
F5BA
330
C0FF
100
AcDbEntity
  8
0
  6
Continuous
100
AcDbText
 10
906.3566666666666
 20
3.174999999999999
 30
0.0
 40
6.349999999999999
  1
2
 41
0.8
 72
     1
 11
908.0499999999998
 21
3.174999999999999
 31
0.0
100
AcDbText
  0
TEXT
  5
F5BB
330
C0FF
100
AcDbEntity
  8
0
  6
Continuous
100
AcDbText
 10
1046.903333333333
 20
3.174999999999999
 30
0.0
 40
6.349999999999999
  1
1
 41
0.8
 72
     1
 11
1047.75
 21
3.174999999999999
 31
0.0
100
AcDbText
  0
INSERT
  5
F5BC
330
C0FF
100
AcDbEntity
  8
titleblock
  6
HIDDEN
 62
     8
100
AcDbBlockReference
  2
C_ARROW_BL0
 10
558.8
 20
855.6624999999998
 30
0.0
 41
25.4
 42
25.4
 43
25.4
  0
INSERT
  5
F5BD
330
C0FF
100
AcDbEntity
  8
titleblock
  6
HIDDEN
 62
     8
100
AcDbBlockReference
  2
C_ARROW_BL1
 10
7.925231411379999
 20
431.7999999999999
 30
0.0
 41
25.4
 42
25.4
 43
25.4
  0
INSERT
  5
F5BE
330
C0FF
100
AcDbEntity
  8
titleblock
  6
HIDDEN
 62
     8
100
AcDbBlockReference
  2
C_ARROW_BL2
 10
558.8
 20
7.9375
 30
0.0
 41
25.4
 42
25.4
 43
25.4
  0
INSERT
  5
F5BF
330
C0FF
100
AcDbEntity
  8
titleblock
  6
HIDDEN
 62
     8
100
AcDbBlockReference
  2
C_ARROW_BL3
 10
1109.6718621479
 20
431.7999999999999
 30
0.0
 41
25.4
 42
25.4
 43
25.4
  0
LINE
  5
F5C0
330
C0FF
100
AcDbEntity
  8
0
  6
Continuous
 62
     7
100
AcDbLine
 10
0.0
 20
0.0
 30
0.0
 11
0.0
 21
863.5999999999999
 31
0.0
  0
LINE
  5
F5C1
330
C0FF
100
AcDbEntity
  8
0
  6
Continuous
100
AcDbLine
 10
12.7
 20
12.7
 30
0.0
 11
12.7
 21
850.9
 31
0.0
  0
LINE
  5
F5C2
330
C0FF
100
AcDbEntity
  8
titleblock
  6
ByBlock
100
AcDbLine
 10
1035.31115876394
 20
55.64399903182
 30
0.0
 11
1035.70048996394
 21
55.74831683181999
 31
0.0
  0
LINE
  5
F5C3
330
C0FF
100
AcDbEntity
  8
titleblock
  6
ByBlock
100
AcDbLine
 10
1035.24835098252
 20
55.64399903182
 30
0.0
 11
1035.63768218252
 21
55.74831683181999
 31
0.0
  0
LINE
  5
F5C4
330
C0FF
100
AcDbEntity
  8
titleblock
  6
ByBlock
100
AcDbLine
 10
1092.11905258252
 20
55.35294043181999
 30
0.0
 11
1083.38780258252
 21
53.76544043182
 31
0.0
  0
LINE
  5
F5C5
330
C0FF
100
AcDbEntity
  8
titleblock
  6
ByBlock
100
AcDbLine
 10
1013.73025838252
 20
51.61670203182
 30
0.0
 11
1012.62647598252
 21
51.44187383182
 31
0.0
  0
LINE
  5
F5C6
330
C0FF
100
AcDbEntity
  8
titleblock
  6
ByBlock
100
AcDbLine
 10
1011.52269358252
 20
58.41079563182
 30
0.0
 11
1012.62647598252
 21
58.58562383181999
 31
0.0
  0
LINE
  5
F5C7
330
C0FF
100
AcDbEntity
  8
0
  6
Continuous
 62
     7
100
AcDbLine
 10
0.0
 20
0.0
 30
0.0
 11
1117.6
 21
0.0
 31
0.0
  0
LINE
  5
F5C8
330
C0FF
100
AcDbEntity
  8
0
  6
Continuous
100
AcDbLine
 10
139.7
 20
0.0
 30
0.0
 11
139.7
 21
12.7
 31
0.0
  0
LINE
  5
F5C9
330
C0FF
100
AcDbEntity
  8
titleblock
  6
ByBlock
100
AcDbLine
 10
1012.79901818252
 20
56.87584823182
 30
0.0
 11
1012.11471678252
 21
56.81242443181999
 31
0.0
  0
LINE
  5
F5CA
330
C0FF
100
AcDbEntity
  8
0
  6
Continuous
100
AcDbLine
 10
12.7
 20
12.7
 30
0.0
 11
1104.9
 21
12.7
 31
0.0
  0
LINE
  5
F5CB
330
C0FF
100
AcDbEntity
  8
titleblock
  6
ByBlock
100
AcDbLine
 10
1038.25507598252
 20
51.44187383182
 30
0.0
 11
1036.308826382519
 21
51.44187383182
 31
0.0
  0
LINE
  5
F5CC
330
C0FF
100
AcDbEntity
  8
titleblock
  6
ByBlock
100
AcDbLine
 10
1034.40062598252
 20
51.44187383182
 30
0.0
 11
1032.69882598252
 21
51.44187383182
 31
0.0
  0
LINE
  5
F5CD
330
C0FF
100
AcDbEntity
  8
titleblock
  6
ByBlock
100
AcDbLine
 10
1031.90507598252
 20
51.44187383182
 30
0.0
 11
1027.93632598252
 21
51.44187383182
 31
0.0
  0
LINE
  5
F5CE
330
C0FF
100
AcDbEntity
  8
titleblock
  6
ByBlock
100
AcDbLine
 10
1027.14257598252
 20
51.44187383182
 30
0.0
 11
1023.17382598252
 21
51.44187383182
 31
0.0
  0
LINE
  5
F5CF
330
C0FF
100
AcDbEntity
  8
titleblock
  6
ByBlock
100
AcDbLine
 10
1022.38007598252
 20
51.44187383182
 30
0.0
 11
1020.67827598252
 21
51.44187383182
 31
0.0
  0
LINE
  5
F5D0
330
C0FF
100
AcDbEntity
  8
titleblock
  6
ByBlock
100
AcDbLine
 10
1018.69390098252
 20
51.44187383182
 30
0.0
 11
1016.99210098252
 21
51.44187383182
 31
0.0
  0
LINE
  5
F5D1
330
C0FF
100
AcDbEntity
  8
titleblock
  6
ByBlock
100
AcDbLine
 10
1009.84835098252
 20
51.44187383182
 30
0.0
 11
1007.66898018252
 21
51.44187383182
 31
0.0
  0
LINE
  5
F5D2
330
C0FF
100
AcDbEntity
  8
titleblock
  6
ByBlock
100
AcDbLine
 10
1005.20015098252
 20
51.44187383182
 30
0.0
 11
1003.49835098252
 21
51.44187383182
 31
0.0
  0
LINE
  5
F5D3
330
C0FF
100
AcDbEntity
  8
titleblock
  6
ByBlock
100
AcDbLine
 10
1066.58011458252
 20
51.78106543182
 30
0.0
 11
1074.90359298252
 21
51.78106543182
 31
0.0
  0
LINE
  5
F5D4
330
C0FF
100
AcDbEntity
  8
titleblock
  6
ByBlock
100
AcDbLine
 10
1076.18413398252
 20
51.78106543182
 30
0.0
 11
1077.52289178252
 21
51.78106543182
 31
0.0
  0
LINE
  5
F5D5
330
C0FF
100
AcDbEntity
  8
titleblock
  6
ByBlock
100
AcDbLine
 10
1078.86162418252
 20
51.78106543182
 30
0.0
 11
1093.41318258252
 21
51.78106543182
 31
0.0
  0
LINE
  5
F5D6
330
C0FF
100
AcDbEntity
  8
titleblock
  6
ByBlock
100
AcDbLine
 10
1024.87562598252
 20
53.14367383182
 30
0.0
 11
1027.14257598252
 21
53.14367383182
 31
0.0
  0
LINE
  5
F5D7
330
C0FF
100
AcDbEntity
  8
titleblock
  6
ByBlock
100
AcDbLine
 10
1029.63812598252
 20
53.14367383182
 30
0.0
 11
1031.90507598252
 21
53.14367383182
 31
0.0
  0
LINE
  5
F5D8
330
C0FF
100
AcDbEntity
  8
titleblock
  6
ByBlock
100
AcDbLine
 10
1015.63713798252
 20
53.15164943182
 30
0.0
 11
1012.79901818252
 21
53.15164943182
 31
0.0
  0
LINE
  5
F5D9
330
C0FF
100
AcDbEntity
  8
titleblock
  6
ByBlock
100
AcDbLine
 10
1034.76724958252
 20
54.21999883181999
 30
0.0
 11
1034.40062598252
 21
54.21999883181999
 31
0.0
  0
LINE
  5
F5DA
330
C0FF
100
AcDbEntity
  8
titleblock
  6
ByBlock
100
AcDbLine
 10
1031.90507598252
 20
54.36129903181999
 30
0.0
 11
1029.63812598252
 21
54.36129903181999
 31
0.0
  0
LINE
  5
F5DB
330
C0FF
100
AcDbEntity
  8
titleblock
  6
ByBlock
100
AcDbLine
 10
1020.67827598252
 20
54.55972383181999
 30
0.0
 11
1018.69390098252
 21
54.55972383181999
 31
0.0
  0
LINE
  5
F5DC
330
C0FF
100
AcDbEntity
  8
titleblock
  6
ByBlock
100
AcDbLine
 10
1037.35499516394
 20
55.64399903182
 30
0.0
 11
1034.40062598252
 21
55.64399903182
 31
0.0
  0
LINE
  5
F5DD
330
C0FF
100
AcDbEntity
  8
titleblock
  6
ByBlock
100
AcDbLine
 10
1029.63812598252
 20
55.66622403182
 30
0.0
 11
1031.90507598252
 21
55.66622403182
 31
0.0
  0
LINE
  5
F5DE
330
C0FF
100
AcDbEntity
  8
titleblock
  6
ByBlock
100
AcDbLine
 10
1018.69390098252
 20
56.26152383182
 30
0.0
 11
1020.67827598252
 21
56.26152383182
 31
0.0
  0
LINE
  5
F5DF
330
C0FF
100
AcDbEntity
  8
titleblock
  6
ByBlock
100
AcDbLine
 10
1012.79901818252
 20
56.87584823182
 30
0.0
 11
1009.61581398252
 21
56.87584823182
 31
0.0
  0
LINE
  5
F5E0
330
C0FF
100
AcDbEntity
  8
titleblock
  6
ByBlock
100
AcDbLine
 10
1031.90507598252
 20
56.88382383181998
 30
0.0
 11
1029.63812598252
 21
56.88382383181998
 31
0.0
  0
LINE
  5
F5E1
330
C0FF
100
AcDbEntity
  8
titleblock
  6
ByBlock
100
AcDbLine
 10
1035.31115876394
 20
57.20132383182
 30
0.0
 11
1032.69882598252
 21
57.20132383182
 31
0.0
  0
LINE
  5
F5E2
330
C0FF
100
AcDbEntity
  8
titleblock
  6
ByBlock
100
AcDbLine
 10
1003.49835098252
 20
58.58562383181999
 30
0.0
 11
1005.20015098252
 21
58.58562383181999
 31
0.0
  0
LINE
  5
F5E3
330
C0FF
100
AcDbEntity
  8
titleblock
  6
ByBlock
100
AcDbLine
 10
1007.44165018252
 20
58.58562383181999
 30
0.0
 11
1009.84835098252
 21
58.58562383181999
 31
0.0
  0
LINE
  5
F5E4
330
C0FF
100
AcDbEntity
  8
titleblock
  6
ByBlock
100
AcDbLine
 10
1016.99210098252
 20
58.58562383181999
 30
0.0
 11
1018.69390098252
 21
58.58562383181999
 31
0.0
  0
LINE
  5
F5E5
330
C0FF
100
AcDbEntity
  8
titleblock
  6
ByBlock
100
AcDbLine
 10
1020.67827598252
 20
58.58562383181999
 30
0.0
 11
1022.38007598252
 21
58.58562383181999
 31
0.0
  0
LINE
  5
F5E6
330
C0FF
100
AcDbEntity
  8
titleblock
  6
ByBlock
100
AcDbLine
 10
1023.17382598252
 20
58.58562383181999
 30
0.0
 11
1024.87562598252
 21
58.58562383181999
 31
0.0
  0
LINE
  5
F5E7
330
C0FF
100
AcDbEntity
  8
titleblock
  6
ByBlock
100
AcDbLine
 10
1027.93632598252
 20
58.58562383181999
 30
0.0
 11
1031.90507598252
 21
58.58562383181999
 31
0.0
  0
LINE
  5
F5E8
330
C0FF
100
AcDbEntity
  8
titleblock
  6
ByBlock
100
AcDbLine
 10
1032.69882598252
 20
58.58562383181999
 30
0.0
 11
1035.34133396394
 21
58.58562383181999
 31
0.0
  0
LINE
  5
F5E9
330
C0FF
100
AcDbEntity
  8
0
  6
Continuous
100
AcDbLine
 10
1104.9
 20
107.95
 30
0.0
 11
1117.6
 21
107.95
 31
0.0
  0
LINE
  5
F5EA
330
C0FF
100
AcDbEntity
  8
titleblock
  6
ByBlock
100
AcDbLine
 10
1012.11471678252
 20
53.21507323182
 30
0.0
 11
1012.79901818252
 21
53.15164943182
 31
0.0
  0
LINE
  5
F5EB
330
C0FF
100
AcDbEntity
  8
0
  6
Continuous
100
AcDbLine
 10
279.4
 20
0.0
 30
0.0
 11
279.4
 21
12.7
 31
0.0
  0
LINE
  5
F5EC
330
C0FF
100
AcDbEntity
  8
titleblock
  6
ByBlock
100
AcDbLine
 10
1012.62647598252
 20
51.44187383182
 30
0.0
 11
1011.52269358252
 21
51.61670203182
 31
0.0
  0
LINE
  5
F5ED
330
C0FF
100
AcDbEntity
  8
titleblock
  6
ByBlock
100
AcDbLine
 10
1012.62647598252
 20
58.58562383181999
 30
0.0
 11
1013.73025838252
 21
58.41079563182
 31
0.0
  0
LINE
  5
F5EE
330
C0FF
100
AcDbEntity
  8
titleblock
  6
ByBlock
100
AcDbLine
 10
1083.38780258252
 20
49.79669043181999
 30
0.0
 11
1092.11905258252
 21
48.20919043182
 31
0.0
  0
LINE
  5
F5EF
330
C0FF
100
AcDbEntity
  8
titleblock
  6
ByBlock
100
AcDbLine
 10
1035.27852618252
 20
58.58562383181999
 30
0.0
 11
1036.05482638252
 21
58.44290123182
 31
0.0
  0
LINE
  5
F5F0
330
C0FF
100
AcDbEntity
  8
titleblock
  6
ByBlock
100
AcDbLine
 10
1035.34133396394
 20
58.58562383181999
 30
0.0
 11
1036.11763416394
 21
58.44290123182
 31
0.0
  0
LINE
  5
F5F1
330
C0FF
100
AcDbEntity
  8
titleblock
  6
ByBlock
100
AcDbLine
 10
1035.63768218252
 20
57.09700603182
 30
0.0
 11
1035.24835098252
 21
57.20132383182
 31
0.0
  0
LINE
  5
F5F2
330
C0FF
100
AcDbEntity
  8
titleblock
  6
ByBlock
100
AcDbLine
 10
1035.70048996394
 20
57.09700603182
 30
0.0
 11
1035.31115876394
 21
57.20132383182
 31
0.0
  0
LINE
  5
F5F3
330
C0FF
100
AcDbEntity
  8
titleblock
  6
ByBlock
100
AcDbLine
 10
1013.46002778252
 20
56.68776123181999
 30
0.0
 11
1012.79901818252
 21
56.87584823182
 31
0.0
  0
LINE
  5
F5F4
330
C0FF
100
AcDbEntity
  8
0
  6
Continuous
100
AcDbLine
 10
1104.9
 20
215.9
 30
0.0
 11
1117.6
 21
215.9
 31
0.0
  0
LINE
  5
F5F5
330
C0FF
100
AcDbEntity
  8
0
  6
Continuous
100
AcDbLine
 10
419.0999999999999
 20
0.0
 30
0.0
 11
419.0999999999999
 21
12.7
 31
0.0
  0
LINE
  5
F5F6
330
C0FF
100
AcDbEntity
  8
titleblock
  6
ByBlock
100
AcDbLine
 10
1011.49950338252
 20
53.52139723181999
 30
0.0
 11
1012.11471678252
 21
53.21507323182
 31
0.0
  0
LINE
  5
F5F7
330
C0FF
100
AcDbEntity
  8
titleblock
  6
ByBlock
100
AcDbLine
 10
1011.52269358252
 20
51.61670203182
 30
0.0
 11
1010.52698818252
 21
52.12404163182
 31
0.0
  0
LINE
  5
F5F8
330
C0FF
100
AcDbEntity
  8
titleblock
  6
ByBlock
100
AcDbLine
 10
1013.73025838252
 20
58.41079563182
 30
0.0
 11
1014.72596378252
 21
57.90345603181999
 31
0.0
  0
LINE
  5
F5F9
330
C0FF
100
AcDbEntity
  8
0
  6
Continuous
100
AcDbLine
 10
1104.9
 20
323.85
 30
0.0
 11
1117.6
 21
323.85
 31
0.0
  0
LINE
  5
F5FA
330
C0FF
100
AcDbEntity
  8
titleblock
  6
ByBlock
100
AcDbLine
 10
1036.05482638252
 20
58.44290123182
 30
0.0
 11
1036.72962818252
 21
58.03342783181999
 31
0.0
  0
LINE
  5
F5FB
330
C0FF
100
AcDbEntity
  8
titleblock
  6
ByBlock
100
AcDbLine
 10
1036.11763416394
 20
58.44290123182
 30
0.0
 11
1036.79243596394
 21
58.03342783181999
 31
0.0
  0
LINE
  5
F5FC
330
C0FF
100
AcDbEntity
  8
titleblock
  6
ByBlock
100
AcDbLine
 10
1014.00848998252
 20
56.27361423182
 30
0.0
 11
1013.46002778252
 21
56.68776123181999
 31
0.0
  0
LINE
  5
F5FD
330
C0FF
100
AcDbEntity
  8
titleblock
  6
ByBlock
100
AcDbLine
 10
1010.52698818252
 20
52.12404163182
 30
0.0
 11
1009.73676878252
 21
52.91426103182001
 31
0.0
  0
LINE
  5
F5FE
330
C0FF
100
AcDbEntity
  8
titleblock
  6
ByBlock
100
AcDbLine
 10
1014.72596378252
 20
57.90345603181999
 30
0.0
 11
1015.51618318252
 21
57.11323663182
 31
0.0
  0
LINE
  5
F5FF
330
C0FF
100
AcDbEntity
  8
titleblock
  6
ByBlock
100
AcDbLine
 10
1035.92269558252
 20
56.81199263182
 30
0.0
 11
1035.63768218252
 21
57.09700603182
 31
0.0
  0
LINE
  5
F600
330
C0FF
100
AcDbEntity
  8
titleblock
  6
ByBlock
100
AcDbLine
 10
1035.98550336394
 20
56.81199263182
 30
0.0
 11
1035.70048996394
 21
57.09700603182
 31
0.0
  0
LINE
  5
F601
330
C0FF
100
AcDbEntity
  8
titleblock
  6
ByBlock
100
AcDbLine
 10
1011.03651218252
 20
54.02927023182
 30
0.0
 11
1011.49950338252
 21
53.52139723181999
 31
0.0
  0
LINE
  5
F602
330
C0FF
100
AcDbEntity
  8
0
  6
Continuous
100
AcDbLine
 10
1104.9
 20
539.7499999999999
 30
0.0
 11
1117.6
 21
539.7499999999999
 31
0.0
  0
LINE
  5
F603
330
C0FF
100
AcDbEntity
  8
titleblock
  6
ByBlock
100
AcDbLine
 10
1007.66898018252
 20
51.44187383182
 30
0.0
 11
1005.20015098252
 21
54.52792303182
 31
0.0
  0
LINE
  5
F604
330
C0FF
100
AcDbEntity
  8
titleblock
  6
ByBlock
100
AcDbLine
 10
1006.67335098252
 20
55.41062383182
 30
0.0
 11
1009.84835098252
 21
51.44187383182
 31
0.0
  0
LINE
  5
F605
330
C0FF
100
AcDbEntity
  8
0
  6
Continuous
100
AcDbLine
 10
698.5
 20
0.0
 30
0.0
 11
698.5
 21
12.7
 31
0.0
  0
LINE
  5
F606
330
C0FF
100
AcDbEntity
  8
titleblock
  6
ByBlock
100
AcDbLine
 10
1036.72962818252
 20
58.03342783181999
 30
0.0
 11
1037.21469198252
 21
57.41074683182
 31
0.0
  0
LINE
  5
F607
330
C0FF
100
AcDbEntity
  8
titleblock
  6
ByBlock
100
AcDbLine
 10
1036.79243596394
 20
58.03342783181999
 30
0.0
 11
1037.27749976394
 21
57.41074683182
 31
0.0
  0
LINE
  5
F608
330
C0FF
100
AcDbEntity
  8
titleblock
  6
ByBlock
100
AcDbLine
 10
1014.37026218252
 20
55.68928723182
 30
0.0
 11
1014.00848998252
 21
56.27361423182
 31
0.0
  0
LINE
  5
F609
330
C0FF
100
AcDbEntity
  8
0
  6
Continuous
100
AcDbLine
 10
1104.9
 20
647.6999999999999
 30
0.0
 11
1117.6
 21
647.6999999999999
 31
0.0
  0
LINE
  5
F60A
330
C0FF
100
AcDbEntity
  8
titleblock
  6
ByBlock
100
AcDbLine
 10
1036.308826382519
 20
51.44187383182
 30
0.0
 11
1034.76722418252
 21
54.21999883181999
 31
0.0
  0
LINE
  5
F60B
330
C0FF
100
AcDbEntity
  8
titleblock
  6
ByBlock
100
AcDbLine
 10
1036.308826382519
 20
51.44187383182
 30
0.0
 11
1034.76724958252
 21
54.21999883181999
 31
0.0
  0
LINE
  5
F60C
330
C0FF
100
AcDbEntity
  8
titleblock
  6
ByBlock
100
AcDbLine
 10
1036.50440638252
 20
54.59675703181999
 30
0.0
 11
1038.25507598252
 21
51.44187383182
 31
0.0
  0
LINE
  5
F60D
330
C0FF
100
AcDbEntity
  8
titleblock
  6
ByBlock
100
AcDbLine
 10
1036.50443178252
 20
54.59675703181999
 30
0.0
 11
1038.25507598252
 21
51.44187383182
 31
0.0
  0
LINE
  5
F60E
330
C0FF
100
AcDbEntity
  8
titleblock
  6
ByBlock
100
AcDbLine
 10
1009.73676878252
 20
52.91426103182001
 30
0.0
 11
1009.22942918252
 21
53.90996643181999
 31
0.0
  0
LINE
  5
F60F
330
C0FF
100
AcDbEntity
  8
titleblock
  6
ByBlock
100
AcDbLine
 10
1015.51618318252
 20
57.11323663182
 30
0.0
 11
1016.02352278252
 21
56.11753123181999
 31
0.0
  0
LINE
  5
F610
330
C0FF
100
AcDbEntity
  8
0
  6
Continuous
100
AcDbLine
 10
838.1999999999999
 20
0.0
 30
0.0
 11
838.1999999999999
 21
12.7
 31
0.0
  0
LINE
  5
F611
330
C0FF
100
AcDbEntity
  8
titleblock
  6
ByBlock
100
AcDbLine
 10
1010.78825258252
 20
54.67011223181999
 30
0.0
 11
1011.03651218252
 21
54.02927023182
 31
0.0
  0
LINE
  5
F612
330
C0FF
100
AcDbEntity
  8
0
  6
Continuous
100
AcDbLine
 10
1104.9
 20
755.6499999999999
 30
0.0
 11
1117.6
 21
755.6499999999999
 31
0.0
  0
LINE
  5
F613
330
C0FF
100
AcDbEntity
  8
titleblock
  6
ByBlock
100
AcDbLine
 10
1037.21469198252
 20
57.41074683182
 30
0.0
 11
1037.44656858252
 21
56.65623983182
 31
0.0
  0
LINE
  5
F614
330
C0FF
100
AcDbEntity
  8
titleblock
  6
ByBlock
100
AcDbLine
 10
1037.27749976394
 20
57.41074683182
 30
0.0
 11
1037.50937636394
 21
56.65623983182
 31
0.0
  0
LINE
  5
F615
330
C0FF
100
AcDbEntity
  8
titleblock
  6
ByBlock
100
AcDbLine
 10
1036.02701338252
 20
56.42266143181999
 30
0.0
 11
1035.92269558252
 21
56.81199263182
 31
0.0
  0
LINE
  5
F616
330
C0FF
100
AcDbEntity
  8
titleblock
  6
ByBlock
100
AcDbLine
 10
1036.08982116394
 20
56.42266143181999
 30
0.0
 11
1035.98550336394
 21
56.81199263182
 31
0.0
  0
LINE
  5
F617
330
C0FF
100
AcDbEntity
  8
titleblock
  6
ByBlock
100
AcDbLine
 10
1014.49655098252
 20
55.01374883181999
 30
0.0
 11
1014.37026218252
 21
55.68928723182
 31
0.0
  0
LINE
  5
F618
330
C0FF
100
AcDbEntity
  8
titleblock
  6
ByBlock
100
AcDbLine
 10
1009.22942918252
 20
53.90996643181999
 30
0.0
 11
1009.05460098252
 21
55.01374883181999
 31
0.0
  0
LINE
  5
F619
330
C0FF
100
AcDbEntity
  8
titleblock
  6
ByBlock
100
AcDbLine
 10
1016.02352278252
 20
56.11753123181999
 30
0.0
 11
1016.19835098252
 21
55.01374883181999
 31
0.0
  0
LINE
  5
F61A
330
C0FF
100
AcDbEntity
  8
0
  6
Continuous
100
AcDbLine
 10
977.8999999999999
 20
0.0
 30
0.0
 11
977.8999999999999
 21
12.7
 31
0.0
  0
LINE
  5
F61B
330
C0FF
100
AcDbEntity
  8
0
  6
Continuous
100
AcDbLine
 10
12.7
 20
850.9
 30
0.0
 11
1104.9
 21
850.9
 31
0.0
  0
LINE
  5
F61C
330
C0FF
100
AcDbEntity
  8
0
  6
Continuous
 62
     7
100
AcDbLine
 10
0.0
 20
863.5999999999999
 30
0.0
 11
1117.6
 21
863.5999999999999
 31
0.0
  0
LINE
  5
F61D
330
C0FF
100
AcDbEntity
  8
titleblock
  6
ByBlock
100
AcDbLine
 10
1003.49835098252
 20
51.44187383182
 30
0.0
 11
1003.49835098252
 21
58.58562383181999
 31
0.0
  0
LINE
  5
F61E
330
C0FF
100
AcDbEntity
  8
titleblock
  6
ByBlock
100
AcDbLine
 10
1005.20015098252
 20
58.58562383181999
 30
0.0
 11
1005.20015098252
 21
56.34412463181999
 31
0.0
  0
LINE
  5
F61F
330
C0FF
100
AcDbEntity
  8
titleblock
  6
ByBlock
100
AcDbLine
 10
1005.20015098252
 20
54.52792303182
 30
0.0
 11
1005.20015098252
 21
51.44187383182
 31
0.0
  0
LINE
  5
F620
330
C0FF
100
AcDbEntity
  8
titleblock
  6
ByBlock
100
AcDbLine
 10
1010.78825258252
 20
55.35738543182
 30
0.0
 11
1010.78825258252
 21
54.67011223181999
 31
0.0
  0
LINE
  5
F621
330
C0FF
100
AcDbEntity
  8
titleblock
  6
ByBlock
100
AcDbLine
 10
1016.99210098252
 20
58.58562383181999
 30
0.0
 11
1016.99210098252
 21
51.44187383182
 31
0.0
  0
LINE
  5
F622
330
C0FF
100
AcDbEntity
  8
titleblock
  6
ByBlock
100
AcDbLine
 10
1018.69390098252
 20
58.58562383181999
 30
0.0
 11
1018.69390098252
 21
56.26152383182
 31
0.0
  0
LINE
  5
F623
330
C0FF
100
AcDbEntity
  8
titleblock
  6
ByBlock
100
AcDbLine
 10
1018.69390098252
 20
54.55972383181999
 30
0.0
 11
1018.69390098252
 21
51.44187383182
 31
0.0
  0
LINE
  5
F624
330
C0FF
100
AcDbEntity
  8
titleblock
  6
ByBlock
100
AcDbLine
 10
1020.67827598252
 20
51.44187383182
 30
0.0
 11
1020.67827598252
 21
54.55972383181999
 31
0.0
  0
LINE
  5
F625
330
C0FF
100
AcDbEntity
  8
titleblock
  6
ByBlock
100
AcDbLine
 10
1020.67827598252
 20
56.26152383182
 30
0.0
 11
1020.67827598252
 21
58.58562383181999
 31
0.0
  0
LINE
  5
F626
330
C0FF
100
AcDbEntity
  8
titleblock
  6
ByBlock
100
AcDbLine
 10
1022.38007598252
 20
58.58562383181999
 30
0.0
 11
1022.38007598252
 21
51.44187383182
 31
0.0
  0
LINE
  5
F627
330
C0FF
100
AcDbEntity
  8
titleblock
  6
ByBlock
100
AcDbLine
 10
1023.17382598252
 20
58.58562383181999
 30
0.0
 11
1023.17382598252
 21
51.44187383182
 31
0.0
  0
LINE
  5
F628
330
C0FF
100
AcDbEntity
  8
titleblock
  6
ByBlock
100
AcDbLine
 10
1024.87562598252
 20
58.58562383181999
 30
0.0
 11
1024.87562598252
 21
53.14367383182
 31
0.0
  0
LINE
  5
F629
330
C0FF
100
AcDbEntity
  8
titleblock
  6
ByBlock
100
AcDbLine
 10
1027.14257598252
 20
53.14367383182
 30
0.0
 11
1027.14257598252
 21
51.44187383182
 31
0.0
  0
LINE
  5
F62A
330
C0FF
100
AcDbEntity
  8
titleblock
  6
ByBlock
100
AcDbLine
 10
1027.93632598252
 20
58.58562383181999
 30
0.0
 11
1027.93632598252
 21
51.44187383182
 31
0.0
  0
LINE
  5
F62B
330
C0FF
100
AcDbEntity
  8
titleblock
  6
ByBlock
100
AcDbLine
 10
1029.63812598252
 20
56.88382383181998
 30
0.0
 11
1029.63812598252
 21
55.66622403182
 31
0.0
  0
LINE
  5
F62C
330
C0FF
100
AcDbEntity
  8
titleblock
  6
ByBlock
100
AcDbLine
 10
1029.63812598252
 20
54.36129903181999
 30
0.0
 11
1029.63812598252
 21
53.14367383182
 31
0.0
  0
LINE
  5
F62D
330
C0FF
100
AcDbEntity
  8
titleblock
  6
ByBlock
100
AcDbLine
 10
1031.90507598252
 20
58.58562383181999
 30
0.0
 11
1031.90507598252
 21
56.88382383181998
 31
0.0
  0
LINE
  5
F62E
330
C0FF
100
AcDbEntity
  8
titleblock
  6
ByBlock
100
AcDbLine
 10
1031.90507598252
 20
55.66622403182
 30
0.0
 11
1031.90507598252
 21
54.36129903181999
 31
0.0
  0
LINE
  5
F62F
330
C0FF
100
AcDbEntity
  8
titleblock
  6
ByBlock
100
AcDbLine
 10
1031.90507598252
 20
53.14367383182
 30
0.0
 11
1031.90507598252
 21
51.44187383182
 31
0.0
  0
LINE
  5
F630
330
C0FF
100
AcDbEntity
  8
titleblock
  6
ByBlock
100
AcDbLine
 10
1032.69882598252
 20
51.44187383182
 30
0.0
 11
1032.69882598252
 21
58.58562383181999
 31
0.0
  0
LINE
  5
F631
330
C0FF
100
AcDbEntity
  8
titleblock
  6
ByBlock
100
AcDbLine
 10
1032.76163376394
 20
57.20132383182
 30
0.0
 11
1032.76163376394
 21
58.58562383181999
 31
0.0
  0
LINE
  5
F632
330
C0FF
100
AcDbEntity
  8
titleblock
  6
ByBlock
100
AcDbLine
 10
1034.40062598252
 20
57.20132383182
 30
0.0
 11
1034.40062598252
 21
55.64399903182
 31
0.0
  0
LINE
  5
F633
330
C0FF
100
AcDbEntity
  8
titleblock
  6
ByBlock
100
AcDbLine
 10
1034.40062598252
 20
54.21999883181999
 30
0.0
 11
1034.40062598252
 21
51.44187383182
 31
0.0
  0
LINE
  5
F634
330
C0FF
100
AcDbEntity
  8
titleblock
  6
ByBlock
100
AcDbLine
 10
1070.68780258252
 20
55.82449143182
 30
0.0
 11
1070.68780258252
 21
47.67563803181999
 31
0.0
  0
LINE
  5
F635
330
C0FF
100
AcDbEntity
  8
titleblock
  6
ByBlock
100
AcDbLine
 10
1037.44656858252
 20
56.65623983182
 30
0.0
 11
1037.39495578252
 21
55.86861123182
 31
0.0
  0
LINE
  5
F636
330
C0FF
100
AcDbEntity
  8
titleblock
  6
ByBlock
100
AcDbLine
 10
1037.50937636394
 20
56.65623983182
 30
0.0
 11
1037.45776356394
 21
55.86861123182
 31
0.0
  0
LINE
  5
F637
330
C0FF
100
AcDbEntity
  8
titleblock
  6
ByBlock
100
AcDbLine
 10
1009.05460098252
 20
55.01374883181999
 30
0.0
 11
1009.22942918252
 21
56.11753123181999
 31
0.0
  0
LINE
  5
F638
330
C0FF
100
AcDbEntity
  8
titleblock
  6
ByBlock
100
AcDbLine
 10
1016.19835098252
 20
55.01374883181999
 30
0.0
 11
1016.02352278252
 21
53.90996643181999
 31
0.0
  0
LINE
  5
F639
330
C0FF
100
AcDbEntity
  8
titleblock
  6
ByBlock
100
AcDbLine
 10
1012.79901818252
 20
53.15164943182
 30
0.0
 11
1013.46002778252
 21
53.33973643181999
 31
0.0
  0
LINE
  5
F63A
330
C0FF
100
AcDbEntity
  8
titleblock
  6
ByBlock
100
AcDbLine
 10
1083.38780258252
 20
53.76544043182
 30
0.0
 11
1083.38780258252
 21
49.79669043181999
 31
0.0
  0
LINE
  5
F63B
330
C0FF
100
AcDbEntity
  8
titleblock
  6
ByBlock
100
AcDbLine
 10
1092.11905258252
 20
48.20919043182
 30
0.0
 11
1092.11905258252
 21
55.35294043181999
 31
0.0
  0
LINE
  5
F63C
330
C0FF
100
AcDbEntity
  8
0
  6
Continuous
100
AcDbLine
 10
1104.9
 20
12.7
 30
0.0
 11
1104.9
 21
850.9
 31
0.0
  0
LINE
  5
F63D
330
C0FF
100
AcDbEntity
  8
0
  6
Continuous
 62
     7
100
AcDbLine
 10
1117.6
 20
0.0
 30
0.0
 11
1117.6
 21
863.5999999999999
 31
0.0
  0
LINE
  5
F63E
330
C0FF
100
AcDbEntity
  8
titleblock
  6
ByBlock
100
AcDbLine
 10
1014.37026218252
 20
54.33821043182
 30
0.0
 11
1014.49655098252
 21
55.01374883181999
 31
0.0
  0
LINE
  5
F63F
330
C0FF
100
AcDbEntity
  8
titleblock
  6
ByBlock
100
AcDbLine
 10
1035.92269558252
 20
56.03333023182
 30
0.0
 11
1036.02701338252
 21
56.42266143181999
 31
0.0
  0
LINE
  5
F640
330
C0FF
100
AcDbEntity
  8
titleblock
  6
ByBlock
100
AcDbLine
 10
1035.98550336394
 20
56.03333023182
 30
0.0
 11
1036.08982116394
 21
56.42266143181999
 31
0.0
  0
LINE
  5
F641
330
C0FF
100
AcDbEntity
  8
titleblock
  6
ByBlock
100
AcDbLine
 10
1011.03651218252
 20
55.99822743182
 30
0.0
 11
1010.78825258252
 21
55.35738543182
 31
0.0
  0
LINE
  5
F642
330
C0FF
100
AcDbEntity
  8
titleblock
  6
ByBlock
100
AcDbLine
 10
1037.39495578252
 20
55.86861123182
 30
0.0
 11
1037.06658458252
 21
55.15083263181999
 31
0.0
  0
LINE
  5
F643
330
C0FF
100
AcDbEntity
  8
titleblock
  6
ByBlock
100
AcDbLine
 10
1037.45776356394
 20
55.86861123182
 30
0.0
 11
1037.35499516394
 21
55.64399903182
 31
0.0
  0
LINE
  5
F644
330
C0FF
100
AcDbEntity
  8
titleblock
  6
ByBlock
100
AcDbLine
 10
1009.61581398252
 20
56.87584823182
 30
0.0
 11
1009.73676878252
 21
57.11323663182
 31
0.0
  0
LINE
  5
F645
330
C0FF
100
AcDbEntity
  8
titleblock
  6
ByBlock
100
AcDbLine
 10
1009.22942918252
 20
56.11753123181999
 30
0.0
 11
1009.61581398252
 21
56.87584823182
 31
0.0
  0
LINE
  5
F646
330
C0FF
100
AcDbEntity
  8
titleblock
  6
ByBlock
100
AcDbLine
 10
1015.63713798252
 20
53.15164943182
 30
0.0
 11
1015.51618318252
 21
52.91426103182001
 31
0.0
  0
LINE
  5
F647
330
C0FF
100
AcDbEntity
  8
titleblock
  6
ByBlock
100
AcDbLine
 10
1016.02352278252
 20
53.90996643181999
 30
0.0
 11
1015.63713798252
 21
53.15164943182
 31
0.0
  0
LINE
  5
F648
330
C0FF
100
AcDbEntity
  8
titleblock
  6
ByBlock
100
AcDbLine
 10
1014.00848998252
 20
53.75388343181999
 30
0.0
 11
1014.37026218252
 21
54.33821043182
 31
0.0
  0
LINE
  5
F649
330
C0FF
100
AcDbEntity
  8
titleblock
  6
ByBlock
100
AcDbLine
 10
1011.49950338252
 20
56.50610043181999
 30
0.0
 11
1011.03651218252
 21
55.99822743182
 31
0.0
  0
LINE
  5
F64A
330
C0FF
100
AcDbEntity
  8
titleblock
  6
ByBlock
100
AcDbLine
 10
1007.44165018252
 20
58.58562383181999
 30
0.0
 11
1005.20015098252
 21
56.34412463181999
 31
0.0
  0
LINE
  5
F64B
330
C0FF
100
AcDbEntity
  8
titleblock
  6
ByBlock
100
AcDbLine
 10
1009.84835098252
 20
58.58562383181999
 30
0.0
 11
1006.67335098252
 21
55.41062383182
 31
0.0
  0
LINE
  5
F64C
330
C0FF
100
AcDbEntity
  8
titleblock
  6
ByBlock
100
AcDbLine
 10
1009.73676878252
 20
57.11323663182
 30
0.0
 11
1010.52698818252
 21
57.90345603181999
 31
0.0
  0
LINE
  5
F64D
330
C0FF
100
AcDbEntity
  8
titleblock
  6
ByBlock
100
AcDbLine
 10
1015.51618318252
 20
52.91426103182001
 30
0.0
 11
1014.72596378252
 21
52.12404163182
 31
0.0
  0
LINE
  5
F64E
330
C0FF
100
AcDbEntity
  8
titleblock
  6
ByBlock
100
AcDbLine
 10
1035.63768218252
 20
55.74831683181999
 30
0.0
 11
1035.92269558252
 21
56.03333023182
 31
0.0
  0
LINE
  5
F64F
330
C0FF
100
AcDbEntity
  8
titleblock
  6
ByBlock
100
AcDbLine
 10
1035.70048996394
 20
55.74831683181999
 30
0.0
 11
1035.98550336394
 21
56.03333023182
 31
0.0
  0
LINE
  5
F650
330
C0FF
100
AcDbEntity
  8
titleblock
  6
ByBlock
100
AcDbLine
 10
1037.06658458252
 20
55.15083263181999
 30
0.0
 11
1036.50443178252
 21
54.59675703181999
 31
0.0
  0
LINE
  5
F651
330
C0FF
100
AcDbEntity
  8
titleblock
  6
ByBlock
100
AcDbLine
 10
1013.46002778252
 20
53.33973643181999
 30
0.0
 11
1014.00848998252
 21
53.75388343181999
 31
0.0
  0
LINE
  5
F652
330
C0FF
100
AcDbEntity
  8
titleblock
  6
ByBlock
100
AcDbLine
 10
1010.52698818252
 20
57.90345603181999
 30
0.0
 11
1011.52269358252
 21
58.41079563182
 31
0.0
  0
LINE
  5
F653
330
C0FF
100
AcDbEntity
  8
titleblock
  6
ByBlock
100
AcDbLine
 10
1014.72596378252
 20
52.12404163182
 30
0.0
 11
1013.73025838252
 21
51.61670203182
 31
0.0
  0
LINE
  5
F654
330
C0FF
100
AcDbEntity
  8
titleblock
  6
ByBlock
100
AcDbLine
 10
1012.11471678252
 20
56.81242443181999
 30
0.0
 11
1011.49950338252
 21
56.50610043181999
 31
0.0
  0
CIRCLE
  5
F655
330
C0FF
100
AcDbEntity
  8
titleblock
  6
ByBlock
100
AcDbCircle
 10
1012.62647598252
 20
55.01374883181999
 30
0.0
 40
1.870074999999999
  0
CIRCLE
  5
F656
330
C0FF
100
AcDbEntity
  8
titleblock
  6
ByBlock
100
AcDbCircle
 10
1012.62647598252
 20
55.01374883181999
 30
0.0
 40
3.571874999999999
  0
CIRCLE
  5
F657
330
C0FF
100
AcDbEntity
  8
titleblock
  6
ByBlock
100
AcDbCircle
 10
1070.68780258252
 20
51.78106543182
 30
0.0
 40
1.984375
  0
CIRCLE
  5
F658
330
C0FF
100
AcDbEntity
  8
titleblock
  6
ByBlock
100
AcDbCircle
 10
1070.68780258252
 20
51.78106543182
 30
0.0
 40
3.571874999999999
  0
ARC
  5
F659
330
C0FF
100
AcDbEntity
  8
titleblock
  6
ByBlock
100
AcDbCircle
 10
1035.24835098252
 20
56.42266143181999
 30
0.0
 40
0.7786624
100
AcDbArc
 50
270.0000000000006
 51
90.00000000000019
  0
ARC
  5
F65A
330
C0FF
100
AcDbEntity
  8
titleblock
  6
ByBlock
100
AcDbCircle
 10
1035.27850078252
 20
56.40282403181999
 30
0.0
 40
2.182824443079999
100
AcDbArc
 50
304.1675166806007
 51
90.00000000000019
  0
ENDBLK
  5
C277
330
C0FF
100
AcDbEntity
  8
0
370
     0
100
AcDbBlockEnd
  0
BLOCK
  5
F4DF
330
F3DA
100
AcDbEntity
  8
0
370
     0
100
AcDbBlockBegin
  2
china_d
 70
     0
 10
0.0
 20
0.0
 30
0.0
  3
china_d
  1

  0
POLYLINE
  5
F3DB
330
F3DA
100
AcDbEntity
  8
titleblock
100
AcDb2dPolyline
 66
     1
 10
0.0
 20
0.0
 30
0.0
 70
     1
  0
VERTEX
  5
F3DC
330
F3DB
100
AcDbEntity
  8
titleblock
100
AcDbVertex
100
AcDb2dVertex
 10
840.1445215719599
 20
67.68452040666
 30
0.0
  0
VERTEX
  5
F3DD
330
F3DB
100
AcDbEntity
  8
titleblock
100
AcDbVertex
100
AcDb2dVertex
 10
837.2124471719599
 20
67.68452040666
 30
0.0
  0
VERTEX
  5
F3DE
330
F3DB
100
AcDbEntity
  8
titleblock
100
AcDbVertex
100
AcDb2dVertex
 10
837.2124471719599
 20
72.62164540665999
 30
0.0
  0
VERTEX
  5
F3DF
330
F3DB
100
AcDbEntity
  8
titleblock
100
AcDbVertex
100
AcDb2dVertex
 10
838.2284471719598
 20
72.62164540665999
 30
0.0
  0
VERTEX
  5
F3E0
330
F3DB
100
AcDbEntity
  8
titleblock
100
AcDbVertex
100
AcDb2dVertex
 10
838.2284471719598
 20
68.70052040665999
 30
0.0
  0
VERTEX
  5
F3E1
330
F3DB
100
AcDbEntity
  8
titleblock
100
AcDbVertex
100
AcDb2dVertex
 10
840.14668057196
 20
68.70052040665999
 30
0.0
  0
VERTEX
  5
F3E2
330
F3DB
100
AcDbEntity
  8
titleblock
100
AcDbVertex
100
AcDb2dVertex
 10
842.1670978950999
 20
68.70052040665999
 30
0.0
  0
VERTEX
  5
F3E3
330
F3DB
100
AcDbEntity
  8
titleblock
100
AcDbVertex
100
AcDb2dVertex
 10
841.9141401231399
 20
68.40241992081999
 30
0.0
  0
VERTEX
  5
F3E4
330
F3DB
100
AcDbEntity
  8
titleblock
100
AcDbVertex
100
AcDb2dVertex
 10
841.5324427915399
 20
68.0972511052
 30
0.0
  0
VERTEX
  5
F3E5
330
F3DB
100
AcDbEntity
  8
titleblock
100
AcDbVertex
100
AcDb2dVertex
 10
841.0993683566999
 20
67.87082807061999
 30
0.0
  0
VERTEX
  5
F3E6
330
F3DB
100
AcDbEntity
  8
titleblock
100
AcDbVertex
100
AcDb2dVertex
 10
840.63094806418
 20
67.73153238782
 30
0.0
  0
VERTEX
  5
F3E7
330
F3DB
100
AcDbEntity
  8
titleblock
100
AcDbVertex
100
AcDb2dVertex
 10
840.1445215719599
 20
67.68452040666
 30
0.0
  0
SEQEND
  5
F3E8
330
F3DB
100
AcDbEntity
  8
titleblock
  0
POLYLINE
  5
F3E9
330
F3DA
100
AcDbEntity
  8
titleblock
100
AcDb2dPolyline
 66
     1
 10
0.0
 20
0.0
 30
0.0
 70
     1
  0
VERTEX
  5
F3EA
330
F3E9
100
AcDbEntity
  8
titleblock
100
AcDbVertex
100
AcDb2dVertex
 10
837.2124471719599
 20
72.62164540665999
 30
0.0
  0
VERTEX
  5
F3EB
330
F3E9
100
AcDbEntity
  8
titleblock
100
AcDbVertex
100
AcDb2dVertex
 10
837.2124471719599
 20
73.63764540666
 30
0.0
  0
VERTEX
  5
F3EC
330
F3E9
100
AcDbEntity
  8
titleblock
100
AcDbVertex
100
AcDb2dVertex
 10
839.9657817719599
 20
73.63764540666
 30
0.0
  0
VERTEX
  5
F3ED
330
F3E9
100
AcDbEntity
  8
titleblock
100
AcDbVertex
100
AcDb2dVertex
 10
840.44338244744
 20
73.59235200982
 30
0.0
  0
VERTEX
  5
F3EE
330
F3E9
100
AcDbEntity
  8
titleblock
100
AcDbVertex
100
AcDb2dVertex
 10
840.903945316
 20
73.45805058678
 30
0.0
  0
VERTEX
  5
F3EF
330
F3E9
100
AcDbEntity
  8
titleblock
100
AcDbVertex
100
AcDb2dVertex
 10
841.3310403723999
 20
73.23954465854
 30
0.0
  0
VERTEX
  5
F3F0
330
F3E9
100
AcDbEntity
  8
titleblock
100
AcDbVertex
100
AcDb2dVertex
 10
841.70943153332
 20
72.94462914981998
 30
0.0
  0
VERTEX
  5
F3F1
330
F3E9
100
AcDbEntity
  8
titleblock
100
AcDbVertex
100
AcDb2dVertex
 10
842.0256201719599
 20
72.58382480665999
 30
0.0
  0
VERTEX
  5
F3F2
330
F3E9
100
AcDbEntity
  8
titleblock
100
AcDbVertex
100
AcDb2dVertex
 10
842.34105033866
 20
72.05799210927999
 30
0.0
  0
VERTEX
  5
F3F3
330
F3E9
100
AcDbEntity
  8
titleblock
100
AcDbVertex
100
AcDb2dVertex
 10
842.56335802714
 20
71.48652543407999
 30
0.0
  0
VERTEX
  5
F3F4
330
F3E9
100
AcDbEntity
  8
titleblock
100
AcDbVertex
100
AcDb2dVertex
 10
842.6861726913397
 20
70.88576638921999
 30
0.0
  0
VERTEX
  5
F3F5
330
F3E9
100
AcDbEntity
  8
titleblock
100
AcDbVertex
100
AcDb2dVertex
 10
842.70598070354
 20
70.27290219965999
 30
0.0
  0
VERTEX
  5
F3F6
330
F3E9
100
AcDbEntity
  8
titleblock
100
AcDbVertex
100
AcDb2dVertex
 10
842.6222153719599
 20
69.66546640666
 30
0.0
  0
VERTEX
  5
F3F7
330
F3E9
100
AcDbEntity
  8
titleblock
100
AcDbVertex
100
AcDb2dVertex
 10
842.4693107120599
 20
69.20131199333998
 30
0.0
  0
VERTEX
  5
F3F8
330
F3E9
100
AcDbEntity
  8
titleblock
100
AcDbVertex
100
AcDb2dVertex
 10
842.2303309410999
 20
68.77503798940001
 30
0.0
  0
VERTEX
  5
F3F9
330
F3E9
100
AcDbEntity
  8
titleblock
100
AcDbVertex
100
AcDb2dVertex
 10
842.1670978950999
 20
68.70052040665999
 30
0.0
  0
VERTEX
  5
F3FA
330
F3E9
100
AcDbEntity
  8
titleblock
100
AcDbVertex
100
AcDb2dVertex
 10
840.14668057196
 20
68.70052040665999
 30
0.0
  0
VERTEX
  5
F3FB
330
F3E9
100
AcDbEntity
  8
titleblock
100
AcDbVertex
100
AcDb2dVertex
 10
840.4867008494999
 20
68.73893560287999
 30
0.0
  0
VERTEX
  5
F3FC
330
F3E9
100
AcDbEntity
  8
titleblock
100
AcDbVertex
100
AcDb2dVertex
 10
840.8095794671398
 20
68.8522445406
 30
0.0
  0
VERTEX
  5
F3FD
330
F3E9
100
AcDbEntity
  8
titleblock
100
AcDbVertex
100
AcDb2dVertex
 10
841.0990389364799
 20
69.0347349046
 30
0.0
  0
VERTEX
  5
F3FE
330
F3E9
100
AcDbEntity
  8
titleblock
100
AcDbVertex
100
AcDb2dVertex
 10
841.3404865536598
 20
69.27720669042
 30
0.0
  0
VERTEX
  5
F3FF
330
F3E9
100
AcDbEntity
  8
titleblock
100
AcDbVertex
100
AcDb2dVertex
 10
841.5217500595598
 20
69.5674360109
 30
0.0
  0
VERTEX
  5
F400
330
F3E9
100
AcDbEntity
  8
titleblock
100
AcDbVertex
100
AcDb2dVertex
 10
841.6336981719599
 20
69.89078980666
 30
0.0
  0
VERTEX
  5
F401
330
F3E9
100
AcDbEntity
  8
titleblock
100
AcDbVertex
100
AcDb2dVertex
 10
841.6969591478
 20
70.43737060834001
 30
0.0
  0
VERTEX
  5
F402
330
F3E9
100
AcDbEntity
  8
titleblock
100
AcDbVertex
100
AcDb2dVertex
 10
841.6442899084598
 20
70.98507351598001
 30
0.0
  0
VERTEX
  5
F403
330
F3E9
100
AcDbEntity
  8
titleblock
100
AcDbVertex
100
AcDb2dVertex
 10
841.47802877032
 20
71.50958257872
 30
0.0
  0
VERTEX
  5
F404
330
F3E9
100
AcDbEntity
  8
titleblock
100
AcDbVertex
100
AcDb2dVertex
 10
841.2055557719599
 20
71.98761060666
 30
0.0
  0
VERTEX
  5
F405
330
F3E9
100
AcDbEntity
  8
titleblock
100
AcDbVertex
100
AcDb2dVertex
 10
840.96225347726
 20
72.2530019377
 30
0.0
  0
VERTEX
  5
F406
330
F3E9
100
AcDbEntity
  8
titleblock
100
AcDbVertex
100
AcDb2dVertex
 10
840.6634822256799
 20
72.45391063163999
 30
0.0
  0
VERTEX
  5
F407
330
F3E9
100
AcDbEntity
  8
titleblock
100
AcDbVertex
100
AcDb2dVertex
 10
840.3259170054599
 20
72.57912359431999
 30
0.0
  0
VERTEX
  5
F408
330
F3E9
100
AcDbEntity
  8
titleblock
100
AcDbVertex
100
AcDb2dVertex
 10
839.9683979719601
 20
72.62164540665999
 30
0.0
  0
VERTEX
  5
F409
330
F3E9
100
AcDbEntity
  8
titleblock
100
AcDbVertex
100
AcDb2dVertex
 10
838.2284471719598
 20
72.62164540665999
 30
0.0
  0
VERTEX
  5
F40A
330
F3E9
100
AcDbEntity
  8
titleblock
100
AcDbVertex
100
AcDb2dVertex
 10
837.2124471719599
 20
72.62164540665999
 30
0.0
  0
SEQEND
  5
F40B
330
F3E9
100
AcDbEntity
  8
titleblock
  0
LINE
  5
F40C
330
F3DA
100
AcDbEntity
  8
titleblock
100
AcDbLine
 10
698.5
 20
12.7
 30
0.0
 11
584.1999999999999
 21
12.7
 31
0.0
  0
LINE
  5
F40D
330
F3DA
100
AcDbEntity
  8
titleblock
100
AcDbLine
 10
698.5
 20
12.7
 30
0.0
 11
698.5
 21
93.98000000000001
 31
0.0
  0
LINE
  5
F40E
330
F3DA
100
AcDbEntity
  8
titleblock
100
AcDbLine
 10
698.5
 20
19.304
 30
0.0
 11
584.1999999999999
 21
19.304
 31
0.0
  0
LINE
  5
F40F
330
F3DA
100
AcDbEntity
  8
titleblock
100
AcDbLine
 10
698.5
 20
25.908
 30
0.0
 11
584.1999999999999
 21
25.908
 31
0.0
  0
LINE
  5
F410
330
F3DA
100
AcDbEntity
  8
titleblock
100
AcDbLine
 10
698.5
 20
32.0802
 30
0.0
 11
584.1999999999999
 21
32.0802
 31
0.0
  0
LINE
  5
F411
330
F3DA
100
AcDbEntity
  8
titleblock
100
AcDbLine
 10
698.5
 20
38.2524
 30
0.0
 11
584.1999999999999
 21
38.2524
 31
0.0
  0
LINE
  5
F412
330
F3DA
100
AcDbEntity
  8
titleblock
100
AcDbLine
 10
698.5
 20
44.42459999999999
 30
0.0
 11
584.1999999999999
 21
44.42459999999999
 31
0.0
  0
LINE
  5
F413
330
F3DA
100
AcDbEntity
  8
titleblock
100
AcDbLine
 10
698.5
 20
50.5968
 30
0.0
 11
584.1999999999999
 21
50.5968
 31
0.0
  0
LINE
  5
F414
330
F3DA
100
AcDbEntity
  8
titleblock
100
AcDbLine
 10
698.5
 20
56.76899999999999
 30
0.0
 11
584.1999999999999
 21
56.76899999999999
 31
0.0
  0
LINE
  5
F415
330
F3DA
100
AcDbEntity
  8
titleblock
100
AcDbLine
 10
698.5
 20
62.9412
 30
0.0
 11
584.1999999999999
 21
62.9412
 31
0.0
  0
LINE
  5
F416
330
F3DA
100
AcDbEntity
  8
titleblock
100
AcDbLine
 10
698.5
 20
69.1134
 30
0.0
 11
584.1999999999999
 21
69.1134
 31
0.0
  0
LINE
  5
F417
330
F3DA
100
AcDbEntity
  8
titleblock
100
AcDbLine
 10
698.5
 20
75.28559999999998
 30
0.0
 11
584.1999999999999
 21
75.28559999999998
 31
0.0
  0
LINE
  5
F418
330
F3DA
100
AcDbEntity
  8
titleblock
100
AcDbLine
 10
698.5
 20
81.4578
 30
0.0
 11
584.1999999999999
 21
81.4578
 31
0.0
  0
LINE
  5
F419
330
F3DA
100
AcDbEntity
  8
titleblock
100
AcDbLine
 10
698.5
 20
87.62999999999999
 30
0.0
 11
584.1999999999999
 21
87.62999999999999
 31
0.0
  0
LINE
  5
F41A
330
F3DA
100
AcDbEntity
  8
titleblock
100
AcDbLine
 10
698.5
 20
93.98000000000001
 30
0.0
 11
584.1999999999999
 21
93.98000000000001
 31
0.0
  0
LINE
  5
F41B
330
F3DA
100
AcDbEntity
  8
titleblock
100
AcDbLine
 10
681.99
 20
19.304
 30
0.0
 11
681.99
 21
87.62999999999999
 31
0.0
  0
LINE
  5
F41C
330
F3DA
100
AcDbEntity
  8
titleblock
100
AcDbLine
 10
629.412
 20
19.304
 30
0.0
 11
629.412
 21
87.62999999999999
 31
0.0
  0
LINE
  5
F41D
330
F3DA
100
AcDbEntity
  8
titleblock
100
AcDbLine
 10
615.188
 20
19.304
 30
0.0
 11
615.188
 21
87.62999999999999
 31
0.0
  0
LINE
  5
F41E
330
F3DA
100
AcDbEntity
  8
titleblock
100
AcDbLine
 10
599.1859999999999
 20
19.304
 30
0.0
 11
599.1859999999999
 21
87.62999999999999
 31
0.0
  0
LINE
  5
F41F
330
F3DA
100
AcDbEntity
  8
titleblock
100
AcDbLine
 10
584.1999999999999
 20
12.7
 30
0.0
 11
584.1999999999999
 21
93.98000000000001
 31
0.0
  0
TEXT
  5
F420
330
F3DA
100
AcDbEntity
  8
titleblock
100
AcDbText
 10
608.7744999999999
 20
89.535
 30
0.0
 40
2.54
  1
ALL DIMENSIONS IN: MM [INCHES]
 41
0.95
 72
     1
 11
641.3499999999999
 21
89.535
 31
0.0
100
AcDbText
  0
LINE
  5
F421
330
F3DA
100
AcDbEntity
  8
titleblock
100
AcDbLine
 10
850.9
 20
12.7
 30
0.0
 11
698.5
 21
12.7
 31
0.0
  0
LINE
  5
F422
330
F3DA
100
AcDbEntity
  8
titleblock
100
AcDbLine
 10
850.9
 20
12.7
 30
0.0
 11
850.9
 21
93.98000000000001
 31
0.0
  0
LINE
  5
F423
330
F3DA
100
AcDbEntity
  8
titleblock
100
AcDbLine
 10
850.9
 20
23.622
 30
0.0
 11
733.298
 21
23.622
 31
0.0
  0
LINE
  5
F424
330
F3DA
100
AcDbEntity
  8
titleblock
100
AcDbLine
 10
850.9
 20
41.40199999999999
 30
0.0
 11
803.9099999999999
 21
41.40199999999999
 31
0.0
  0
LINE
  5
F425
330
F3DA
100
AcDbEntity
  8
titleblock
100
AcDbLine
 10
733.298
 20
41.40199999999999
 30
0.0
 11
698.5
 21
41.40199999999999
 31
0.0
  0
LINE
  5
F426
330
F3DA
100
AcDbEntity
  8
titleblock
100
AcDbLine
 10
850.9
 20
44.958
 30
0.0
 11
733.298
 21
44.958
 31
0.0
  0
LINE
  5
F427
330
F3DA
100
AcDbEntity
  8
titleblock
100
AcDbLine
 10
850.9
 20
61.722
 30
0.0
 11
733.298
 21
61.722
 31
0.0
  0
LINE
  5
F428
330
F3DA
100
AcDbEntity
  8
titleblock
100
AcDbLine
 10
829.5639999999998
 20
67.30999999999998
 30
0.0
 11
733.298
 21
67.30999999999998
 31
0.0
  0
LINE
  5
F429
330
F3DA
100
AcDbEntity
  8
titleblock
100
AcDbLine
 10
850.9
 20
79.24800000000001
 30
0.0
 11
733.298
 21
79.24800000000001
 31
0.0
  0
LINE
  5
F42A
330
F3DA
100
AcDbEntity
  8
titleblock
100
AcDbLine
 10
850.9
 20
87.62999999999999
 30
0.0
 11
698.5
 21
87.62999999999999
 31
0.0
  0
LINE
  5
F42B
330
F3DA
100
AcDbEntity
  8
titleblock
100
AcDbLine
 10
850.9
 20
93.98000000000001
 30
0.0
 11
698.5
 21
93.98000000000001
 31
0.0
  0
LINE
  5
F42C
330
F3DA
100
AcDbEntity
  8
titleblock
100
AcDbLine
 10
837.9459999999999
 20
12.7
 30
0.0
 11
837.9459999999999
 21
23.622
 31
0.0
  0
LINE
  5
F42D
330
F3DA
100
AcDbEntity
  8
titleblock
100
AcDbLine
 10
829.5639999999998
 20
61.722
 30
0.0
 11
829.5639999999998
 21
87.62999999999999
 31
0.0
  0
LINE
  5
F42E
330
F3DA
100
AcDbEntity
  8
titleblock
100
AcDbLine
 10
811.2759999999999
 20
67.30999999999998
 30
0.0
 11
811.2759999999999
 21
87.62999999999999
 31
0.0
  0
LINE
  5
F42F
330
F3DA
100
AcDbEntity
  8
titleblock
100
AcDbLine
 10
803.9099999999999
 20
41.40199999999999
 30
0.0
 11
803.9099999999999
 21
67.30999999999998
 31
0.0
  0
LINE
  5
F430
330
F3DA
100
AcDbEntity
  8
titleblock
100
AcDbLine
 10
786.6379999999999
 20
67.30999999999998
 30
0.0
 11
786.6379999999999
 21
87.62999999999999
 31
0.0
  0
LINE
  5
F431
330
F3DA
100
AcDbEntity
  8
titleblock
100
AcDbLine
 10
759.206
 20
67.30999999999998
 30
0.0
 11
759.206
 21
79.24800000000001
 31
0.0
  0
LINE
  5
F432
330
F3DA
100
AcDbEntity
  8
titleblock
100
AcDbLine
 10
733.298
 20
12.7
 30
0.0
 11
733.298
 21
87.62999999999999
 31
0.0
  0
LINE
  5
F433
330
F3DA
100
AcDbEntity
  8
titleblock
100
AcDbLine
 10
698.5
 20
12.7
 30
0.0
 11
698.5
 21
93.98000000000001
 31
0.0
  0
TEXT
  5
F434
330
F3DA
100
AcDbEntity
  8
titleblock
100
AcDbText
 10
813.7736666666665
 20
13.97
 30
0.0
 40
2.54
  1
&current_sheet of &total_sheets
 41
0.8
 72
     1
 11
844.4229999999999
 21
13.97
 31
0.0
100
AcDbText
  0
TEXT
  5
F435
330
F3DA
100
AcDbEntity
  8
titleblock
100
AcDbText
 10
764.4891999999999
 20
15.113
 30
0.0
 40
6.095999999999999
  1
&dwg_name
 41
0.8
 72
     1
 11
785.6219999999999
 21
15.113
 31
0.0
100
AcDbText
  0
TEXT
  5
F436
330
F3DA
100
AcDbEntity
  8
titleblock
100
AcDbText
 10
771.7789999999999
 20
29.464
 30
0.0
 40
6.095999999999999
  1
&file_title
 41
0.8
 72
     1
 11
792.0989999999999
 21
29.464
 31
0.0
100
AcDbText
  0
TEXT
  5
F437
330
F3DA
100
AcDbEntity
  8
titleblock
100
AcDbText
 10
829.2253333333333
 20
41.90999999999999
 30
0.0
 40
2.54
  1
&model_name
 41
0.8
 72
     2
 11
849.8839999999999
 21
41.90999999999999
 31
0.0
100
AcDbText
  0
TEXT
  5
F438
330
F3DA
100
AcDbEntity
  8
titleblock
100
AcDbText
 10
699.5159999999999
 20
46.482
 30
0.0
 40
2.54
  1
    ANG %%p 
 41
0.8366666667
100
AcDbText
  0
TEXT
  5
F439
330
F3DA
100
AcDbEntity
  8
titleblock
100
AcDbText
 10
720.76733333418
 20
46.482
 30
0.0
 40
2.54
  1
&angular_tol_0_0
 41
0.8
100
AcDbText
  0
TEXT
  5
F43A
330
F3DA
100
AcDbEntity
  8
titleblock
100
AcDbText
 10
699.5159999999999
 20
52.06999999999999
 30
0.0
 40
2.54
  1
     .X %%p
 41
0.8407407407
100
AcDbText
  0
TEXT
  5
F43B
330
F3DA
100
AcDbEntity
  8
0
  6
Continuous
 62
     2
370
     0
100
AcDbText
 10
28.2966666667
 20
2.049999999999999
 30
0.0
 40
0.1
  1
 
 41
0.8
100
AcDbText
  0
TEXT
  5
F43C
330
F3DA
100
AcDbEntity
  8
titleblock
100
AcDbText
 10
720.76733333418
 20
52.06999999999999
 30
0.0
 40
2.54
  1
&linear_tol_0_0
 41
0.8
100
AcDbText
  0
TEXT
  5
F43D
330
F3DA
100
AcDbEntity
  8
titleblock
100
AcDbText
 10
699.5159999999999
 20
57.65799999999999
 30
0.0
 40
2.54
  1
    .XX %%p 
 41
0.8366666667
100
AcDbText
  0
TEXT
  5
F43E
330
F3DA
100
AcDbEntity
  8
titleblock
100
AcDbText
 10
720.76733333418
 20
57.65799999999999
 30
0.0
 40
2.54
  1
&linear_tol_0_00
 41
0.8
100
AcDbText
  0
TEXT
  5
F43F
330
F3DA
100
AcDbEntity
  8
titleblock
100
AcDbText
 10
699.5159999999999
 20
63.246
 30
0.0
 40
2.54
  1
   .XXX %%p 
 41
0.8366666667
100
AcDbText
  0
TEXT
  5
F440
330
F3DA
100
AcDbEntity
  8
titleblock
100
AcDbText
 10
720.76733333418
 20
63.246
 30
0.0
 40
2.54
  1
&linear_tol_0_000
 41
0.8
100
AcDbText
  0
TEXT
  5
F441
330
F3DA
100
AcDbEntity
  8
titleblock
100
AcDbText
 10
807.5506666666665
 20
68.58
 30
0.0
 40
2.54
  1
&checked_date
 41
0.8
 72
     1
 11
820.4199999999998
 21
68.58
 31
0.0
100
AcDbText
  0
TEXT
  5
F442
330
F3DA
100
AcDbEntity
  8
titleblock
100
AcDbText
 10
791.1676666666664
 20
68.58
 30
0.0
 40
2.54
  1
&checked
 41
0.8
 72
     1
 11
798.9569999999998
 21
68.58
 31
0.0
100
AcDbText
  0
TEXT
  5
F443
330
F3DA
100
AcDbEntity
  8
titleblock
100
AcDbText
 10
762.0846666666665
 20
68.58
 30
0.0
 40
2.54
  1
&drawn_date
 41
0.8
 72
     1
 11
772.9219999999998
 21
68.58
 31
0.0
100
AcDbText
  0
TEXT
  5
F444
330
F3DA
100
AcDbEntity
  8
titleblock
100
AcDbText
 10
737.7853333333332
 20
68.58
 30
0.0
 40
2.54
  1
MING CHEN
 41
0.8
 72
     1
 11
746.2519999999999
 21
68.58
 31
0.0
100
AcDbText
  0
TEXT
  5
F445
330
F3DA
100
AcDbEntity
  8
titleblock
100
AcDbText
 10
834.9826666666665
 20
80.518
 30
0.0
 40
2.54
  1
&scale
 41
0.8
 72
     1
 11
840.2319999999999
 21
80.518
 31
0.0
100
AcDbText
  0
TEXT
  5
F446
330
F3DA
100
AcDbEntity
  8
titleblock
100
AcDbText
 10
785.0716666666665
 20
80.518
 30
0.0
 40
2.54
  1
&approved_date
 41
0.8
 72
     1
 11
798.9569999999998
 21
80.518
 31
0.0
100
AcDbText
  0
TEXT
  5
F447
330
F3DA
100
AcDbEntity
  8
titleblock
100
AcDbText
 10
751.1626666666666
 20
80.518
 30
0.0
 40
2.54
  1
&approved
 41
0.8
 72
     1
 11
759.9679999999999
 21
80.518
 31
0.0
100
AcDbText
  0
TEXT
  5
F448
330
F3DA
100
AcDbEntity
  8
titleblock
100
AcDbText
 10
719.2009999999998
 20
89.535
 30
0.0
 40
2.54
  1
DIMENSIONING AND TOLERANCING PER ASME Y14.5M-1994
 41
0.95
 72
     1
 11
774.6999999999999
 21
89.535
 31
0.0
100
AcDbText
  0
TEXT
  5
F449
330
F3DA
100
AcDbEntity
  8
titleblock
100
AcDbText
 10
733.9888799999999
 20
76.1796927
 30
0.0
 40
1.904999999999999
  1
DRAWN
 41
1.04
 51
0.000018724
100
AcDbText
  0
TEXT
  5
F44A
330
F3DA
100
AcDbEntity
  8
titleblock
100
AcDbText
 10
840.5971249999998
 20
20.1215498
 30
0.0
 40
1.904999999999999
  1
SHT
 41
0.9399999999999998
 51
0.000018724
100
AcDbText
  0
TEXT
  5
F44B
330
F3DA
100
AcDbEntity
  8
titleblock
100
AcDbText
 10
810.4628951999998
 20
63.67919699999999
 30
0.0
 40
2.285999999999999
  1
ACAD 2004
 41
0.8
 51
0.000018724
100
AcDbText
  0
TEXT
  5
F44C
330
F3DA
100
AcDbEntity
  8
titleblock
100
AcDbText
 10
836.7029688919599
 20
75.42247810571999
 30
0.0
 40
1.904999999999999
  1
DWG
 51
0.000018724
100
AcDbText
  0
TEXT
  5
F44D
330
F3DA
100
AcDbEntity
  8
titleblock
100
AcDbText
 10
739.1657809999998
 20
63.55613399999999
 30
0.0
 40
2.285999999999999
  1
DO NOT SCALE DRAWING
 41
1.199999999999999
 51
0.000018724
100
AcDbText
  0
TEXT
  5
F44E
330
F3DA
100
AcDbEntity
  8
titleblock
100
AcDbText
 10
752.3214912874599
 20
46.72880185843999
 30
0.0
 40
1.904999999999999
  1
KOHLER CO. CHINA
 41
1.02
 51
0.000019
 72
     1
 11
766.5708912874599
 21
46.72880185843999
 31
0.0
100
AcDbText
  0
TEXT
  5
F44F
330
F3DA
100
AcDbEntity
  8
titleblock
100
AcDbText
 10
804.9609503999999
 20
58.0761983
 30
0.0
 40
1.904999999999999
  1
THIRD ANGLE PROJECTION
 51
0.000018724
100
AcDbText
  0
TEXT
  5
F450
330
F3DA
100
AcDbEntity
  8
titleblock
100
AcDbText
 10
699.8890752
 20
38.1
 30
0.0
 40
1.587499999999999
  1
THIS DRAWING IN DESIGN 
 41
0.925
 51
0.000019
100
AcDbText
  0
TEXT
  5
F451
330
F3DA
100
AcDbEntity
  8
titleblock
100
AcDbText
 10
699.8890752
 20
35.08375
 30
0.0
 40
1.587499999999999
  1
AND DETAILS IS THE 
 41
0.925
 51
0.000019
100
AcDbText
  0
TEXT
  5
F452
330
F3DA
100
AcDbEntity
  8
titleblock
100
AcDbText
 10
699.8890752
 20
32.06749999999999
 30
0.0
 40
1.587499999999999
  1
PROPERTY OF KOHLER CO. 
 41
0.925
 51
0.000019
100
AcDbText
  0
TEXT
  5
F453
330
F3DA
100
AcDbEntity
  8
titleblock
100
AcDbText
 10
699.8890752
 20
29.05125
 30
0.0
 40
1.587499999999999
  1
AND MAY NOT BE USED 
 41
0.925
 51
0.000019
100
AcDbText
  0
TEXT
  5
F454
330
F3DA
100
AcDbEntity
  8
titleblock
100
AcDbText
 10
699.8890752
 20
26.035
 30
0.0
 40
1.587499999999999
  1
EXCEPT IN CONNECTION 
 41
0.925
 51
0.000019
100
AcDbText
  0
TEXT
  5
F455
330
F3DA
100
AcDbEntity
  8
titleblock
100
AcDbText
 10
699.8890752
 20
23.01875
 30
0.0
 40
1.587499999999999
  1
WITH KOHLER CO. WORK. 
 41
0.925
 51
0.000019
100
AcDbText
  0
TEXT
  5
F456
330
F3DA
100
AcDbEntity
  8
titleblock
100
AcDbText
 10
699.8890752
 20
20.0025
 30
0.0
 40
1.587499999999999
  1
ALL RIGHTS OF DESIGN 
 41
0.925
 51
0.000019
100
AcDbText
  0
TEXT
  5
F457
330
F3DA
100
AcDbEntity
  8
titleblock
100
AcDbText
 10
699.8890752
 20
16.98625
 30
0.0
 40
1.587499999999999
  1
OR INVENTION ARE 
 41
0.925
 51
0.000019
100
AcDbText
  0
TEXT
  5
F458
330
F3DA
100
AcDbEntity
  8
titleblock
100
AcDbText
 10
699.8890752
 20
13.97
 30
0.0
 40
1.587499999999999
  1
RESERVED.
 41
0.925
 51
0.000019
100
AcDbText
  0
TEXT
  5
F459
330
F3DA
100
AcDbEntity
  8
titleblock
100
AcDbText
 10
835.639181398
 20
63.79173484706
 30
0.0
 40
1.904999999999999
  1
SIZE
 51
0.000018724
100
AcDbText
  0
TEXT
  5
F45A
330
F3DA
100
AcDbEntity
  8
titleblock
100
AcDbText
 10
734.2543099999999
 20
20.1783696
 30
0.0
 40
1.904999999999999
  1
DWG. NO.
 41
0.8
 51
0.000018724
100
AcDbText
  0
TEXT
  5
F45B
330
F3DA
100
AcDbEntity
  8
titleblock
100
AcDbText
 10
734.4814114
 20
41.8621845
 30
0.0
 40
1.904999999999999
  1
DESCRIPTION
 41
1.050000290899999
 51
0.000018724
100
AcDbText
  0
TEXT
  5
F45C
330
F3DA
100
AcDbEntity
  8
titleblock
100
AcDbText
 10
760.4083343999999
 20
76.2316865
 30
0.0
 40
1.904999999999999
  1
DATE
 41
1.09
 51
0.000018724
100
AcDbText
  0
TEXT
  5
F45D
330
F3DA
100
AcDbEntity
  8
titleblock
100
AcDbText
 10
787.0450095999999
 20
76.1978283
 30
0.0
 40
1.904999999999999
  1
CHECKED
 41
0.9899995429
 51
0.000018724
100
AcDbText
  0
TEXT
  5
F45E
330
F3DA
100
AcDbEntity
  8
titleblock
100
AcDbText
 10
812.3813825999999
 20
76.23961129999999
 30
0.0
 40
1.904999999999999
  1
DATE
 41
1.09
 51
0.000018724
100
AcDbText
  0
TEXT
  5
F45F
330
F3DA
100
AcDbEntity
  8
titleblock
100
AcDbText
 10
733.8780852
 20
84.98348509999999
 30
0.0
 40
1.904999999999999
  1
APPROVED
 41
1.07
 51
0.000018724
100
AcDbText
  0
TEXT
  5
F460
330
F3DA
100
AcDbEntity
  8
titleblock
100
AcDbText
 10
787.1540091534
 20
84.89031170494
 30
0.0
 40
1.904999999999999
  1
DATE
 41
1.09
 51
0.000018724
100
AcDbText
  0
TEXT
  5
F461
330
F3DA
100
AcDbEntity
  8
titleblock
100
AcDbText
 10
704.6416740158399
 20
83.06826218928
 30
0.0
 40
1.904999999999999
  1
TOLERANCES
 41
1.229999999999999
 51
0.000019
 72
     1
 11
715.96689901584
 21
83.06826218928
 31
0.0
100
AcDbText
  0
TEXT
  5
F462
330
F3DA
100
AcDbEntity
  8
titleblock
100
AcDbText
 10
709.32797401584
 20
79.44876218928
 30
0.0
 40
1.904999999999999
  1
UNLESS
 41
1.229999999999999
 51
0.000019
 72
     1
 11
715.96689901584
 21
79.44876218928
 31
0.0
100
AcDbText
  0
TEXT
  5
F463
330
F3DA
100
AcDbEntity
  8
titleblock
100
AcDbText
 10
705.81324901584
 20
75.82926218928
 30
0.0
 40
1.904999999999999
  1
OTHERWISE
 41
1.229999999999999
 51
0.000019
 72
     1
 11
715.96689901584
 21
75.82926218928
 31
0.0
100
AcDbText
  0
TEXT
  5
F464
330
F3DA
100
AcDbEntity
  8
titleblock
100
AcDbText
 10
706.5942990158399
 20
72.20976218928
 30
0.0
 40
1.904999999999999
  1
SPECIFIED
 41
1.229999999999999
 51
0.000019
 72
     1
 11
715.96689901584
 21
72.20976218928
 31
0.0
100
AcDbText
  0
TEXT
  5
F465
330
F3DA
100
AcDbEntity
  8
titleblock
100
AcDbText
 10
830.4130457999999
 20
84.9831041
 30
0.0
 40
1.904999999999999
  1
SCALE
 41
1.069993487699999
 51
0.000018724
100
AcDbText
  0
TEXT
  5
F466
330
F3DA
100
AcDbEntity
  8
titleblock
100
AcDbText
 10
589.1410873999999
 20
21.4788877
 30
0.0
 40
2.285999999999999
  1
SHT
 41
0.9400021332999999
 51
0.000018724
100
AcDbText
  0
TEXT
  5
F467
330
F3DA
100
AcDbEntity
  8
titleblock
100
AcDbText
 10
604.8375
 20
21.4788877
 30
0.0
 40
2.285999999999999
  1
SYM
 51
0.000018724
100
AcDbText
  0
TEXT
  5
F468
330
F3DA
100
AcDbEntity
  8
titleblock
100
AcDbText
 10
620.5735873999999
 20
21.4788877
 30
0.0
 40
2.285999999999999
  1
BY
 41
0.9700032
 51
0.000018724
100
AcDbText
  0
TEXT
  5
F469
330
F3DA
100
AcDbEntity
  8
titleblock
100
AcDbText
 10
643.5824313999999
 20
21.4788877
 30
0.0
 40
2.285999999999999
  1
DESCRIPTION
 41
1.050000290899999
 51
0.000018724
100
AcDbText
  0
TEXT
  5
F46A
330
F3DA
100
AcDbEntity
  8
titleblock
100
AcDbText
 10
686.6334501999999
 20
21.4788877
 30
0.0
 40
2.285999999999999
  1
DATE
 41
1.09
 51
0.000018724
100
AcDbText
  0
TEXT
  5
F46B
330
F3DA
100
AcDbEntity
  8
titleblock
100
AcDbText
 10
609.8365501999999
 20
14.9304502
 30
0.0
 40
2.285999999999999
  1
DWG REVISION RECORD
 41
1.379999999999999
 51
0.000018724
100
AcDbText
  0
TEXT
  5
F46C
330
F3DA
100
AcDbEntity
  8
titleblock
100
AcDbText
 10
812.1840754
 20
84.86741979999999
 30
0.0
 40
1.904999999999999
  1
PLOT DATE
 41
0.9249996445
 51
0.000018724
100
AcDbText
  0
TEXT
  5
F46D
330
F3DA
100
AcDbEntity
  8
titleblock
100
AcDbText
 10
804.9175835321999
 20
42.15815005487999
 30
0.0
 40
1.904999999999999
  1
DRAFT
 41
0.8
 51
0.000018724
100
AcDbText
  0
TEXT
  5
F46E
330
F3DA
100
AcDbEntity
  8
titleblock
100
AcDbText
 10
812.5375835322
 20
42.15815005487999
 30
0.0
 40
1.904999999999999
  1
 NAME:
 41
0.8
 51
0.000018724
100
AcDbText
  0
TEXT
  5
F46F
330
F3DA
100
AcDbEntity
  8
0
  6
Continuous
100
AcDbText
 10
855.5510739879863
 20
66.71646780631999
 30
0.0
 40
6.349999999999999
  1
A
 41
0.8
 72
     1
 11
857.2444073213198
 21
66.71646780631999
 31
0.0
100
AcDbText
  0
TEXT
  5
F470
330
F3DA
100
AcDbEntity
  8
0
  6
Continuous
100
AcDbText
 10
855.5123768517665
 20
206.42173777292
 30
0.0
 40
6.349999999999999
  1
B
 41
0.8
 72
     1
 11
857.2057101850999
 21
206.42173777292
 31
0.0
100
AcDbText
  0
TEXT
  5
F471
330
F3DA
100
AcDbEntity
  8
0
  6
Continuous
100
AcDbText
 10
855.5562193294864
 20
346.1436210972
 30
0.0
 40
6.349999999999999
  1
C
 41
0.8
 72
     1
 11
857.2495526628198
 21
346.1436210972
 31
0.0
100
AcDbText
  0
TEXT
  5
F472
330
F3DA
100
AcDbEntity
  8
0
  6
Continuous
100
AcDbText
 10
855.5127597491464
 20
485.8444944457199
 30
0.0
 40
6.349999999999999
  1
D
 41
0.8
 72
     1
 11
857.2060930824799
 21
485.8444944457199
 31
0.0
100
AcDbText
  0
TEXT
  5
F473
330
F3DA
100
AcDbEntity
  8
0
  6
Continuous
100
AcDbText
 10
52.26079994436666
 20
3.213643496499999
 30
0.0
 40
6.349999999999999
  1
8
 41
0.8
 72
     1
 11
53.9541332777
 21
3.213643496499999
 31
0.0
100
AcDbText
  0
TEXT
  5
F474
330
F3DA
100
AcDbEntity
  8
0
  6
Continuous
100
AcDbText
 10
160.1889141105666
 20
3.22428046024
 30
0.0
 40
6.349999999999999
  1
7
 41
0.8
 72
     1
 11
161.8822474439
 21
3.22428046024
 31
0.0
100
AcDbText
  0
TEXT
  5
F475
330
F3DA
100
AcDbEntity
  8
0
  6
Continuous
100
AcDbText
 10
268.1803357904867
 20
3.222724197159999
 30
0.0
 40
6.349999999999999
  1
6
 41
0.8
 72
     1
 11
269.87366912382
 21
3.222724197159999
 31
0.0
100
AcDbText
  0
TEXT
  5
F476
330
F3DA
100
AcDbEntity
  8
0
  6
Continuous
100
AcDbText
 10
376.1276801671467
 20
3.198332483179999
 30
0.0
 40
6.349999999999999
  1
5
 41
0.8
 72
     1
 11
377.82101350048
 21
3.198332483179999
 31
0.0
100
AcDbText
  0
TEXT
  5
F477
330
F3DA
100
AcDbEntity
  8
0
  6
Continuous
100
AcDbText
 10
484.0643934779467
 20
3.235913805019999
 30
0.0
 40
6.349999999999999
  1
4
 41
0.8
 72
     1
 11
485.75772681128
 21
3.235913805019999
 31
0.0
100
AcDbText
  0
TEXT
  5
F478
330
F3DA
100
AcDbEntity
  8
0
  6
Continuous
100
AcDbText
 10
592.0041154949466
 20
3.190952787499999
 30
0.0
 40
6.349999999999999
  1
3
 41
0.8
 72
     1
 11
593.69744882828
 21
3.190952787499999
 31
0.0
100
AcDbText
  0
TEXT
  5
F479
330
F3DA
100
AcDbEntity
  8
0
  6
Continuous
100
AcDbText
 10
699.9437414161264
 20
3.223003754639999
 30
0.0
 40
6.349999999999999
  1
2
 41
0.8
 72
     1
 11
701.6370747494598
 21
3.223003754639999
 31
0.0
100
AcDbText
  0
TEXT
  5
F47A
330
F3DA
100
AcDbEntity
  8
0
  6
Continuous
100
AcDbText
 10
808.7400916241932
 20
3.234366500519999
 30
0.0
 40
6.349999999999999
  1
1
 41
0.8
 72
     1
 11
809.5867582908599
 21
3.234366500519999
 31
0.0
100
AcDbText
  0
INSERT
  5
F47B
330
F3DA
100
AcDbEntity
  8
titleblock
100
AcDbBlockReference
  2
KOHLER_BL0
 10
766.7592360999999
 20
55.22330839999999
 30
0.0
 41
25.4
 42
25.4
 43
25.4
  0
INSERT
  5
F47C
330
F3DA
100
AcDbEntity
  8
0
  6
Continuous
 62
     2
100
AcDbBlockReference
  2
C_ARROW_BL1
 10
431.7999999999999
 20
7.9375
 30
0.0
 41
25.4
 42
25.4
 43
25.4
  0
INSERT
  5
F47D
330
F3DA
100
AcDbEntity
  8
0
  6
Continuous
 62
     2
100
AcDbBlockReference
  2
C_ARROW_BL2
 10
431.7999999999999
 20
550.8624999999999
 30
0.0
 41
25.4
 42
25.4
 43
25.4
  0
INSERT
  5
F47E
330
F3DA
100
AcDbEntity
  8
0
  6
Continuous
 62
     2
100
AcDbBlockReference
  2
C_ARROW_BL3
 10
7.9375
 20
279.4
 30
0.0
 41
25.4
 42
25.4
 43
25.4
  0
INSERT
  5
F47F
330
F3DA
100
AcDbEntity
  8
0
  6
Continuous
 62
     2
100
AcDbBlockReference
  2
C_ARROW_BL4
 10
855.6624999999998
 20
279.4
 30
0.0
 41
25.4
 42
25.4
 43
25.4
  0
LINE
  5
F480
330
F3DA
100
AcDbEntity
  8
0
  6
Continuous
 62
     7
100
AcDbLine
 10
0.0
 20
0.0
 30
0.0
 11
0.0
 21
558.8
 31
0.0
  0
LINE
  5
F481
330
F3DA
100
AcDbEntity
  8
0
  6
Continuous
100
AcDbLine
 10
12.7
 20
12.7
 30
0.0
 11
12.7
 21
546.1
 31
0.0
  0
LINE
  5
F482
330
F3DA
100
AcDbEntity
  8
0
  6
Continuous
100
AcDbLine
 10
107.95
 20
0.0
 30
0.0
 11
107.95
 21
12.7
 31
0.0
  0
LINE
  5
F483
330
F3DA
100
AcDbEntity
  8
titleblock
100
AcDbLine
 10
838.0015752
 20
55.5625
 30
0.0
 11
829.2703251999999
 21
53.97499999999999
 31
0.0
  0
LINE
  5
F484
330
F3DA
100
AcDbEntity
  8
0
  6
Continuous
 62
     7
100
AcDbLine
 10
0.0
 20
0.0
 30
0.0
 11
863.5999999999999
 21
0.0
 31
0.0
  0
LINE
  5
F485
330
F3DA
100
AcDbEntity
  8
0
  6
Continuous
100
AcDbLine
 10
850.9
 20
12.7
 30
0.0
 11
12.7
 21
12.7
 31
0.0
  0
LINE
  5
F486
330
F3DA
100
AcDbEntity
  8
0
  6
Continuous
100
AcDbLine
 10
215.9
 20
0.0
 30
0.0
 11
215.9
 21
12.7
 31
0.0
  0
LINE
  5
F487
330
F3DA
100
AcDbEntity
  8
titleblock
100
AcDbLine
 10
749.3808736
 20
51.6514334
 30
0.0
 11
751.0826736
 21
51.6514334
 31
0.0
  0
LINE
  5
F488
330
F3DA
100
AcDbEntity
  8
titleblock
100
AcDbLine
 10
753.5515027999999
 20
51.6514334
 30
0.0
 11
755.7308736
 21
51.6514334
 31
0.0
  0
LINE
  5
F489
330
F3DA
100
AcDbEntity
  8
titleblock
100
AcDbLine
 10
762.8746235999999
 20
51.6514334
 30
0.0
 11
764.5764235999999
 21
51.6514334
 31
0.0
  0
LINE
  5
F48A
330
F3DA
100
AcDbEntity
  8
titleblock
100
AcDbLine
 10
766.5607986
 20
51.6514334
 30
0.0
 11
768.2625986
 21
51.6514334
 31
0.0
  0
LINE
  5
F48B
330
F3DA
100
AcDbEntity
  8
titleblock
100
AcDbLine
 10
769.0563486
 20
51.6514334
 30
0.0
 11
773.0250985999999
 21
51.6514334
 31
0.0
  0
LINE
  5
F48C
330
F3DA
100
AcDbEntity
  8
titleblock
100
AcDbLine
 10
773.8188486
 20
51.6514334
 30
0.0
 11
777.7875986
 21
51.6514334
 31
0.0
  0
LINE
  5
F48D
330
F3DA
100
AcDbEntity
  8
titleblock
100
AcDbLine
 10
778.5813485999999
 20
51.6514334
 30
0.0
 11
780.2831486
 21
51.6514334
 31
0.0
  0
LINE
  5
F48E
330
F3DA
100
AcDbEntity
  8
titleblock
100
AcDbLine
 10
782.191349
 20
51.6514334
 30
0.0
 11
784.1375985999999
 21
51.6514334
 31
0.0
  0
LINE
  5
F48F
330
F3DA
100
AcDbEntity
  8
titleblock
100
AcDbLine
 10
812.4626371999999
 20
51.990625
 30
0.0
 11
820.7861155999999
 21
51.990625
 31
0.0
  0
LINE
  5
F490
330
F3DA
100
AcDbEntity
  8
titleblock
100
AcDbLine
 10
822.0666566
 20
51.990625
 30
0.0
 11
823.4054143999999
 21
51.990625
 31
0.0
  0
LINE
  5
F491
330
F3DA
100
AcDbEntity
  8
titleblock
100
AcDbLine
 10
824.7441467999999
 20
51.990625
 30
0.0
 11
839.2957051999999
 21
51.990625
 31
0.0
  0
LINE
  5
F492
330
F3DA
100
AcDbEntity
  8
titleblock
100
AcDbLine
 10
770.7581486
 20
53.3532334
 30
0.0
 11
773.0250985999999
 21
53.3532334
 31
0.0
  0
LINE
  5
F493
330
F3DA
100
AcDbEntity
  8
titleblock
100
AcDbLine
 10
775.5206485999999
 20
53.3532334
 30
0.0
 11
777.7875986
 21
53.3532334
 31
0.0
  0
LINE
  5
F494
330
F3DA
100
AcDbEntity
  8
titleblock
100
AcDbLine
 10
780.2831486
 20
54.42955839999999
 30
0.0
 11
780.6497467999998
 21
54.42955839999999
 31
0.0
  0
LINE
  5
F495
330
F3DA
100
AcDbEntity
  8
titleblock
100
AcDbLine
 10
775.5206485999999
 20
54.57085859999999
 30
0.0
 11
777.7875986
 21
54.57085859999999
 31
0.0
  0
LINE
  5
F496
330
F3DA
100
AcDbEntity
  8
titleblock
100
AcDbLine
 10
764.5764235999999
 20
54.76928339999999
 30
0.0
 11
766.5607986
 21
54.76928339999999
 31
0.0
  0
LINE
  5
F497
330
F3DA
100
AcDbEntity
  8
titleblock
100
AcDbLine
 10
781.1308735999999
 20
55.85355859999999
 30
0.0
 11
780.2831486
 21
55.85355859999999
 31
0.0
  0
LINE
  5
F498
330
F3DA
100
AcDbEntity
  8
titleblock
100
AcDbLine
 10
775.5206485999999
 20
55.8757836
 30
0.0
 11
777.7875986
 21
55.8757836
 31
0.0
  0
LINE
  5
F499
330
F3DA
100
AcDbEntity
  8
titleblock
100
AcDbLine
 10
764.5764235999999
 20
56.47108339999999
 30
0.0
 11
766.5607986
 21
56.47108339999999
 31
0.0
  0
LINE
  5
F49A
330
F3DA
100
AcDbEntity
  8
titleblock
100
AcDbLine
 10
775.5206485999999
 20
57.0933834
 30
0.0
 11
777.7875986
 21
57.0933834
 31
0.0
  0
LINE
  5
F49B
330
F3DA
100
AcDbEntity
  8
titleblock
100
AcDbLine
 10
781.1308735999999
 20
57.4108834
 30
0.0
 11
780.2831486
 21
57.4108834
 31
0.0
  0
LINE
  5
F49C
330
F3DA
100
AcDbEntity
  8
titleblock
100
AcDbLine
 10
781.1610233999999
 20
58.79518339999999
 30
0.0
 11
778.5813485999999
 21
58.79518339999999
 31
0.0
  0
LINE
  5
F49D
330
F3DA
100
AcDbEntity
  8
titleblock
100
AcDbLine
 10
749.3808736
 20
58.79518339999999
 30
0.0
 11
751.0826736
 21
58.79518339999999
 31
0.0
  0
LINE
  5
F49E
330
F3DA
100
AcDbEntity
  8
titleblock
100
AcDbLine
 10
753.3241474
 20
58.79518339999999
 30
0.0
 11
755.7308736
 21
58.79518339999999
 31
0.0
  0
LINE
  5
F49F
330
F3DA
100
AcDbEntity
  8
titleblock
100
AcDbLine
 10
762.8746235999999
 20
58.79518339999999
 30
0.0
 11
764.5764235999999
 21
58.79518339999999
 31
0.0
  0
LINE
  5
F4A0
330
F3DA
100
AcDbEntity
  8
titleblock
100
AcDbLine
 10
766.5607986
 20
58.79518339999999
 30
0.0
 11
768.2625986
 21
58.79518339999999
 31
0.0
  0
LINE
  5
F4A1
330
F3DA
100
AcDbEntity
  8
titleblock
100
AcDbLine
 10
769.0563486
 20
58.79518339999999
 30
0.0
 11
770.7581486
 21
58.79518339999999
 31
0.0
  0
LINE
  5
F4A2
330
F3DA
100
AcDbEntity
  8
titleblock
100
AcDbLine
 10
773.8188486
 20
58.79518339999999
 30
0.0
 11
777.7875986
 21
58.79518339999999
 31
0.0
  0
LINE
  5
F4A3
330
F3DA
100
AcDbEntity
  8
titleblock
100
AcDbLine
 10
837.2124471719599
 20
67.68452040666
 30
0.0
 11
840.1445215719599
 21
67.68452040666
 31
0.0
  0
LINE
  5
F4A4
330
F3DA
100
AcDbEntity
  8
titleblock
100
AcDbLine
 10
838.2284471719598
 20
68.70052040665999
 30
0.0
 11
840.14668057196
 21
68.70052040665999
 31
0.0
  0
LINE
  5
F4A5
330
F3DA
100
AcDbEntity
  8
titleblock
100
AcDbLine
 10
838.2284471719598
 20
72.62164540665999
 30
0.0
 11
839.9683979719601
 21
72.62164540665999
 31
0.0
  0
LINE
  5
F4A6
330
F3DA
100
AcDbEntity
  8
titleblock
100
AcDbLine
 10
837.2124471719599
 20
73.63764540666
 30
0.0
 11
839.9657817719599
 21
73.63764540666
 31
0.0
  0
LINE
  5
F4A7
330
F3DA
100
AcDbEntity
  8
titleblock
100
AcDbLine
 10
829.2703251999999
 20
50.00624999999999
 30
0.0
 11
838.0015752
 21
48.41874999999999
 31
0.0
  0
LINE
  5
F4A8
330
F3DA
100
AcDbEntity
  8
0
  6
Continuous
100
AcDbLine
 10
850.9
 20
139.7
 30
0.0
 11
863.5999999999999
 21
139.7
 31
0.0
  0
LINE
  5
F4A9
330
F3DA
100
AcDbEntity
  8
0
  6
Continuous
100
AcDbLine
 10
323.85
 20
0.0
 30
0.0
 11
323.85
 21
12.7
 31
0.0
  0
LINE
  5
F4AA
330
F3DA
100
AcDbEntity
  8
0
  6
Continuous
100
AcDbLine
 10
539.7499999999999
 20
0.0
 30
0.0
 11
539.7499999999999
 21
12.7
 31
0.0
  0
LINE
  5
F4AB
330
F3DA
100
AcDbEntity
  8
titleblock
100
AcDbLine
 10
751.0826736
 20
54.73748259999999
 30
0.0
 11
753.5515027999999
 21
51.6514334
 31
0.0
  0
LINE
  5
F4AC
330
F3DA
100
AcDbEntity
  8
titleblock
100
AcDbLine
 10
752.5558735999999
 20
55.62018339999999
 30
0.0
 11
755.7308736
 21
51.6514334
 31
0.0
  0
LINE
  5
F4AD
330
F3DA
100
AcDbEntity
  8
0
  6
Continuous
100
AcDbLine
 10
850.9
 20
419.0999999999999
 30
0.0
 11
863.5999999999999
 21
419.0999999999999
 31
0.0
  0
LINE
  5
F4AE
330
F3DA
100
AcDbEntity
  8
titleblock
100
AcDbLine
 10
782.191349
 20
51.6514334
 30
0.0
 11
780.6497467999998
 21
54.42955839999999
 31
0.0
  0
LINE
  5
F4AF
330
F3DA
100
AcDbEntity
  8
titleblock
100
AcDbLine
 10
782.3869289999999
 20
54.80631659999999
 30
0.0
 11
784.1375985999999
 21
51.6514334
 31
0.0
  0
LINE
  5
F4B0
330
F3DA
100
AcDbEntity
  8
0
  6
Continuous
100
AcDbLine
 10
647.6999999999999
 20
0.0
 30
0.0
 11
647.6999999999999
 21
12.7
 31
0.0
  0
LINE
  5
F4B1
330
F3DA
100
AcDbEntity
  8
0
  6
Continuous
100
AcDbLine
 10
850.9
 20
546.1
 30
0.0
 11
12.7
 21
546.1
 31
0.0
  0
LINE
  5
F4B2
330
F3DA
100
AcDbEntity
  8
0
  6
Continuous
 62
     7
100
AcDbLine
 10
0.0
 20
558.8
 30
0.0
 11
863.5999999999999
 21
558.8
 31
0.0
  0
LINE
  5
F4B3
330
F3DA
100
AcDbEntity
  8
titleblock
100
AcDbLine
 10
749.3808736
 20
51.6514334
 30
0.0
 11
749.3808736
 21
58.79518339999999
 31
0.0
  0
LINE
  5
F4B4
330
F3DA
100
AcDbEntity
  8
titleblock
100
AcDbLine
 10
751.0826736
 20
58.79518339999999
 30
0.0
 11
751.0826736
 21
56.55368419999999
 31
0.0
  0
LINE
  5
F4B5
330
F3DA
100
AcDbEntity
  8
titleblock
100
AcDbLine
 10
751.0826736
 20
51.6514334
 30
0.0
 11
751.0826736
 21
54.73748259999999
 31
0.0
  0
LINE
  5
F4B6
330
F3DA
100
AcDbEntity
  8
0
  6
Continuous
100
AcDbLine
 10
755.6499999999999
 20
0.0
 30
0.0
 11
755.6499999999999
 21
12.7
 31
0.0
  0
LINE
  5
F4B7
330
F3DA
100
AcDbEntity
  8
titleblock
100
AcDbLine
 10
762.8746235999999
 20
58.79518339999999
 30
0.0
 11
762.8746235999999
 21
51.6514334
 31
0.0
  0
LINE
  5
F4B8
330
F3DA
100
AcDbEntity
  8
titleblock
100
AcDbLine
 10
764.5764235999999
 20
51.6514334
 30
0.0
 11
764.5764235999999
 21
54.76928339999999
 31
0.0
  0
LINE
  5
F4B9
330
F3DA
100
AcDbEntity
  8
titleblock
100
AcDbLine
 10
764.5764235999999
 20
56.47108339999999
 30
0.0
 11
764.5764235999999
 21
58.79518339999999
 31
0.0
  0
LINE
  5
F4BA
330
F3DA
100
AcDbEntity
  8
titleblock
100
AcDbLine
 10
766.5607986
 20
51.6514334
 30
0.0
 11
766.5607986
 21
54.76928339999999
 31
0.0
  0
LINE
  5
F4BB
330
F3DA
100
AcDbEntity
  8
titleblock
100
AcDbLine
 10
766.5607986
 20
56.47108339999999
 30
0.0
 11
766.5607986
 21
58.79518339999999
 31
0.0
  0
LINE
  5
F4BC
330
F3DA
100
AcDbEntity
  8
titleblock
100
AcDbLine
 10
768.2625986
 20
58.79518339999999
 30
0.0
 11
768.2625986
 21
51.6514334
 31
0.0
  0
LINE
  5
F4BD
330
F3DA
100
AcDbEntity
  8
titleblock
100
AcDbLine
 10
769.0563486
 20
58.79518339999999
 30
0.0
 11
769.0563486
 21
51.6514334
 31
0.0
  0
LINE
  5
F4BE
330
F3DA
100
AcDbEntity
  8
titleblock
100
AcDbLine
 10
770.7581486
 20
53.3532334
 30
0.0
 11
770.7581486
 21
58.79518339999999
 31
0.0
  0
LINE
  5
F4BF
330
F3DA
100
AcDbEntity
  8
titleblock
100
AcDbLine
 10
773.0250985999999
 20
53.3532334
 30
0.0
 11
773.0250985999999
 21
51.6514334
 31
0.0
  0
LINE
  5
F4C0
330
F3DA
100
AcDbEntity
  8
titleblock
100
AcDbLine
 10
773.8188486
 20
58.79518339999999
 30
0.0
 11
773.8188486
 21
51.6514334
 31
0.0
  0
LINE
  5
F4C1
330
F3DA
100
AcDbEntity
  8
titleblock
100
AcDbLine
 10
775.5206485999999
 20
54.57085859999999
 30
0.0
 11
775.5206485999999
 21
53.3532334
 31
0.0
  0
LINE
  5
F4C2
330
F3DA
100
AcDbEntity
  8
titleblock
100
AcDbLine
 10
775.5206485999999
 20
55.8757836
 30
0.0
 11
775.5206485999999
 21
57.0933834
 31
0.0
  0
LINE
  5
F4C3
330
F3DA
100
AcDbEntity
  8
titleblock
100
AcDbLine
 10
777.7875986
 20
55.8757836
 30
0.0
 11
777.7875986
 21
54.57085859999999
 31
0.0
  0
LINE
  5
F4C4
330
F3DA
100
AcDbEntity
  8
titleblock
100
AcDbLine
 10
777.7875986
 20
53.3532334
 30
0.0
 11
777.7875986
 21
51.6514334
 31
0.0
  0
LINE
  5
F4C5
330
F3DA
100
AcDbEntity
  8
titleblock
100
AcDbLine
 10
777.7875986
 20
57.0933834
 30
0.0
 11
777.7875986
 21
58.79518339999999
 31
0.0
  0
LINE
  5
F4C6
330
F3DA
100
AcDbEntity
  8
titleblock
100
AcDbLine
 10
778.5813485999999
 20
51.6514334
 30
0.0
 11
778.5813485999999
 21
58.79518339999999
 31
0.0
  0
LINE
  5
F4C7
330
F3DA
100
AcDbEntity
  8
titleblock
100
AcDbLine
 10
780.2831486
 20
57.4108834
 30
0.0
 11
780.2831486
 21
55.85355859999999
 31
0.0
  0
LINE
  5
F4C8
330
F3DA
100
AcDbEntity
  8
titleblock
100
AcDbLine
 10
780.2831486
 20
54.42955839999999
 30
0.0
 11
780.2831486
 21
51.6514334
 31
0.0
  0
LINE
  5
F4C9
330
F3DA
100
AcDbEntity
  8
titleblock
100
AcDbLine
 10
816.5703252
 20
56.03405099999999
 30
0.0
 11
816.5703252
 21
47.88519759999999
 31
0.0
  0
LINE
  5
F4CA
330
F3DA
100
AcDbEntity
  8
titleblock
100
AcDbLine
 10
753.3241474
 20
58.79518339999999
 30
0.0
 11
751.0826736
 21
56.55368419999999
 31
0.0
  0
LINE
  5
F4CB
330
F3DA
100
AcDbEntity
  8
titleblock
100
AcDbLine
 10
755.7308736
 20
58.79518339999999
 30
0.0
 11
752.5558735999999
 21
55.62018339999999
 31
0.0
  0
LINE
  5
F4CC
330
F3DA
100
AcDbEntity
  8
titleblock
100
AcDbLine
 10
829.2703251999999
 20
53.97499999999999
 30
0.0
 11
829.2703251999999
 21
50.00624999999999
 31
0.0
  0
LINE
  5
F4CD
330
F3DA
100
AcDbEntity
  8
titleblock
100
AcDbLine
 10
837.2124471719599
 20
67.68452040666
 30
0.0
 11
837.2124471719599
 21
73.63764540666
 31
0.0
  0
LINE
  5
F4CE
330
F3DA
100
AcDbEntity
  8
titleblock
100
AcDbLine
 10
838.0015752
 20
48.41874999999999
 30
0.0
 11
838.0015752
 21
55.5625
 31
0.0
  0
LINE
  5
F4CF
330
F3DA
100
AcDbEntity
  8
titleblock
100
AcDbLine
 10
838.2284471719598
 20
72.62164540665999
 30
0.0
 11
838.2284471719598
 21
68.70052040665999
 31
0.0
  0
LINE
  5
F4D0
330
F3DA
100
AcDbEntity
  8
0
  6
Continuous
100
AcDbLine
 10
850.9
 20
12.7
 30
0.0
 11
850.9
 21
546.1
 31
0.0
  0
LINE
  5
F4D1
330
F3DA
100
AcDbEntity
  8
0
  6
Continuous
 62
     7
100
AcDbLine
 10
863.5999999999999
 20
0.0
 30
0.0
 11
863.5999999999999
 21
558.8
 31
0.0
  0
ARC
  5
F4D2
330
F3DA
100
AcDbEntity
  8
titleblock
100
AcDbCircle
 10
781.1308735999999
 20
56.63222099999999
 30
0.0
 40
0.7786624
100
AcDbArc
 50
270.0000000000006
 51
90.00000000000019
  0
CIRCLE
  5
F4D3
330
F3DA
100
AcDbEntity
  8
titleblock
100
AcDbCircle
 10
816.5703252
 20
51.990625
 30
0.0
 40
1.984375
  0
CIRCLE
  5
F4D4
330
F3DA
100
AcDbEntity
  8
titleblock
100
AcDbCircle
 10
816.5703252
 20
51.990625
 30
0.0
 40
3.571874999999999
  0
CIRCLE
  5
F4D5
330
F3DA
100
AcDbEntity
  8
titleblock
100
AcDbCircle
 10
758.5089985999999
 20
55.22330839999999
 30
0.0
 40
1.870074999999999
  0
CIRCLE
  5
F4D6
330
F3DA
100
AcDbEntity
  8
titleblock
100
AcDbCircle
 10
758.5089985999999
 20
55.22330839999999
 30
0.0
 40
3.571874999999999
  0
ARC
  5
F4D7
330
F3DA
100
AcDbEntity
  8
titleblock
100
AcDbCircle
 10
781.1610233999999
 20
56.61238359999999
 30
0.0
 40
2.182824443079999
100
AcDbArc
 50
304.1675166806007
 51
90.00000000000019
  0
ARC
  5
F4D8
330
F3DA
100
AcDbEntity
  8
titleblock
100
AcDbCircle
 10
839.08569717196
 20
70.46264540665998
 30
0.0
 40
3.625252452299999
100
AcDbArc
 50
347.2970674615008
 51
35.81076832410009
  0
ARC
  5
F4D9
330
F3DA
100
AcDbEntity
  8
titleblock
100
AcDbCircle
 10
839.08569717196
 20
70.46264540665998
 30
0.0
 40
2.611384292079999
100
AcDbArc
 50
347.3505396154008
 51
35.73015239980008
  0
ARC
  5
F4DA
330
F3DA
100
AcDbEntity
  8
titleblock
100
AcDbCircle
 10
839.9657817719599
 20
71.09764540665999
 30
0.0
 40
2.540012489179999
100
AcDbArc
 50
35.81055812910008
 51
90.00000000000019
  0
ARC
  5
F4DB
330
F3DA
100
AcDbEntity
  8
titleblock
100
AcDbCircle
 10
839.9683979719601
 20
71.09764540665999
 30
0.0
 40
1.524007045959999
100
AcDbArc
 50
35.72983266210008
 51
90.00000000000019
  0
ARC
  5
F4DC
330
F3DA
100
AcDbEntity
  8
titleblock
100
AcDbCircle
 10
840.14668057196
 20
70.22452040665999
 30
0.0
 40
1.523999999999999
100
AcDbArc
 50
270.0000000000006
 51
347.3507330983007
  0
ARC
  5
F4DD
330
F3DA
100
AcDbEntity
  8
titleblock
100
AcDbCircle
 10
840.1445215719599
 20
70.22452040665999
 30
0.0
 40
2.54
100
AcDbArc
 50
270.0000000000006
 51
347.2850012235008
  0
ENDBLK
  5
F4E0
330
F3DA
100
AcDbEntity
  8
0
370
     0
100
AcDbBlockEnd
  0
ENDSEC
  0
SECTION
  2
ENTITIES
  0
TEXT
  5
279E
330
1F
100
AcDbEntity
  8
0
  6
Continuous
 62
     2
370
     0
100
AcDbText
 10
-12.22745446487911
 20
0.1823404516277554
 30
0.0
 40
0.007874
  1
 
 41
0.8
100
AcDbText
  0
TEXT
  5
DA74
330
1F
100
AcDbEntity
  8
0
  6
Continuous
 62
     2
370
     0
100
AcDbText
 10
8298.157388883316
 20
60.34927872202461
 30
0.0
 40
0.1
  1
 
 41
0.8
100
AcDbText
  0
TEXT
  5
DABC
330
1F
100
AcDbEntity
  8
0
  6
Continuous
 62
     2
370
     0
100
AcDbText
 10
8300.954347310414
 20
59.45102834532461
 30
0.0
 40
0.24
  1
 
 41
0.8
 51
0.000018724
100
AcDbText
  0
LINE
  5
E8E6
330
1F
100
AcDbEntity
  8
0
 48
100.0
370
     0
100
AcDbLine
 10
-51705.0429364527
 20
13394.10951948193
 30
0.0
 11
-51705.0429364527
 21
13012.10951948194
 31
0.0
  0
LINE
  5
E8E7
330
1F
100
AcDbEntity
  8
0
 48
100.0
370
     0
100
AcDbLine
 10
-51220.04293645269
 20
13394.10951948194
 30
0.0
 11
-51220.04293645269
 21
13012.10951948194
 31
0.0
  0
LINE
  5
E8E8
330
1F
100
AcDbEntity
  8
0
 48
100.0
370
     0
100
AcDbLine
 10
-51702.04293645269
 20
13397.10951948193
 30
0.0
 11
-51223.04293645269
 21
13397.10951948194
 31
0.0
  0
LINE
  5
E8E9
330
1F
100
AcDbEntity
  8
0
 48
100.0
370
     0
100
AcDbLine
 10
-51702.04293645269
 20
13009.10951948194
 30
0.0
 11
-51223.04293645269
 21
13009.10951948194
 31
0.0
  0
LINE
  5
E90A
330
1F
100
AcDbEntity
  8
0
 48
100.0
370
     0
100
AcDbLine
 10
-51688.5429364527
 20
13374.60951948193
 30
0.0
 11
-51688.5429364527
 21
13031.60951948193
 31
0.0
  0
LINE
  5
E90B
330
1F
100
AcDbEntity
  8
0
 48
100.0
370
     0
100
AcDbLine
 10
-51236.5429364527
 20
13374.60951948193
 30
0.0
 11
-51236.5429364527
 21
13031.60951948194
 31
0.0
  0
LINE
  5
E90C
330
1F
100
AcDbEntity
  8
0
 48
100.0
370
     0
100
AcDbLine
 10
-51682.5429364527
 20
13025.60951948193
 30
0.0
 11
-51242.5429364527
 21
13025.60951948194
 31
0.0
  0
LINE
  5
E90D
330
1F
100
AcDbEntity
  8
0
 48
100.0
370
     0
100
AcDbLine
 10
-51682.5429364527
 20
13380.60951948194
 30
0.0
 11
-51242.5429364527
 21
13380.60951948193
 31
0.0
  0
ARC
  5
E90E
330
1F
100
AcDbEntity
  8
0
 48
100.0
370
     0
100
AcDbCircle
 10
-51682.5429364527
 20
13374.60951948193
 30
0.0
 40
6.0
100
AcDbArc
 50
90.0
 51
180.0000000000011
  0
ARC
  5
E90F
330
1F
100
AcDbEntity
  8
0
 48
100.0
370
     0
100
AcDbCircle
 10
-51242.5429364527
 20
13374.60951948193
 30
0.0
 40
6.0
100
AcDbArc
 50
0.0
 51
89.99999999999976
  0
ARC
  5
E910
330
1F
100
AcDbEntity
  8
0
 48
100.0
370
     0
100
AcDbCircle
 10
-51242.5429364527
 20
13031.60951948194
 30
0.0
 40
6.0
100
AcDbArc
 50
270.0000000000004
 51
0.0000000000011323
  0
ARC
  5
E911
330
1F
100
AcDbEntity
  8
0
 48
100.0
370
     0
100
AcDbCircle
 10
-51682.5429364527
 20
13031.60951948193
 30
0.0
 40
6.0
100
AcDbArc
 50
180.0000000000011
 51
270.0000000000007
  0
ARC
  5
E912
330
1F
100
AcDbEntity
  8
0
 48
100.0
370
     0
100
AcDbCircle
 10
-51702.04293645269
 20
13012.10951948194
 30
0.0
 40
3.0
100
AcDbArc
 50
180.0000000000011
 51
270.0000000000004
  0
ARC
  5
E913
330
1F
100
AcDbEntity
  8
0
 48
100.0
370
     0
100
AcDbCircle
 10
-51223.04293645269
 20
13012.10951948194
 30
0.0
 40
3.0
100
AcDbArc
 50
270.0
 51
0.0
  0
ARC
  5
E914
330
1F
100
AcDbEntity
  8
0
 48
100.0
370
     0
100
AcDbCircle
 10
-51223.04293645269
 20
13394.10951948194
 30
0.0
 40
3.0
100
AcDbArc
 50
0.0
 51
90.0
  0
ARC
  5
E915
330
1F
100
AcDbEntity
  8
0
 48
100.0
370
     0
100
AcDbCircle
 10
-51702.04293645269
 20
13394.10951948193
 30
0.0
 40
3.0
100
AcDbArc
 50
90.00000000000021
 51
180.0
  0
CIRCLE
  5
EAE6
330
1F
100
AcDbEntity
  8
0
370
     0
100
AcDbCircle
 10
-51462.54293645269
 20
13275.10951948193
 30
0.0
 40
31.0
  0
TEXT
  5
FB75
330
1F
100
AcDbEntity
  8
0
  6
Continuous
 62
     2
370
     0
100
AcDbText
 10
-51721.13648462071
 20
12851.78736658469
 30
0.0
 40
0.1
  1
 
 41
0.8
100
AcDbText
  0
TEXT
  5
FBBD
330
1F
100
AcDbEntity
  8
0
  6
Continuous
 62
     2
370
     0
100
AcDbText
 10
-51718.3395261936
 20
12850.88911620799
 30
0.0
 40
0.24
  1
 
 41
0.8
 51
0.000018724
100
AcDbText
  0
MTEXT
  5
12092
330
1F
100
AcDbEntity
  8
0
370
     0
100
AcDbMText
 10
-46539.09803687819
 20
13575.07191340083
 30
0.0
 40
5.46875
 41
0.0
 71
     9
 72
     1
  1
\A1;
 73
     1
 44
1.0
  0
MTEXT
  5
12094
330
1F
100
AcDbEntity
  8
0
370
     0
100
AcDbMText
 10
-46789.25597016083
 20
13604.83978722309
 30
0.0
 40
5.46875
 41
0.0
 71
     9
 72
     1
  1
\A1;
 73
     1
 44
1.0
  0
ENDSEC
  0
SECTION
  2
OBJECTS
  0
DICTIONARY
  5
C
330
0
100
AcDbDictionary
281
     1
  3
ACAD_COLOR
350
474
  3
ACAD_GROUP
350
D
  3
ACAD_LAYOUT
350
1A
  3
ACAD_MATERIAL
350
473
  3
ACAD_MLINESTYLE
350
17
  3
ACAD_PLOTSETTINGS
350
19
  3
ACAD_PLOTSTYLENAME
350
E
  3
ACAD_TABLESTYLE
350
71A5
  3
AcadDim
350
12090
  3
AcDbVariableDictionary
350
71AE
  3
AcmDictionary
350
4D0
  3
AMG
350
478
  3
AMGSNAPSETTINGS
350
50F
  3
ASE_INDEX_DICTIONARY
350
12145
  0
DICTIONARY
  5
7BD
330
2
100
AcDbDictionary
280
     1
281
     1
  3
ACAD_LAYERFILTERS
360
9A6
  3
ACAD_LAYERSTATES
360
7BE
  0
DICTIONARY
  5
51A
330
1F
100
AcDbDictionary
280
     1
281
     1
  3
ACAD_SORTENTS
360
7A00
  0
DICTIONARY
  5
C275
330
C0FF
100
AcDbDictionary
280
     1
281
     1
  0
DICTIONARY
  5
F4DE
330
F3DA
100
AcDbDictionary
280
     1
281
     1
  0
DICTIONARY
  5
474
102
{ACAD_REACTORS
330
C
102
}
330
C
100
AcDbDictionary
281
     1
  0
DICTIONARY
  5
D
102
{ACAD_REACTORS
330
C
102
}
330
C
100
AcDbDictionary
281
     1
  0
DICTIONARY
  5
1A
102
{ACAD_REACTORS
330
C
102
}
330
C
100
AcDbDictionary
281
     1
  3
Layout1
350
1E
  3
Model
350
22
  0
DICTIONARY
  5
473
102
{ACAD_REACTORS
330
C
102
}
330
C
100
AcDbDictionary
281
     1
  0
DICTIONARY
  5
17
102
{ACAD_REACTORS
330
C
102
}
330
C
100
AcDbDictionary
281
     1
  3
Standard
350
18
  0
DICTIONARY
  5
19
102
{ACAD_REACTORS
330
C
102
}
330
C
100
AcDbDictionary
281
     1
  0
ACDBDICTIONARYWDFLT
  5
E
102
{ACAD_REACTORS
330
C
102
}
330
C
100
AcDbDictionary
281
     1
  3
Normal
350
F
100
AcDbDictionaryWithDefault
340
F
  0
DICTIONARY
  5
71A5
102
{ACAD_REACTORS
330
C
102
}
330
C
100
AcDbDictionary
281
     1
  3
Standard
350
71A6
  0
XRECORD
  5
12090
102
{ACAD_REACTORS
330
C
102
}
330
C
100
AcDbXrecord
280
     1
 90
   990106
  3

 60
     0
 61
     0
 62
     1
 63
     3
 64
     0
 65
     0
 66
     0
 67
     3
 68
     1
 69
     0
 70
     0
 71
     0
 72
     0
 40
0.0
170
     0
340
12094
  0
DICTIONARY
  5
71AE
102
{ACAD_REACTORS
330
C
102
}
330
C
100
AcDbDictionary
281
     1
  3
CTABLESTYLE
350
71AF
  0
DICTIONARY
  5
4D0
102
{ACAD_REACTORS
330
C
102
}
330
C
100
AcDbDictionary
281
     1
  3
AcmStdDictionary
350
4DD
  3
AMDTSECTSYM_ARROWCOLOR
350
12113
  0
DICTIONARY
  5
478
102
{ACAD_REACTORS
330
C
102
}
330
C
100
AcDbDictionary
281
     1
  0
DICTIONARY
  5
50F
102
{ACAD_REACTORS
330
C
102
}
330
C
100
AcDbDictionary
281
     1
  0
DICTIONARY
  5
12145
102
{ACAD_REACTORS
330
C
102
}
330
C
100
AcDbDictionary
281
     1
  3
ASEBlockHierarchyIndexRecord
350
12146
1001
DCO15
1040
1629018301.308
  0
DICTIONARY
  5
9A6
102
{ACAD_REACTORS
330
7BD
102
}
330
7BD
100
AcDbDictionary
281
     1
  0
DICTIONARY
  5
7BE
102
{ACAD_REACTORS
330
7BD
102
}
330
7BD
100
AcDbDictionary
281
     1
  0
SORTENTSTABLE
  5
7A00
102
{ACAD_REACTORS
330
51A
102
}
330
51A
100
AcDbSortentsTable
330
1F
331
279E
  5
279E
  0
LAYOUT
  5
1E
102
{ACAD_REACTORS
330
1A
102
}
330
1A
100
AcDbPlotSettings
  1

  2

  4

  6

 40
0.0
 41
0.0
 42
0.0
 43
0.0
 44
0.0
 45
0.0
 46
0.0
 47
0.0
 48
0.0
 49
0.0
140
0.0
141
0.0
142
1.0
143
1.0
 70
     0
 72
     0
 73
     0
 74
     0
  7

 75
     0
147
1.0
 76
     0
 77
     2
 78
   300
148
0.0
149
0.0
100
AcDbLayout
  1
Layout1
 70
     0
 71
     1
 10
0.0
 20
0.0
 11
12.0
 21
9.0
 12
0.0
 22
0.0
 32
0.0
 14
1.000000000000000E+20
 24
1.000000000000000E+20
 34
1.000000000000000E+20
 15
-1.000000000000000E+20
 25
-1.000000000000000E+20
 35
-1.000000000000000E+20
146
0.0
 13
0.0
 23
0.0
 33
0.0
 16
1.0
 26
0.0
 36
0.0
 17
0.0
 27
1.0
 37
0.0
 76
     0
330
1B
  0
LAYOUT
  5
22
102
{ACAD_REACTORS
330
1A
102
}
330
1A
100
AcDbPlotSettings
  1

  2
none_device
  4
Letter_(8.50_x_11.00_Inches)
  6

 40
6.349999904632568
 41
6.349999904632568
 42
6.350006103515625
 43
6.350006103515625
 44
215.8999938964844
 45
279.3999938964844
 46
0.0
 47
0.0
 48
0.0
 49
0.0
140
0.0
141
0.0
142
1.0
143
1.0
 70
 14336
 72
     0
 73
     1
 74
     0
  7

 75
     0
147
1.0
 76
     0
 77
     2
 78
   300
148
780.3041944531128
149
678.4079528477187
100
AcDbLayout
  1
Model
 70
     0
 71
     0
 10
0.0
 20
0.0
 11
0.0
 21
0.0
 12
0.0
 22
0.0
 32
0.0
 14
0.0
 24
0.0
 34
0.0
 15
0.0
 25
0.0
 35
0.0
146
0.0
 13
0.0
 23
0.0
 33
0.0
 16
0.0
 26
0.0
 36
0.0
 17
0.0
 27
0.0
 37
0.0
 76
     0
330
1F
  0
MLINESTYLE
  5
18
102
{ACAD_REACTORS
330
17
102
}
330
17
100
AcDbMlineStyle
  2
STANDARD
 70
     0
  3

 62
   256
 51
90.0
 52
90.0
 71
     2
 49
0.5
 62
   256
  6
BYLAYER
 49
-0.5
 62
   256
  6
BYLAYER
  0
ACDBPLACEHOLDER
  5
F
102
{ACAD_REACTORS
330
E
102
}
330
0
  0
TABLESTYLE
  5
71A6
102
{ACAD_REACTORS
330
71A5
102
}
330
71A5
100
AcDbTableStyle
  3
Standard
 70
     0
 71
     0
 40
0.06
 41
0.06
280
     0
281
     0
  7
STANDARD
140
0.18
170
     2
 62
     0
 63
     7
283
     0
274
    -2
284
     1
 64
     0
275
    -2
285
     1
 65
     0
276
    -2
286
     1
 66
     0
277
    -2
287
     1
 67
     0
278
    -2
288
     1
 68
     0
279
    -2
289
     1
 69
     0
  7
STANDARD
140
0.25
170
     5
 62
     0
 63
     7
283
     0
274
    -2
284
     1
 64
     0
275
    -2
285
     1
 65
     0
276
    -2
286
     1
 66
     0
277
    -2
287
     1
 67
     0
278
    -2
288
     1
 68
     0
279
    -2
289
     1
 69
     0
  7
STANDARD
140
0.18
170
     5
 62
     0
 63
     7
283
     0
274
    -2
284
     1
 64
     0
275
    -2
285
     1
 65
     0
276
    -2
286
     1
 66
     0
277
    -2
287
     1
 67
     0
278
    -2
288
     1
 68
     0
279
    -2
289
     1
 69
     0
  0
DICTIONARYVAR
  5
71AF
102
{ACAD_REACTORS
330
71AE
102
}
330
71AE
100
DictionaryVariables
280
     0
  1
STANDARD
  0
DICTIONARY
  5
4DD
102
{ACAD_REACTORS
330
4D0
102
}
330
4D0
100
AcDbDictionary
281
     1
  0
XRECORD
  5
12113
102
{ACAD_REACTORS
330
4D0
102
}
330
4D0
100
AcDbXrecord
280
     1
 90
-1023410169
  0
XRECORD
  5
12146
102
{ACAD_REACTORS
330
12145
102
}
330
12145
100
AcDbXrecord
280
     1
330
F5BC
330
F5BD
330
F5BE
330
F5BF
330
F47B
330
F47C
330
F47D
330
F47E
330
F47F
  0
ENDSEC
  0
EOF
