  0
SECTION
  2
HEADER
  9
$ACADVER
  1
AC1009
  9
$INSBASE
 10
0.0
 20
0.0
 30
0.0
  9
$EXTMIN
 10
-9.3226923769817631
 20
-4.647638071125697
 30
0.0
  9
$EXTMAX
 10
33.947339988626943
 20
15.67212890260177
 30
0.0
  9
$LIMMIN
 10
0.0
 20
0.0
  9
$LIMMAX
 10
144.0
 20
108.0
  9
$ORTHOMODE
 70
     1
  9
$REGENMODE
 70
     1
  9
$FILLMODE
 70
     1
  9
$QTEXTMODE
 70
     0
  9
$MIRRTEXT
 70
     1
  9
$DRAGMODE
 70
     2
  9
$LTSCALE
 40
4.0
  9
$OSMODE
 70
    37
  9
$ATTMODE
 70
     1
  9
$TEXTSIZE
 40
0.003
  9
$TRACEWID
 40
0.05
  9
$TEXTSTYLE
  7
STANDARD
  9
$CLAYER
  8
0
  9
$CELTYPE
  6
CONTINUOUS
  9
$CECOLOR
 62
   256
  9
$DIMSCALE
 40
1.0
  9
$DIMASZ
 40
0.18
  9
$DIMEXO
 40
0.0625
  9
$DIMDLI
 40
0.38
  9
$DIMRND
 40
0.0
  9
$DIMDLE
 40
0.0
  9
$DIMEXE
 40
0.18
  9
$DIMTP
 40
0.0
  9
$DIMTM
 40
0.0
  9
$DIMTXT
 40
0.18
  9
$DIMCEN
 40
0.09
  9
$DIMTSZ
 40
0.0
  9
$DIMTOL
 70
     0
  9
$DIMLIM
 70
     0
  9
$DIMTIH
 70
     1
  9
$DIMTOH
 70
     1
  9
$DIMSE1
 70
     0
  9
$DIMSE2
 70
     0
  9
$DIMTAD
 70
     0
  9
$DIMZIN
 70
     0
  9
$DIMBLK
  1

  9
$DIMASO
 70
     1
  9
$DIMSHO
 70
     1
  9
$DIMPOST
  1

  9
$DIMAPOST
  1

  9
$DIMALT
 70
     0
  9
$DIMALTD
 70
     2
  9
$DIMALTF
 40
25.399999999999999
  9
$DIMLFAC
 40
1.0
  9
$DIMTOFL
 70
     0
  9
$DIMTVP
 40
0.0
  9
$DIMTIX
 70
     0
  9
$DIMSOXD
 70
     0
  9
$DIMSAH
 70
     0
  9
$DIMBLK1
  1

  9
$DIMBLK2
  1

  9
$DIMSTYLE
  2
STANDARD
  9
$DIMCLRD
 70
     0
  9
$DIMCLRE
 70
     0
  9
$DIMCLRT
 70
     0
  9
$DIMTFAC
 40
1.0
  9
$DIMGAP
 40
0.09
  9
$LUNITS
 70
     2
  9
$LUPREC
 70
     4
  9
$SKETCHINC
 40
0.1
  9
$FILLETRAD
 40
0.0
  9
$AUNITS
 70
     0
  9
$AUPREC
 70
     0
  9
$MENU
  1
acad
  9
$ELEVATION
 40
0.0
  9
$PELEVATION
 40
0.0
  9
$THICKNESS
 40
0.0
  9
$LIMCHECK
 70
     0
  9
$BLIPMODE
 70
     0
  9
$CHAMFERA
 40
0.0
  9
$CHAMFERB
 40
0.0
  9
$SKPOLY
 70
     0
  9
$TDCREATE
 40
2454105.599070996
  9
$TDUPDATE
 40
2454123.6095517711
  9
$TDINDWG
 40
0.052794375
  9
$TDUSRTIMER
 40
0.052794375
  9
$USRTIMER
 70
     1
  9
$ANGBASE
 50
0.0
  9
$ANGDIR
 70
     0
  9
$PDMODE
 70
     3
  9
$PDSIZE
 40
-2.0
  9
$PLINEWID
 40
0.0
  9
$COORDS
 70
     0
  9
$SPLFRAME
 70
     0
  9
$SPLINETYPE
 70
     6
  9
$SPLINESEGS
 70
     8
  9
$ATTDIA
 70
     0
  9
$ATTREQ
 70
     1
  9
$HANDLING
 70
     1
  9
$HANDSEED
  5
2E3
  9
$SURFTAB1
 70
     6
  9
$SURFTAB2
 70
     6
  9
$SURFTYPE
 70
     6
  9
$SURFU
 70
     6
  9
$SURFV
 70
     6
  9
$UCSNAME
  2

  9
$UCSORG
 10
0.0
 20
0.0
 30
0.0
  9
$UCSXDIR
 10
1.0
 20
0.0
 30
0.0
  9
$UCSYDIR
 10
0.0
 20
1.0
 30
0.0
  9
$PUCSNAME
  2

  9
$PUCSORG
 10
0.0
 20
0.0
 30
0.0
  9
$PUCSXDIR
 10
1.0
 20
0.0
 30
0.0
  9
$PUCSYDIR
 10
0.0
 20
1.0
 30
0.0
  9
$USERI1
 70
     0
  9
$USERI2
 70
     0
  9
$USERI3
 70
     0
  9
$USERI4
 70
     0
  9
$USERI5
 70
     0
  9
$USERR1
 40
0.0
  9
$USERR2
 40
0.0
  9
$USERR3
 40
0.0
  9
$USERR4
 40
0.0
  9
$USERR5
 40
0.0
  9
$WORLDVIEW
 70
     1
  9
$SHADEDGE
 70
     3
  9
$SHADEDIF
 70
    70
  9
$TILEMODE
 70
     1
  9
$MAXACTVP
 70
    16
  9
$PLIMCHECK
 70
     0
  9
$PEXTMIN
 10
1.0000000000000000E+020
 20
1.0000000000000000E+020
 30
1.0000000000000000E+020
  9
$PEXTMAX
 10
-1.0000000000000000E+020
 20
-1.0000000000000000E+020
 30
-1.0000000000000000E+020
  9
$PLIMMIN
 10
0.0
 20
0.0
  9
$PLIMMAX
 10
12.0
 20
9.0
  9
$UNITMODE
 70
     0
  9
$VISRETAIN
 70
     0
  9
$PLINEGEN
 70
     1
  9
$PSLTSCALE
 70
     0
  0
ENDSEC
  0
SECTION
  2
TABLES
  0
TABLE
  2
VPORT
 70
     1
  0
VPORT
  2
*ACTIVE
 70
     0
 10
0.0
 20
0.0
 11
1.0
 21
1.0
 12
-0.9935319853511828
 22
-0.334201205465888
 13
0.0
 23
0.0
 14
1.0
 24
1.0
 15
0.0
 25
0.0
 16
0.0
 26
0.0
 36
1.0
 17
0.0
 27
0.0
 37
0.0
 40
13.720931047271449
 41
1.922465208747514
 42
50.0
 43
0.0
 44
0.0
 50
0.0
 51
0.0
 71
     0
 72
   100
 73
     1
 74
     1
 75
     0
 76
     0
 77
     0
 78
     0
  0
ENDTAB
  0
TABLE
  2
LTYPE
 70
     2
  0
LTYPE
  2
CONTINUOUS
 70
     0
  3
Solid line
 72
    65
 73
     0
 40
0.0
  0
ENDTAB
  0
TABLE
  2
LAYER
 70
     2
  0
LAYER
  2
0
 70
     0
 62
     7
  6
CONTINUOUS
  0
LAYER
  2
DEFPOINTS
 70
     0
 62
     7
  6
CONTINUOUS
  0
ENDTAB
  0
TABLE
  2
STYLE
 70
     1
  0
STYLE
  2
STANDARD
 70
     0
 40
0.0
 41
1.0
 50
0.0
 71
     0
 42
0.003
  3
txt
  4

  0
ENDTAB
  0
TABLE
  2
VIEW
 70
     0
  0
ENDTAB
  0
TABLE
  2
UCS
 70
     0
  0
ENDTAB
  0
TABLE
  2
APPID
 70
     2
  0
APPID
  2
ACAD
 70
     0
  0
APPID
  2
ACAD_EXEMPT_FROM_CAD_STANDARDS
 70
     0
  0
ENDTAB
  0
TABLE
  2
DIMSTYLE
 70
     2
  0
DIMSTYLE
  2
STANDARD
 70
     0
  3

  4

  5

  6

  7

 40
1.0
 41
0.18
 42
0.0625
 43
0.38
 44
0.18
 45
0.0
 46
0.0
 47
0.0
 48
0.0
140
0.18
141
0.09
142
0.0
143
25.399999999999999
144
1.0
145
0.0
146
1.0
147
0.09
 71
     0
 72
     0
 73
     1
 74
     1
 75
     0
 76
     0
 77
     0
 78
     0
170
     0
171
     2
172
     0
173
     0
174
     0
175
     0
176
     0
177
     0
178
     0
  0
ENDTAB
  0
ENDSEC
  0
SECTION
  2
BLOCKS
  0
BLOCK
  8
0
  2
$MODEL_SPACE
 70
     2
 10
0.0
 20
0.0
 30
0.0
  3
$MODEL_SPACE
  1

  0
ENDBLK
  5
9
  8
0
  0
BLOCK
 67
     1
  8
0
  2
$PAPER_SPACE
 70
     0
 10
0.0
 20
0.0
 30
0.0
  3
$PAPER_SPACE
  1

  0
ENDBLK
  5
E
 67
     1
  8
0
  0
BLOCK
  8
0
  2
*D0
 70
     1
 10
0.0
 20
0.0
 30
0.0
  3
*D0
  1

  0
LINE
  5
5B
  8
0
  6
CONTINUOUS
 62
     0
 10
-6.7891130548993743
 20
3.3437490043489642
 30
0.0
 11
-0.4918707475023958
 21
3.3437490043489619
 31
0.0
  0
LINE
  5
5C
  8
0
  6
CONTINUOUS
 62
     0
 10
-4.2361278366498558
 20
-3.3428364090966758
 30
0.0
 11
-0.4918707475023968
 21
-3.342836409096678
 31
0.0
  0
LINE
  5
5D
  8
0
  6
CONTINUOUS
 62
     0
 10
-0.6718707475023953
 20
3.1637490043489618
 30
0.0
 11
-0.671870747502396
 21
0.1804562976261425
 31
0.0
  0
LINE
  5
5E
  8
0
  6
CONTINUOUS
 62
     0
 10
-0.6718707475023967
 20
-3.162836409096677
 30
0.0
 11
-0.671870747502396
 21
-0.1795437023738574
 31
0.0
  0
SOLID
  5
5F
  8
0
  6
CONTINUOUS
 62
     0
 10
-0.7018707475023954
 20
3.1637490043489618
 30
0.0
 11
-0.6418707475023953
 21
3.1637490043489618
 31
0.0
 12
-0.6718707475023952
 22
3.3437490043489619
 32
0.0
 13
-0.6718707475023952
 23
3.3437490043489619
 33
0.0
  0
SOLID
  5
60
  8
0
  6
CONTINUOUS
 62
     0
 10
-0.7018707475023966
 20
-3.162836409096677
 30
0.0
 11
-0.6418707475023967
 21
-3.162836409096677
 31
0.0
 12
-0.6718707475023967
 22
-3.342836409096678
 32
0.0
 13
-0.6718707475023967
 23
-3.342836409096678
 33
0.0
  0
INSERT
  5
61
  8
0
  6
CONTINUOUS
  2
*U11
 10
0.0
 20
0.0
 30
0.0
  0
POINT
  5
62
  8
DEFPOINTS
  6
CONTINUOUS
 62
     0
 10
-6.8516130548993743
 20
3.3437490043489642
 30
0.0
  0
POINT
  5
63
  8
DEFPOINTS
  6
CONTINUOUS
 62
     0
 10
-4.2986278366498558
 20
-3.3428364090966758
 30
0.0
  0
POINT
  5
64
  8
DEFPOINTS
  6
CONTINUOUS
 62
     0
 10
-0.6718707475023967
 20
-3.342836409096678
 30
0.0
  0
ENDBLK
  5
66
  8
0
  0
BLOCK
  8
0
  2
*D1
 70
     1
 10
0.0
 20
0.0
 30
0.0
  3
*D1
  1

  0
LINE
  5
69
  8
0
  6
CONTINUOUS
 62
     0
 10
-7.238705541074224
 20
2.4139793162668179
 30
0.0
 11
-7.238705541074224
 21
1.325116513576496
 31
0.0
  0
LINE
  5
6A
  8
0
  6
CONTINUOUS
 62
     0
 10
7.2387055410742098
 20
2.4075911495008731
 30
0.0
 11
7.2387055410742098
 21
1.325116513576496
 31
0.0
  0
LINE
  5
6B
  8
0
  6
CONTINUOUS
 62
     0
 10
-7.0587055410742252
 20
1.5051165135764959
 30
0.0
 11
-0.6000000000000071
 21
1.5051165135764959
 31
0.0
  0
LINE
  5
6C
  8
0
  6
CONTINUOUS
 62
     0
 10
7.0587055410742101
 20
1.5051165135764959
 30
0.0
 11
0.5999999999999929
 21
1.5051165135764959
 31
0.0
  0
SOLID
  5
6D
  8
0
  6
CONTINUOUS
 62
     0
 10
-7.0587055410742252
 20
1.5351165135764959
 30
0.0
 11
-7.0587055410742252
 21
1.4751165135764961
 31
0.0
 12
-7.238705541074224
 22
1.5051165135764959
 32
0.0
 13
-7.238705541074224
 23
1.5051165135764959
 33
0.0
  0
SOLID
  5
6E
  8
0
  6
CONTINUOUS
 62
     0
 10
7.0587055410742101
 20
1.5351165135764959
 30
0.0
 11
7.0587055410742101
 21
1.4751165135764961
 31
0.0
 12
7.2387055410742098
 22
1.5051165135764959
 32
0.0
 13
7.2387055410742098
 23
1.5051165135764959
 33
0.0
  0
INSERT
  5
6F
  8
0
  6
CONTINUOUS
  2
*U12
 10
0.0
 20
0.0
 30
0.0
  0
POINT
  5
70
  8
DEFPOINTS
  6
CONTINUOUS
 62
     0
 10
-7.238705541074224
 20
2.4764793162668179
 30
0.0
  0
POINT
  5
71
  8
DEFPOINTS
  6
CONTINUOUS
 62
     0
 10
7.2387055410742098
 20
2.4700911495008731
 30
0.0
  0
POINT
  5
72
  8
DEFPOINTS
  6
CONTINUOUS
 62
     0
 10
7.2387055410742098
 20
1.5051165135764959
 30
0.0
  0
ENDBLK
  5
74
  8
0
  0
BLOCK
  8
0
  2
*D2
 70
     1
 10
0.0
 20
0.0
 30
0.0
  3
*D2
  1

  0
LINE
  5
7D
  8
0
  6
CONTINUOUS
 62
     0
 10
-6.7891130548993743
 20
3.3437490043489642
 30
0.0
 11
-1.7140087330556131
 21
3.3437490043489628
 31
0.0
  0
LINE
  5
7E
  8
0
  6
CONTINUOUS
 62
     0
 10
-4.2361278366498558
 20
-3.3428364090966758
 30
0.0
 11
-1.714008733055614
 21
-3.3428364090966771
 31
0.0
  0
LINE
  5
7F
  8
0
  6
CONTINUOUS
 62
     0
 10
-1.894008733055613
 20
3.1637490043489631
 30
0.0
 11
-1.894008733055613
 21
0.180456297626143
 31
0.0
  0
LINE
  5
80
  8
0
  6
CONTINUOUS
 62
     0
 10
-1.8940087330556139
 20
-3.1628364090966761
 30
0.0
 11
-1.894008733055613
 21
-0.1795437023738569
 31
0.0
  0
SOLID
  5
81
  8
0
  6
CONTINUOUS
 62
     0
 10
-1.924008733055613
 20
3.1637490043489631
 30
0.0
 11
-1.864008733055613
 21
3.1637490043489631
 31
0.0
 12
-1.894008733055613
 22
3.3437490043489628
 32
0.0
 13
-1.894008733055613
 23
3.3437490043489628
 33
0.0
  0
SOLID
  5
82
  8
0
  6
CONTINUOUS
 62
     0
 10
-1.9240087330556139
 20
-3.1628364090966761
 30
0.0
 11
-1.8640087330556141
 21
-3.1628364090966761
 31
0.0
 12
-1.8940087330556139
 22
-3.3428364090966771
 32
0.0
 13
-1.8940087330556139
 23
-3.3428364090966771
 33
0.0
  0
INSERT
  5
83
  8
0
  6
CONTINUOUS
  2
*U13
 10
0.0
 20
0.0
 30
0.0
  0
POINT
  5
84
  8
DEFPOINTS
  6
CONTINUOUS
 62
     0
 10
-6.8516130548993743
 20
3.3437490043489642
 30
0.0
  0
POINT
  5
85
  8
DEFPOINTS
  6
CONTINUOUS
 62
     0
 10
-4.2986278366498558
 20
-3.3428364090966758
 30
0.0
  0
POINT
  5
86
  8
DEFPOINTS
  6
CONTINUOUS
 62
     0
 10
-1.8940087330556139
 20
-3.3428364090966771
 30
0.0
  0
ENDBLK
  5
88
  8
0
  0
BLOCK
  8
0
  2
*D3
 70
     1
 10
0.0
 20
0.0
 30
0.0
  3
*D3
  1

  0
LINE
  5
8D
  8
0
  6
CONTINUOUS
 62
     0
 10
-8.0425117288353221
 20
3.3437490043489642
 30
0.0
 11
10.004140145554731
 21
3.3437490043489588
 31
0.0
  0
LINE
  5
8E
  8
0
  6
CONTINUOUS
 62
     0
 10
-8.0425117288353221
 20
-0.4062509956510359
 30
0.0
 11
10.004140145554731
 21
-0.4062509956510409
 31
0.0
  0
LINE
  5
8F
  8
0
  6
CONTINUOUS
 62
     0
 10
9.8241401455547361
 20
3.1637490043489591
 30
0.0
 11
9.8241401455547361
 21
1.648749004348959
 31
0.0
  0
LINE
  5
90
  8
0
  6
CONTINUOUS
 62
     0
 10
9.8241401455547361
 20
-0.2262509956510409
 30
0.0
 11
9.8241401455547361
 21
1.2887490043489589
 31
0.0
  0
SOLID
  5
91
  8
0
  6
CONTINUOUS
 62
     0
 10
9.7941401455547368
 20
3.1637490043489591
 30
0.0
 11
9.8541401455547355
 21
3.1637490043489591
 31
0.0
 12
9.8241401455547361
 22
3.3437490043489588
 32
0.0
 13
9.8241401455547361
 23
3.3437490043489588
 33
0.0
  0
SOLID
  5
92
  8
0
  6
CONTINUOUS
 62
     0
 10
9.7941401455547368
 20
-0.2262509956510409
 30
0.0
 11
9.8541401455547355
 21
-0.2262509956510409
 31
0.0
 12
9.8241401455547361
 22
-0.4062509956510409
 32
0.0
 13
9.8241401455547361
 23
-0.4062509956510409
 33
0.0
  0
INSERT
  5
93
  8
0
  6
CONTINUOUS
  2
*U14
 10
0.0
 20
0.0
 30
0.0
  0
POINT
  5
94
  8
DEFPOINTS
  6
CONTINUOUS
 62
     0
 10
-8.1050117288353221
 20
3.3437490043489642
 30
0.0
  0
POINT
  5
95
  8
DEFPOINTS
  6
CONTINUOUS
 62
     0
 10
-8.1050117288353221
 20
-0.4062509956510359
 30
0.0
  0
POINT
  5
96
  8
DEFPOINTS
  6
CONTINUOUS
 62
     0
 10
9.8241401455547361
 20
-0.4062509956510409
 30
0.0
  0
ENDBLK
  5
98
  8
0
  0
BLOCK
  8
0
  2
*D4
 70
     1
 10
0.0
 20
0.0
 30
0.0
  3
*D4
  1

  0
LINE
  5
9B
  8
0
  6
CONTINUOUS
 62
     0
 10
-4.2986278366498558
 20
-3.4053364090966758
 30
0.0
 11
-4.2986278366498558
 21
-4.4206465175573078
 31
0.0
  0
LINE
  5
9C
  8
0
  6
CONTINUOUS
 62
     0
 10
4.2136043789792117
 20
-3.4053364090966758
 30
0.0
 11
4.2136043789792117
 21
-4.4206465175573078
 31
0.0
  0
LINE
  5
9D
  8
0
  6
CONTINUOUS
 62
     0
 10
-4.1186278366498561
 20
-4.240646517557308
 30
0.0
 11
-0.5525117288353219
 21
-4.240646517557308
 31
0.0
  0
LINE
  5
9E
  8
0
  6
CONTINUOUS
 62
     0
 10
4.033604378979212
 20
-4.240646517557308
 30
0.0
 11
0.4674882711646778
 21
-4.240646517557308
 31
0.0
  0
SOLID
  5
9F
  8
0
  6
CONTINUOUS
 62
     0
 10
-4.1186278366498561
 20
-4.2106465175573078
 30
0.0
 11
-4.1186278366498561
 21
-4.2706465175573092
 31
0.0
 12
-4.2986278366498558
 22
-4.240646517557308
 32
0.0
 13
-4.2986278366498558
 23
-4.240646517557308
 33
0.0
  0
SOLID
  5
A0
  8
0
  6
CONTINUOUS
 62
     0
 10
4.033604378979212
 20
-4.2106465175573078
 30
0.0
 11
4.033604378979212
 21
-4.2706465175573092
 31
0.0
 12
4.2136043789792117
 22
-4.240646517557308
 32
0.0
 13
4.2136043789792117
 23
-4.240646517557308
 33
0.0
  0
INSERT
  5
A1
  8
0
  6
CONTINUOUS
  2
*U15
 10
0.0
 20
0.0
 30
0.0
  0
POINT
  5
A2
  8
DEFPOINTS
  6
CONTINUOUS
 62
     0
 10
-4.2986278366498558
 20
-3.3428364090966758
 30
0.0
  0
POINT
  5
A3
  8
DEFPOINTS
  6
CONTINUOUS
 62
     0
 10
4.2136043789792117
 20
-3.3428364090966758
 30
0.0
  0
POINT
  5
A4
  8
DEFPOINTS
  6
CONTINUOUS
 62
     0
 10
4.2136043789792117
 20
-4.240646517557308
 30
0.0
  0
ENDBLK
  5
A6
  8
0
  0
BLOCK
  8
0
  2
*D5
 70
     1
 10
0.0
 20
0.0
 30
0.0
  3
*D5
  1

  0
LINE
  5
B6
  8
0
  6
CONTINUOUS
 62
     0
 10
-4.5135440185614746
 20
-0.8141742894601833
 30
0.0
 11
-4.5135440185614746
 21
-1.9070712926655271
 31
0.0
  0
LINE
  5
B7
  8
0
  6
CONTINUOUS
 62
     0
 10
4.4406884975878853
 20
-0.8141742894601833
 30
0.0
 11
4.4406884975878853
 21
-1.9070712926655271
 31
0.0
  0
LINE
  5
B8
  8
0
  6
CONTINUOUS
 62
     0
 10
-4.3335440185614749
 20
-1.7270712926655269
 30
0.0
 11
-0.5764277604867951
 21
-1.7270712926655269
 31
0.0
  0
LINE
  5
B9
  8
0
  6
CONTINUOUS
 62
     0
 10
4.2606884975878847
 20
-1.7270712926655269
 30
0.0
 11
0.5035722395132048
 21
-1.7270712926655269
 31
0.0
  0
SOLID
  5
BA
  8
0
  6
CONTINUOUS
 62
     0
 10
-4.3335440185614749
 20
-1.6970712926655269
 30
0.0
 11
-4.3335440185614749
 21
-1.757071292665527
 31
0.0
 12
-4.5135440185614746
 22
-1.7270712926655269
 32
0.0
 13
-4.5135440185614746
 23
-1.7270712926655269
 33
0.0
  0
SOLID
  5
BB
  8
0
  6
CONTINUOUS
 62
     0
 10
4.2606884975878847
 20
-1.6970712926655269
 30
0.0
 11
4.2606884975878847
 21
-1.757071292665527
 31
0.0
 12
4.4406884975878853
 22
-1.7270712926655269
 32
0.0
 13
4.4406884975878853
 23
-1.7270712926655269
 33
0.0
  0
INSERT
  5
BC
  8
0
  6
CONTINUOUS
  2
*U16
 10
0.0
 20
0.0
 30
0.0
  0
POINT
  5
BD
  8
DEFPOINTS
  6
CONTINUOUS
 62
     0
 10
-4.5135440185614746
 20
-0.7516742894601834
 30
0.0
  0
POINT
  5
BE
  8
DEFPOINTS
  6
CONTINUOUS
 62
     0
 10
4.4406884975878853
 20
-0.7516742894601834
 30
0.0
  0
POINT
  5
BF
  8
DEFPOINTS
  6
CONTINUOUS
 62
     0
 10
4.4406884975878853
 20
-1.7270712926655269
 30
0.0
  0
ENDBLK
  5
C1
  8
0
  0
BLOCK
  8
0
  2
*D6
 70
     1
 10
0.0
 20
0.0
 30
0.0
  3
*D6
  1

  0
LINE
  5
D5
  8
0
  6
CONTINUOUS
 62
     0
 10
-4.8862617288353221
 20
-0.8141742894601833
 30
0.0
 11
-4.8862617288353221
 21
-1.701024093069428
 31
0.0
  0
LINE
  5
D6
  8
0
  6
CONTINUOUS
 62
     0
 10
4.8012382711646771
 20
-0.8141742894601833
 30
0.0
 11
4.8012382711646771
 21
-1.701024093069428
 31
0.0
  0
LINE
  5
D7
  8
0
  6
CONTINUOUS
 62
     0
 10
-4.7062617288353223
 20
-1.5210240930694281
 30
0.0
 11
-0.5825117288353221
 21
-1.5210240930694281
 31
0.0
  0
LINE
  5
D8
  8
0
  6
CONTINUOUS
 62
     0
 10
4.6212382711646782
 20
-1.5210240930694281
 30
0.0
 11
0.497488271164678
 21
-1.5210240930694281
 31
0.0
  0
SOLID
  5
D9
  8
0
  6
CONTINUOUS
 62
     0
 10
-4.7062617288353223
 20
-1.4910240930694281
 30
0.0
 11
-4.7062617288353223
 21
-1.5510240930694279
 31
0.0
 12
-4.8862617288353221
 22
-1.5210240930694281
 32
0.0
 13
-4.8862617288353221
 23
-1.5210240930694281
 33
0.0
  0
SOLID
  5
DA
  8
0
  6
CONTINUOUS
 62
     0
 10
4.6212382711646782
 20
-1.4910240930694281
 30
0.0
 11
4.6212382711646782
 21
-1.5510240930694279
 31
0.0
 12
4.8012382711646771
 22
-1.5210240930694281
 32
0.0
 13
4.8012382711646771
 23
-1.5210240930694281
 33
0.0
  0
INSERT
  5
DB
  8
0
  6
CONTINUOUS
  2
*U17
 10
0.0
 20
0.0
 30
0.0
  0
POINT
  5
DC
  8
DEFPOINTS
  6
CONTINUOUS
 62
     0
 10
-4.8862617288353221
 20
-0.7516742894601834
 30
0.0
  0
POINT
  5
DD
  8
DEFPOINTS
  6
CONTINUOUS
 62
     0
 10
4.8012382711646771
 20
-0.7516742894601834
 30
0.0
  0
POINT
  5
DE
  8
DEFPOINTS
  6
CONTINUOUS
 62
     0
 10
4.8012382711646771
 20
-1.5210240930694281
 30
0.0
  0
ENDBLK
  5
E0
  8
0
  0
BLOCK
  8
0
  2
*D8
 70
     1
 10
0.0
 20
0.0
 30
0.0
  3
*D8
  1

  0
LINE
  5
EE
  8
0
  6
CONTINUOUS
 62
     0
 10
-5.9543289176319822
 20
-0.6891742894601834
 30
0.0
 11
-5.9543289176319822
 21
1.357465251276857
 31
0.0
  0
LINE
  5
EF
  8
0
  6
CONTINUOUS
 62
     0
 10
5.796602038196454
 20
-0.6891742894601834
 30
0.0
 11
5.796602038196454
 21
1.357465251276857
 31
0.0
  0
LINE
  5
F0
  8
0
  6
CONTINUOUS
 62
     0
 10
-5.7743289176319816
 20
1.177465251276856
 30
0.0
 11
-0.6338634397177642
 21
1.177465251276856
 31
0.0
  0
LINE
  5
F1
  8
0
  6
CONTINUOUS
 62
     0
 10
5.6166020381964543
 20
1.177465251276856
 30
0.0
 11
0.4761365602822359
 21
1.177465251276856
 31
0.0
  0
SOLID
  5
F2
  8
0
  6
CONTINUOUS
 62
     0
 10
-5.7743289176319816
 20
1.207465251276856
 30
0.0
 11
-5.7743289176319816
 21
1.1474652512768559
 31
0.0
 12
-5.9543289176319822
 22
1.177465251276856
 32
0.0
 13
-5.9543289176319822
 23
1.177465251276856
 33
0.0
  0
SOLID
  5
F3
  8
0
  6
CONTINUOUS
 62
     0
 10
5.6166020381964543
 20
1.207465251276856
 30
0.0
 11
5.6166020381964543
 21
1.1474652512768559
 31
0.0
 12
5.796602038196454
 22
1.177465251276856
 32
0.0
 13
5.796602038196454
 23
1.177465251276856
 33
0.0
  0
INSERT
  5
F4
  8
0
  6
CONTINUOUS
  2
*U18
 10
0.0
 20
0.0
 30
0.0
  0
POINT
  5
F5
  8
DEFPOINTS
  6
CONTINUOUS
 62
     0
 10
-5.9543289176319822
 20
-0.7516742894601834
 30
0.0
  0
POINT
  5
F6
  8
DEFPOINTS
  6
CONTINUOUS
 62
     0
 10
5.796602038196454
 20
-0.7516742894601834
 30
0.0
  0
POINT
  5
F7
  8
DEFPOINTS
  6
CONTINUOUS
 62
     0
 10
5.796602038196454
 20
1.177465251276856
 30
0.0
  0
ENDBLK
  5
F9
  8
0
  0
BLOCK
  8
0
  2
*D9
 70
     1
 10
0.0
 20
0.0
 30
0.0
  3
*D9
  1

  0
LINE
  5
104
  8
0
  6
CONTINUOUS
 62
     0
 10
-7.6554192426604706
 20
3.3437490043489642
 30
0.0
 11
-1.0106641013721911
 21
3.3437490043489619
 31
0.0
  0
LINE
  5
105
  8
0
  6
CONTINUOUS
 62
     0
 10
-4.6315083290219539
 20
-3.3437490043489499
 30
0.0
 11
-1.010664101372192
 21
-3.3437490043489508
 31
0.0
  0
LINE
  5
106
  8
0
  6
CONTINUOUS
 62
     0
 10
-1.190664101372191
 20
3.1637490043489618
 30
0.0
 11
-1.1906641013721919
 21
0.1800000000000058
 31
0.0
  0
LINE
  5
107
  8
0
  6
CONTINUOUS
 62
     0
 10
-1.1906641013721919
 20
-3.1637490043489498
 30
0.0
 11
-1.1906641013721919
 21
-0.1799999999999942
 31
0.0
  0
SOLID
  5
108
  8
0
  6
CONTINUOUS
 62
     0
 10
-1.2206641013721911
 20
3.1637490043489618
 30
0.0
 11
-1.160664101372191
 21
3.1637490043489618
 31
0.0
 12
-1.190664101372191
 22
3.3437490043489619
 32
0.0
 13
-1.190664101372191
 23
3.3437490043489619
 33
0.0
  0
SOLID
  5
109
  8
0
  6
CONTINUOUS
 62
     0
 10
-1.2206641013721919
 20
-3.1637490043489498
 30
0.0
 11
-1.1606641013721919
 21
-3.1637490043489498
 31
0.0
 12
-1.1906641013721919
 22
-3.3437490043489499
 32
0.0
 13
-1.1906641013721919
 23
-3.3437490043489499
 33
0.0
  0
INSERT
  5
10A
  8
0
  6
CONTINUOUS
  2
*U19
 10
0.0
 20
0.0
 30
0.0
  0
POINT
  5
10B
  8
DEFPOINTS
  6
CONTINUOUS
 62
     0
 10
-7.7179192426604706
 20
3.3437490043489642
 30
0.0
  0
POINT
  5
10C
  8
DEFPOINTS
  6
CONTINUOUS
 62
     0
 10
-4.6940083290219539
 20
-3.3437490043489499
 30
0.0
  0
POINT
  5
10D
  8
DEFPOINTS
  6
CONTINUOUS
 62
     0
 10
-1.1906641013721919
 20
-3.3437490043489499
 30
0.0
  0
ENDBLK
  5
10F
  8
0
  0
BLOCK
  8
0
  2
*D10
 70
     1
 10
0.0
 20
0.0
 30
0.0
  3
*D10
  1

  0
LINE
  5
112
  8
0
  6
CONTINUOUS
 62
     0
 10
-8.1050117288353221
 20
2.4139793162668179
 30
0.0
 11
-8.1050117288353221
 21
0.7789421581642058
 31
0.0
  0
LINE
  5
113
  8
0
  6
CONTINUOUS
 62
     0
 10
8.0199882711646637
 20
2.4075911495008731
 30
0.0
 11
8.0199882711646637
 21
0.7789421581642058
 31
0.0
  0
LINE
  5
114
  8
0
  6
CONTINUOUS
 62
     0
 10
-7.9250117288353223
 20
0.9589421581642056
 30
0.0
 11
-0.5975117288353293
 21
0.9589421581642056
 31
0.0
  0
LINE
  5
115
  8
0
  6
CONTINUOUS
 62
     0
 10
7.839988271164664
 20
0.9589421581642056
 30
0.0
 11
0.5124882711646709
 21
0.9589421581642056
 31
0.0
  0
SOLID
  5
116
  8
0
  6
CONTINUOUS
 62
     0
 10
-7.9250117288353223
 20
0.9889421581642057
 30
0.0
 11
-7.9250117288353223
 21
0.9289421581642056
 31
0.0
 12
-8.1050117288353221
 22
0.9589421581642056
 32
0.0
 13
-8.1050117288353221
 23
0.9589421581642056
 33
0.0
  0
SOLID
  5
117
  8
0
  6
CONTINUOUS
 62
     0
 10
7.839988271164664
 20
0.9889421581642057
 30
0.0
 11
7.839988271164664
 21
0.9289421581642056
 31
0.0
 12
8.0199882711646637
 22
0.9589421581642056
 32
0.0
 13
8.0199882711646637
 23
0.9589421581642056
 33
0.0
  0
INSERT
  5
118
  8
0
  6
CONTINUOUS
  2
*U20
 10
0.0
 20
0.0
 30
0.0
  0
POINT
  5
119
  8
DEFPOINTS
  6
CONTINUOUS
 62
     0
 10
-8.1050117288353221
 20
2.4764793162668179
 30
0.0
  0
POINT
  5
11A
  8
DEFPOINTS
  6
CONTINUOUS
 62
     0
 10
8.0199882711646637
 20
2.4700911495008731
 30
0.0
  0
POINT
  5
11B
  8
DEFPOINTS
  6
CONTINUOUS
 62
     0
 10
8.0199882711646637
 20
0.9589421581642056
 30
0.0
  0
ENDBLK
  5
11D
  8
0
  0
BLOCK
  8
0
  2
*U11
 70
     1
 10
0.0
 20
0.0
 30
0.0
  3
*U11
  1

  0
TEXT
  5
133
  8
0
  6
CONTINUOUS
 62
     0
 10
-1.121870747502395
 20
-0.0895437023738576
 30
0.0
 40
0.18
  1
6.6866
  0
ENDBLK
  5
135
  8
0
  0
BLOCK
  8
0
  2
*U12
 70
     1
 10
0.0
 20
0.0
 30
0.0
  3
*U12
  1

  0
TEXT
  5
137
  8
0
  6
CONTINUOUS
 62
     0
 10
-0.5100000000000071
 20
1.415116513576496
 30
0.0
 40
0.18
  1
14.4774
  0
ENDBLK
  5
139
  8
0
  0
BLOCK
  8
0
  2
*U13
 70
     1
 10
0.0
 20
0.0
 30
0.0
  3
*U13
  1

  0
TEXT
  5
13B
  8
0
  6
CONTINUOUS
 62
     0
 10
-2.3440087330556141
 20
-0.0895437023738573
 30
0.0
 40
0.18
  1
6.6866
  0
ENDBLK
  5
13D
  8
0
  0
BLOCK
  8
0
  2
*U14
 70
     1
 10
0.0
 20
0.0
 30
0.0
  3
*U14
  1

  0
TEXT
  5
13F
  8
0
  6
CONTINUOUS
 62
     0
 10
9.4041401455547362
 20
1.3787490043489601
 30
0.0
 40
0.18
  1
3.7500
  0
ENDBLK
  5
141
  8
0
  0
BLOCK
  8
0
  2
*U15
 70
     1
 10
0.0
 20
0.0
 30
0.0
  3
*U15
  1

  0
TEXT
  5
143
  8
0
  6
CONTINUOUS
 62
     0
 10
-0.4625117288353219
 20
-4.3306465175573079
 30
0.0
 40
0.18
  1
8.5122
  0
ENDBLK
  5
145
  8
0
  0
BLOCK
  8
0
  2
*U16
 70
     1
 10
0.0
 20
0.0
 30
0.0
  3
*U16
  1

  0
TEXT
  5
147
  8
0
  6
CONTINUOUS
 62
     0
 10
-0.4864277604867951
 20
-1.817071292665527
 30
0.0
 40
0.18
  1
8.9542
  0
ENDBLK
  5
149
  8
0
  0
BLOCK
  8
0
  2
*U17
 70
     1
 10
0.0
 20
0.0
 30
0.0
  3
*U17
  1

  0
TEXT
  5
14B
  8
0
  6
CONTINUOUS
 62
     0
 10
-0.4925117288353222
 20
-1.611024093069428
 30
0.0
 40
0.18
  1
9.6875
  0
ENDBLK
  5
14D
  8
0
  0
BLOCK
  8
0
  2
*U18
 70
     1
 10
0.0
 20
0.0
 30
0.0
  3
*U18
  1

  0
TEXT
  5
152
  8
0
  6
CONTINUOUS
 62
     0
 10
-0.5438634397177641
 20
1.087465251276857
 30
0.0
 40
0.18
  1
11.7509
  0
ENDBLK
  5
154
  8
0
  0
BLOCK
  8
0
  2
*U19
 70
     1
 10
0.0
 20
0.0
 30
0.0
  3
*U19
  1

  0
TEXT
  5
156
  8
0
  6
CONTINUOUS
 62
     0
 10
-1.6406641013721921
 20
-0.0899999999999944
 30
0.0
 40
0.18
  1
6.6875
  0
ENDBLK
  5
158
  8
0
  0
BLOCK
  8
0
  2
*U20
 70
     1
 10
0.0
 20
0.0
 30
0.0
  3
*U20
  1

  0
TEXT
  5
15A
  8
0
  6
CONTINUOUS
 62
     0
 10
-0.5075117288353293
 20
0.8689421581642058
 30
0.0
 40
0.18
  1
16.1250
  0
ENDBLK
  5
15C
  8
0
  0
ENDSEC
  0
SECTION
  2
ENTITIES
  0
POLYLINE
  8
0
  5
15D
  66
     1
 10
0.000000
 20
0.000000
 30
0.000000
  70
     8
  0
VERTEX
  8
0
  5
15E
 10
-6.85161
 20
3.34375
 30
0.000000
  70
    32
  0
VERTEX
  8
0
  5
15F
 10
-6.77838
 20
3.33649
 30
0.000000
  70
    32
  0
VERTEX
  8
0
  5
160
 10
-6.70323
 20
3.32935
 30
0.000000
  70
    32
  0
VERTEX
  8
0
  5
161
 10
-6.62621
 20
3.32232
 30
0.000000
  70
    32
  0
VERTEX
  8
0
  5
162
 10
-6.54734
 20
3.31541
 30
0.000000
  70
    32
  0
VERTEX
  8
0
  5
163
 10
-6.46666
 20
3.30862
 30
0.000000
  70
    32
  0
VERTEX
  8
0
  5
164
 10
-6.38420
 20
3.30194
 30
0.000000
  70
    32
  0
VERTEX
  8
0
  5
165
 10
-6.29999
 20
3.29537
 30
0.000000
  70
    32
  0
VERTEX
  8
0
  5
166
 10
-6.21407
 20
3.28892
 30
0.000000
  70
    32
  0
VERTEX
  8
0
  5
167
 10
-6.12646
 20
3.28259
 30
0.000000
  70
    32
  0
VERTEX
  8
0
  5
168
 10
-6.03720
 20
3.27637
 30
0.000000
  70
    32
  0
VERTEX
  8
0
  5
169
 10
-5.94633
 20
3.27027
 30
0.000000
  70
    32
  0
VERTEX
  8
0
  5
16A
 10
-5.85387
 20
3.26428
 30
0.000000
  70
    32
  0
VERTEX
  8
0
  5
16B
 10
-5.75986
 20
3.25841
 30
0.000000
  70
    32
  0
VERTEX
  8
0
  5
16C
 10
-5.66433
 20
3.25266
 30
0.000000
  70
    32
  0
VERTEX
  8
0
  5
16D
 10
-5.56732
 20
3.24702
 30
0.000000
  70
    32
  0
VERTEX
  8
0
  5
16E
 10
-5.46885
 20
3.24149
 30
0.000000
  70
    32
  0
VERTEX
  8
0
  5
16F
 10
-5.36895
 20
3.23608
 30
0.000000
  70
    32
  0
VERTEX
  8
0
  5
170
 10
-5.26767
 20
3.23079
 30
0.000000
  70
    32
  0
VERTEX
  8
0
  5
171
 10
-5.16504
 20
3.22561
 30
0.000000
  70
    32
  0
VERTEX
  8
0
  5
172
 10
-5.06108
 20
3.22055
 30
0.000000
  70
    32
  0
VERTEX
  8
0
  5
173
 10
-4.95583
 20
3.21561
 30
0.000000
  70
    32
  0
VERTEX
  8
0
  5
174
 10
-4.84932
 20
3.21078
 30
0.000000
  70
    32
  0
VERTEX
  8
0
  5
175
 10
-4.74158
 20
3.20606
 30
0.000000
  70
    32
  0
VERTEX
  8
0
  5
176
 10
-4.63265
 20
3.20146
 30
0.000000
  70
    32
  0
VERTEX
  8
0
  5
177
 10
-4.52256
 20
3.19698
 30
0.000000
  70
    32
  0
VERTEX
  8
0
  5
178
 10
-4.41135
 20
3.19261
 30
0.000000
  70
    32
  0
VERTEX
  8
0
  5
179
 10
-4.29904
 20
3.18836
 30
0.000000
  70
    32
  0
VERTEX
  8
0
  5
17A
 10
-4.18566
 20
3.18423
 30
0.000000
  70
    32
  0
VERTEX
  8
0
  5
17B
 10
-4.07126
 20
3.18021
 30
0.000000
  70
    32
  0
VERTEX
  8
0
  5
17C
 10
-3.95586
 20
3.17630
 30
0.000000
  70
    32
  0
VERTEX
  8
0
  5
17D
 10
-3.83949
 20
3.17252
 30
0.000000
  70
    32
  0
VERTEX
  8
0
  5
17E
 10
-3.72220
 20
3.16885
 30
0.000000
  70
    32
  0
VERTEX
  8
0
  5
17F
 10
-3.60400
 20
3.16529
 30
0.000000
  70
    32
  0
VERTEX
  8
0
  5
180
 10
-3.48493
 20
3.16185
 30
0.000000
  70
    32
  0
VERTEX
  8
0
  5
181
 10
-3.36504
 20
3.15853
 30
0.000000
  70
    32
  0
VERTEX
  8
0
  5
182
 10
-3.24434
 20
3.15532
 30
0.000000
  70
    32
  0
VERTEX
  8
0
  5
183
 10
-3.12287
 20
3.15223
 30
0.000000
  70
    32
  0
VERTEX
  8
0
  5
184
 10
-3.00066
 20
3.14925
 30
0.000000
  70
    32
  0
VERTEX
  8
0
  5
185
 10
-2.87776
 20
3.14639
 30
0.000000
  70
    32
  0
VERTEX
  8
0
  5
186
 10
-2.75418
 20
3.14365
 30
0.000000
  70
    32
  0
VERTEX
  8
0
  5
187
 10
-2.62996
 20
3.14102
 30
0.000000
  70
    32
  0
VERTEX
  8
0
  5
188
 10
-2.50514
 20
3.13851
 30
0.000000
  70
    32
  0
VERTEX
  8
0
  5
189
 10
-2.37974
 20
3.13611
 30
0.000000
  70
    32
  0
VERTEX
  8
0
  5
18A
 10
-2.25380
 20
3.13383
 30
0.000000
  70
    32
  0
VERTEX
  8
0
  5
18B
 10
-2.12736
 20
3.13167
 30
0.000000
  70
    32
  0
VERTEX
  8
0
  5
18C
 10
-2.00044
 20
3.12962
 30
0.000000
  70
    32
  0
VERTEX
  8
0
  5
18D
 10
-1.87307
 20
3.12769
 30
0.000000
  70
    32
  0
VERTEX
  8
0
  5
18E
 10
-1.74530
 20
3.12587
 30
0.000000
  70
    32
  0
VERTEX
  8
0
  5
18F
 10
-1.61715
 20
3.12417
 30
0.000000
  70
    32
  0
VERTEX
  8
0
  5
190
 10
-1.48866
 20
3.12259
 30
0.000000
  70
    32
  0
VERTEX
  8
0
  5
191
 10
-1.35985
 20
3.12112
 30
0.000000
  70
    32
  0
VERTEX
  8
0
  5
192
 10
-1.23076
 20
3.11977
 30
0.000000
  70
    32
  0
VERTEX
  8
0
  5
193
 10
-1.10143
 20
3.11854
 30
0.000000
  70
    32
  0
VERTEX
  8
0
  5
194
 10
-0.971883
 20
3.11742
 30
0.000000
  70
    32
  0
VERTEX
  8
0
  5
195
 10
-0.842154
 20
3.11642
 30
0.000000
  70
    32
  0
VERTEX
  8
0
  5
196
 10
-0.712276
 20
3.11553
 30
0.000000
  70
    32
  0
VERTEX
  8
0
  5
197
 10
-0.582281
 20
3.11476
 30
0.000000
  70
    32
  0
VERTEX
  8
0
  5
198
 10
-0.452203
 20
3.11411
 30
0.000000
  70
    32
  0
VERTEX
  8
0
  5
199
 10
-0.322074
 20
3.11357
 30
0.000000
  70
    32
  0
VERTEX
  8
0
  5
19A
 10
-0.191926
 20
3.11315
 30
0.000000
  70
    32
  0
VERTEX
  8
0
  5
19B
 10
-0.0617930
 20
3.11285
 30
0.000000
  70
    32
  0
VERTEX
  8
0
  5
19C
 10
0.0682937
 20
3.11266
 30
0.000000
  70
    32
  0
VERTEX
  8
0
  5
19D
 10
0.198301
 20
3.11259
 30
0.000000
  70
    32
  0
VERTEX
  8
0
  5
19E
 10
0.328196
 20
3.11263
 30
0.000000
  70
    32
  0
VERTEX
  8
0
  5
19F
 10
0.457947
 20
3.11279
 30
0.000000
  70
    32
  0
VERTEX
  8
0
  5
1A0
 10
0.587520
 20
3.11307
 30
0.000000
  70
    32
  0
VERTEX
  8
0
  5
1A1
 10
0.716884
 20
3.11347
 30
0.000000
  70
    32
  0
VERTEX
  8
0
  5
1A2
 10
0.846004
 20
3.11398
 30
0.000000
  70
    32
  0
VERTEX
  8
0
  5
1A3
 10
0.974850
 20
3.11460
 30
0.000000
  70
    32
  0
VERTEX
  8
0
  5
1A4
 10
1.10339
 20
3.11535
 30
0.000000
  70
    32
  0
VERTEX
  8
0
  5
1A5
 10
1.23159
 20
3.11621
 30
0.000000
  70
    32
  0
VERTEX
  8
0
  5
1A6
 10
1.35941
 20
3.11718
 30
0.000000
  70
    32
  0
VERTEX
  8
0
  5
1A7
 10
1.48683
 20
3.11828
 30
0.000000
  70
    32
  0
VERTEX
  8
0
  5
1A8
 10
1.61381
 20
3.11949
 30
0.000000
  70
    32
  0
VERTEX
  8
0
  5
1A9
 10
1.74032
 20
3.12081
 30
0.000000
  70
    32
  0
VERTEX
  8
0
  5
1AA
 10
1.86632
 20
3.12226
 30
0.000000
  70
    32
  0
VERTEX
  8
0
  5
1AB
 10
1.99179
 20
3.12381
 30
0.000000
  70
    32
  0
VERTEX
  8
0
  5
1AC
 10
2.11669
 20
3.12549
 30
0.000000
  70
    32
  0
VERTEX
  8
0
  5
1AD
 10
2.24099
 20
3.12728
 30
0.000000
  70
    32
  0
VERTEX
  8
0
  5
1AE
 10
2.36466
 20
3.12919
 30
0.000000
  70
    32
  0
VERTEX
  8
0
  5
1AF
 10
2.48766
 20
3.13122
 30
0.000000
  70
    32
  0
VERTEX
  8
0
  5
1B0
 10
2.60996
 20
3.13336
 30
0.000000
  70
    32
  0
VERTEX
  8
0
  5
1B1
 10
2.73152
 20
3.13562
 30
0.000000
  70
    32
  0
VERTEX
  8
0
  5
1B2
 10
2.85233
 20
3.13799
 30
0.000000
  70
    32
  0
VERTEX
  8
0
  5
1B3
 10
2.97233
 20
3.14049
 30
0.000000
  70
    32
  0
VERTEX
  8
0
  5
1B4
 10
3.09151
 20
3.14310
 30
0.000000
  70
    32
  0
VERTEX
  8
0
  5
1B5
 10
3.20982
 20
3.14582
 30
0.000000
  70
    32
  0
VERTEX
  8
0
  5
1B6
 10
3.32724
 20
3.14866
 30
0.000000
  70
    32
  0
VERTEX
  8
0
  5
1B7
 10
3.44373
 20
3.15162
 30
0.000000
  70
    32
  0
VERTEX
  8
0
  5
1B8
 10
3.55926
 20
3.15470
 30
0.000000
  70
    32
  0
VERTEX
  8
0
  5
1B9
 10
3.67380
 20
3.15789
 30
0.000000
  70
    32
  0
VERTEX
  8
0
  5
1BA
 10
3.78731
 20
3.16120
 30
0.000000
  70
    32
  0
VERTEX
  8
0
  5
1BB
 10
3.89976
 20
3.16463
 30
0.000000
  70
    32
  0
VERTEX
  8
0
  5
1BC
 10
4.01113
 20
3.16817
 30
0.000000
  70
    32
  0
VERTEX
  8
0
  5
1BD
 10
4.12137
 20
3.17183
 30
0.000000
  70
    32
  0
VERTEX
  8
0
  5
1BE
 10
4.23045
 20
3.17561
 30
0.000000
  70
    32
  0
VERTEX
  8
0
  5
1BF
 10
4.33834
 20
3.17950
 30
0.000000
  70
    32
  0
VERTEX
  8
0
  5
1C0
 10
4.44502
 20
3.18351
 30
0.000000
  70
    32
  0
VERTEX
  8
0
  5
1C1
 10
4.55043
 20
3.18764
 30
0.000000
  70
    32
  0
VERTEX
  8
0
  5
1C2
 10
4.65457
 20
3.19189
 30
0.000000
  70
    32
  0
VERTEX
  8
0
  5
1C3
 10
4.75738
 20
3.19625
 30
0.000000
  70
    32
  0
VERTEX
  8
0
  5
1C4
 10
4.85884
 20
3.20073
 30
0.000000
  70
    32
  0
VERTEX
  8
0
  5
1C5
 10
4.95892
 20
3.20532
 30
0.000000
  70
    32
  0
VERTEX
  8
0
  5
1C6
 10
5.05758
 20
3.21003
 30
0.000000
  70
    32
  0
VERTEX
  8
0
  5
1C7
 10
5.15479
 20
3.21486
 30
0.000000
  70
    32
  0
VERTEX
  8
0
  5
1C8
 10
5.25052
 20
3.21981
 30
0.000000
  70
    32
  0
VERTEX
  8
0
  5
1C9
 10
5.34473
 20
3.22487
 30
0.000000
  70
    32
  0
VERTEX
  8
0
  5
1CA
 10
5.43739
 20
3.23006
 30
0.000000
  70
    32
  0
VERTEX
  8
0
  5
1CB
 10
5.52848
 20
3.23535
 30
0.000000
  70
    32
  0
VERTEX
  8
0
  5
1CC
 10
5.61795
 20
3.24077
 30
0.000000
  70
    32
  0
VERTEX
  8
0
  5
1CD
 10
5.70578
 20
3.24630
 30
0.000000
  70
    32
  0
VERTEX
  8
0
  5
1CE
 10
5.79192
 20
3.25195
 30
0.000000
  70
    32
  0
VERTEX
  8
0
  5
1CF
 10
5.87636
 20
3.25771
 30
0.000000
  70
    32
  0
VERTEX
  8
0
  5
1D0
 10
5.95906
 20
3.26360
 30
0.000000
  70
    32
  0
VERTEX
  8
0
  5
1D1
 10
6.03997
 20
3.26960
 30
0.000000
  70
    32
  0
VERTEX
  8
0
  5
1D2
 10
6.11908
 20
3.27572
 30
0.000000
  70
    32
  0
VERTEX
  8
0
  5
1D3
 10
6.19635
 20
3.28195
 30
0.000000
  70
    32
  0
VERTEX
  8
0
  5
1D4
 10
6.27175
 20
3.28830
 30
0.000000
  70
    32
  0
VERTEX
  8
0
  5
1D5
 10
6.34523
 20
3.29477
 30
0.000000
  70
    32
  0
VERTEX
  8
0
  5
1D6
 10
6.41678
 20
3.30136
 30
0.000000
  70
    32
  0
VERTEX
  8
0
  5
1D7
 10
6.48636
 20
3.30806
 30
0.000000
  70
    32
  0
VERTEX
  8
0
  5
1D8
 10
6.55393
 20
3.31488
 30
0.000000
  70
    32
  0
VERTEX
  8
0
  5
1D9
 10
6.61947
 20
3.32182
 30
0.000000
  70
    32
  0
VERTEX
  8
0
  5
1DA
 10
6.68293
 20
3.32888
 30
0.000000
  70
    32
  0
VERTEX
  8
0
  5
1DB
 10
6.74430
 20
3.33605
 30
0.000000
  70
    32
  0
VERTEX
  8
0
  5
1DC
 10
6.80353
 20
3.34334
 30
0.000000
  70
    32
  0
VERTEX
  8
0
  5
1DD
 10
6.86059
 20
3.35075
 30
0.000000
  70
    32
  0
SEQEND
  8
0
  5
1DE
  0
POLYLINE
  8
0
  5
1DF
  66
     1
 10
0.000000
 20
0.000000
 30
0.000000
  70
     8
  0
VERTEX
  8
0
  5
1E0
 10
-8.10501
 20
2.47648
 30
0.000000
  70
    32
  0
VERTEX
  8
0
  5
1E1
 10
-8.08949
 20
2.43860
 30
0.000000
  70
    32
  0
VERTEX
  8
0
  5
1E2
 10
-8.07387
 20
2.40109
 30
0.000000
  70
    32
  0
VERTEX
  8
0
  5
1E3
 10
-8.05814
 20
2.36394
 30
0.000000
  70
    32
  0
VERTEX
  8
0
  5
1E4
 10
-8.04230
 20
2.32715
 30
0.000000
  70
    32
  0
VERTEX
  8
0
  5
1E5
 10
-8.02637
 20
2.29072
 30
0.000000
  70
    32
  0
VERTEX
  8
0
  5
1E6
 10
-8.01033
 20
2.25464
 30
0.000000
  70
    32
  0
VERTEX
  8
0
  5
1E7
 10
-7.99420
 20
2.21891
 30
0.000000
  70
    32
  0
VERTEX
  8
0
  5
1E8
 10
-7.97797
 20
2.18353
 30
0.000000
  70
    32
  0
VERTEX
  8
0
  5
1E9
 10
-7.96164
 20
2.14850
 30
0.000000
  70
    32
  0
VERTEX
  8
0
  5
1EA
 10
-7.94521
 20
2.11380
 30
0.000000
  70
    32
  0
VERTEX
  8
0
  5
1EB
 10
-7.92869
 20
2.07945
 30
0.000000
  70
    32
  0
VERTEX
  8
0
  5
1EC
 10
-7.91207
 20
2.04543
 30
0.000000
  70
    32
  0
VERTEX
  8
0
  5
1ED
 10
-7.89536
 20
2.01175
 30
0.000000
  70
    32
  0
VERTEX
  8
0
  5
1EE
 10
-7.87856
 20
1.97840
 30
0.000000
  70
    32
  0
VERTEX
  8
0
  5
1EF
 10
-7.86167
 20
1.94537
 30
0.000000
  70
    32
  0
VERTEX
  8
0
  5
1F0
 10
-7.84469
 20
1.91267
 30
0.000000
  70
    32
  0
VERTEX
  8
0
  5
1F1
 10
-7.82762
 20
1.88029
 30
0.000000
  70
    32
  0
VERTEX
  8
0
  5
1F2
 10
-7.81047
 20
1.84822
 30
0.000000
  70
    32
  0
VERTEX
  8
0
  5
1F3
 10
-7.79323
 20
1.81647
 30
0.000000
  70
    32
  0
VERTEX
  8
0
  5
1F4
 10
-7.77590
 20
1.78504
 30
0.000000
  70
    32
  0
VERTEX
  8
0
  5
1F5
 10
-7.75849
 20
1.75391
 30
0.000000
  70
    32
  0
VERTEX
  8
0
  5
1F6
 10
-7.74100
 20
1.72309
 30
0.000000
  70
    32
  0
VERTEX
  8
0
  5
1F7
 10
-7.72342
 20
1.69257
 30
0.000000
  70
    32
  0
VERTEX
  8
0
  5
1F8
 10
-7.70577
 20
1.66235
 30
0.000000
  70
    32
  0
VERTEX
  8
0
  5
1F9
 10
-7.68803
 20
1.63243
 30
0.000000
  70
    32
  0
VERTEX
  8
0
  5
1FA
 10
-7.67022
 20
1.60281
 30
0.000000
  70
    32
  0
VERTEX
  8
0
  5
1FB
 10
-7.65233
 20
1.57347
 30
0.000000
  70
    32
  0
VERTEX
  8
0
  5
1FC
 10
-7.63437
 20
1.54442
 30
0.000000
  70
    32
  0
VERTEX
  8
0
  5
1FD
 10
-7.61633
 20
1.51566
 30
0.000000
  70
    32
  0
VERTEX
  8
0
  5
1FE
 10
-7.59821
 20
1.48718
 30
0.000000
  70
    32
  0
VERTEX
  8
0
  5
1FF
 10
-7.58003
 20
1.45898
 30
0.000000
  70
    32
  0
VERTEX
  8
0
  5
200
 10
-7.56177
 20
1.43105
 30
0.000000
  70
    32
  0
VERTEX
  8
0
  5
201
 10
-7.54344
 20
1.40340
 30
0.000000
  70
    32
  0
VERTEX
  8
0
  5
202
 10
-7.52504
 20
1.37601
 30
0.000000
  70
    32
  0
VERTEX
  8
0
  5
203
 10
-7.50658
 20
1.34890
 30
0.000000
  70
    32
  0
VERTEX
  8
0
  5
204
 10
-7.48804
 20
1.32205
 30
0.000000
  70
    32
  0
VERTEX
  8
0
  5
205
 10
-7.46945
 20
1.29545
 30
0.000000
  70
    32
  0
VERTEX
  8
0
  5
206
 10
-7.45078
 20
1.26912
 30
0.000000
  70
    32
  0
VERTEX
  8
0
  5
207
 10
-7.43206
 20
1.24304
 30
0.000000
  70
    32
  0
VERTEX
  8
0
  5
208
 10
-7.41327
 20
1.21722
 30
0.000000
  70
    32
  0
VERTEX
  8
0
  5
209
 10
-7.39442
 20
1.19164
 30
0.000000
  70
    32
  0
VERTEX
  8
0
  5
20A
 10
-7.37551
 20
1.16631
 30
0.000000
  70
    32
  0
VERTEX
  8
0
  5
20B
 10
-7.35654
 20
1.14122
 30
0.000000
  70
    32
  0
VERTEX
  8
0
  5
20C
 10
-7.33751
 20
1.11637
 30
0.000000
  70
    32
  0
VERTEX
  8
0
  5
20D
 10
-7.31843
 20
1.09176
 30
0.000000
  70
    32
  0
VERTEX
  8
0
  5
20E
 10
-7.29929
 20
1.06738
 30
0.000000
  70
    32
  0
VERTEX
  8
0
  5
20F
 10
-7.28009
 20
1.04324
 30
0.000000
  70
    32
  0
VERTEX
  8
0
  5
210
 10
-7.26085
 20
1.01932
 30
0.000000
  70
    32
  0
VERTEX
  8
0
  5
211
 10
-7.24155
 20
0.995627
 30
0.000000
  70
    32
  0
VERTEX
  8
0
  5
212
 10
-7.22219
 20
0.972155
 30
0.000000
  70
    32
  0
VERTEX
  8
0
  5
213
 10
-7.20279
 20
0.948903
 30
0.000000
  70
    32
  0
VERTEX
  8
0
  5
214
 10
-7.18334
 20
0.925866
 30
0.000000
  70
    32
  0
VERTEX
  8
0
  5
215
 10
-7.16385
 20
0.903042
 30
0.000000
  70
    32
  0
VERTEX
  8
0
  5
216
 10
-7.14430
 20
0.880428
 30
0.000000
  70
    32
  0
VERTEX
  8
0
  5
217
 10
-7.12471
 20
0.858022
 30
0.000000
  70
    32
  0
VERTEX
  8
0
  5
218
 10
-7.10508
 20
0.835819
 30
0.000000
  70
    32
  0
VERTEX
  8
0
  5
219
 10
-7.08540
 20
0.813816
 30
0.000000
  70
    32
  0
VERTEX
  8
0
  5
21A
 10
-7.06568
 20
0.792012
 30
0.000000
  70
    32
  0
VERTEX
  8
0
  5
21B
 10
-7.04592
 20
0.770403
 30
0.000000
  70
    32
  0
VERTEX
  8
0
  5
21C
 10
-7.02612
 20
0.748986
 30
0.000000
  70
    32
  0
VERTEX
  8
0
  5
21D
 10
-7.00628
 20
0.727757
 30
0.000000
  70
    32
  0
VERTEX
  8
0
  5
21E
 10
-6.98640
 20
0.706714
 30
0.000000
  70
    32
  0
VERTEX
  8
0
  5
21F
 10
-6.96649
 20
0.685855
 30
0.000000
  70
    32
  0
VERTEX
  8
0
  5
220
 10
-6.94654
 20
0.665175
 30
0.000000
  70
    32
  0
VERTEX
  8
0
  5
221
 10
-6.92655
 20
0.644672
 30
0.000000
  70
    32
  0
VERTEX
  8
0
  5
222
 10
-6.90654
 20
0.624343
 30
0.000000
  70
    32
  0
VERTEX
  8
0
  5
223
 10
-6.88649
 20
0.604184
 30
0.000000
  70
    32
  0
VERTEX
  8
0
  5
224
 10
-6.86641
 20
0.584194
 30
0.000000
  70
    32
  0
VERTEX
  8
0
  5
225
 10
-6.84630
 20
0.564368
 30
0.000000
  70
    32
  0
VERTEX
  8
0
  5
226
 10
-6.82616
 20
0.544704
 30
0.000000
  70
    32
  0
VERTEX
  8
0
  5
227
 10
-6.80600
 20
0.525200
 30
0.000000
  70
    32
  0
VERTEX
  8
0
  5
228
 10
-6.78580
 20
0.505851
 30
0.000000
  70
    32
  0
VERTEX
  8
0
  5
229
 10
-6.76559
 20
0.486654
 30
0.000000
  70
    32
  0
VERTEX
  8
0
  5
22A
 10
-6.74534
 20
0.467608
 30
0.000000
  70
    32
  0
VERTEX
  8
0
  5
22B
 10
-6.72508
 20
0.448708
 30
0.000000
  70
    32
  0
VERTEX
  8
0
  5
22C
 10
-6.70479
 20
0.429953
 30
0.000000
  70
    32
  0
VERTEX
  8
0
  5
22D
 10
-6.68449
 20
0.411338
 30
0.000000
  70
    32
  0
VERTEX
  8
0
  5
22E
 10
-6.66416
 20
0.392861
 30
0.000000
  70
    32
  0
VERTEX
  8
0
  5
22F
 10
-6.64381
 20
0.374518
 30
0.000000
  70
    32
  0
VERTEX
  8
0
  5
230
 10
-6.62345
 20
0.356308
 30
0.000000
  70
    32
  0
VERTEX
  8
0
  5
231
 10
-6.60307
 20
0.338226
 30
0.000000
  70
    32
  0
VERTEX
  8
0
  5
232
 10
-6.58268
 20
0.320271
 30
0.000000
  70
    32
  0
VERTEX
  8
0
  5
233
 10
-6.56227
 20
0.302437
 30
0.000000
  70
    32
  0
VERTEX
  8
0
  5
234
 10
-6.54185
 20
0.284724
 30
0.000000
  70
    32
  0
VERTEX
  8
0
  5
235
 10
-6.52142
 20
0.267128
 30
0.000000
  70
    32
  0
VERTEX
  8
0
  5
236
 10
-6.50097
 20
0.249645
 30
0.000000
  70
    32
  0
VERTEX
  8
0
  5
237
 10
-6.48052
 20
0.232273
 30
0.000000
  70
    32
  0
VERTEX
  8
0
  5
238
 10
-6.46006
 20
0.215009
 30
0.000000
  70
    32
  0
VERTEX
  8
0
  5
239
 10
-6.43959
 20
0.197850
 30
0.000000
  70
    32
  0
VERTEX
  8
0
  5
23A
 10
-6.41911
 20
0.180792
 30
0.000000
  70
    32
  0
VERTEX
  8
0
  5
23B
 10
-6.39864
 20
0.163833
 30
0.000000
  70
    32
  0
VERTEX
  8
0
  5
23C
 10
-6.37815
 20
0.146970
 30
0.000000
  70
    32
  0
VERTEX
  8
0
  5
23D
 10
-6.35766
 20
0.130200
 30
0.000000
  70
    32
  0
VERTEX
  8
0
  5
23E
 10
-6.33718
 20
0.113519
 30
0.000000
  70
    32
  0
VERTEX
  8
0
  5
23F
 10
-6.31669
 20
0.0969254
 30
0.000000
  70
    32
  0
VERTEX
  8
0
  5
240
 10
-6.29620
 20
0.0804154
 30
0.000000
  70
    32
  0
VERTEX
  8
0
  5
241
 10
-6.27571
 20
0.0639860
 30
0.000000
  70
    32
  0
VERTEX
  8
0
  5
242
 10
-6.25523
 20
0.0476344
 30
0.000000
  70
    32
  0
VERTEX
  8
0
  5
243
 10
-6.23475
 20
0.0313575
 30
0.000000
  70
    32
  0
VERTEX
  8
0
  5
244
 10
-6.21428
 20
0.0151524
 30
0.000000
  70
    32
  0
VERTEX
  8
0
  5
245
 10
-6.19381
 20
-0.000984026
 30
0.000000
  70
    32
  0
VERTEX
  8
0
  5
246
 10
-6.17335
 20
-0.0170547
 30
0.000000
  70
    32
  0
VERTEX
  8
0
  5
247
 10
-6.15289
 20
-0.0330627
 30
0.000000
  70
    32
  0
VERTEX
  8
0
  5
248
 10
-6.13245
 20
-0.0490110
 30
0.000000
  70
    32
  0
VERTEX
  8
0
  5
249
 10
-6.11202
 20
-0.0649026
 30
0.000000
  70
    32
  0
VERTEX
  8
0
  5
24A
 10
-6.09160
 20
-0.0807404
 30
0.000000
  70
    32
  0
VERTEX
  8
0
  5
24B
 10
-6.07119
 20
-0.0965276
 30
0.000000
  70
    32
  0
VERTEX
  8
0
  5
24C
 10
-6.05080
 20
-0.112267
 30
0.000000
  70
    32
  0
VERTEX
  8
0
  5
24D
 10
-6.03042
 20
-0.127962
 30
0.000000
  70
    32
  0
VERTEX
  8
0
  5
24E
 10
-6.01006
 20
-0.143615
 30
0.000000
  70
    32
  0
VERTEX
  8
0
  5
24F
 10
-5.98972
 20
-0.159229
 30
0.000000
  70
    32
  0
VERTEX
  8
0
  5
250
 10
-5.96939
 20
-0.174808
 30
0.000000
  70
    32
  0
VERTEX
  8
0
  5
251
 10
-5.94909
 20
-0.190354
 30
0.000000
  70
    32
  0
VERTEX
  8
0
  5
252
 10
-5.92880
 20
-0.205871
 30
0.000000
  70
    32
  0
VERTEX
  8
0
  5
253
 10
-5.90854
 20
-0.221360
 30
0.000000
  70
    32
  0
VERTEX
  8
0
  5
254
 10
-5.88830
 20
-0.236826
 30
0.000000
  70
    32
  0
VERTEX
  8
0
  5
255
 10
-5.86808
 20
-0.252272
 30
0.000000
  70
    32
  0
VERTEX
  8
0
  5
256
 10
-5.84789
 20
-0.267700
 30
0.000000
  70
    32
  0
VERTEX
  8
0
  5
257
 10
-5.82773
 20
-0.283113
 30
0.000000
  70
    32
  0
VERTEX
  8
0
  5
258
 10
-5.80759
 20
-0.298514
 30
0.000000
  70
    32
  0
VERTEX
  8
0
  5
259
 10
-5.78749
 20
-0.313907
 30
0.000000
  70
    32
  0
VERTEX
  8
0
  5
25A
 10
-5.76741
 20
-0.329294
 30
0.000000
  70
    32
  0
VERTEX
  8
0
  5
25B
 10
-5.74736
 20
-0.344679
 30
0.000000
  70
    32
  0
VERTEX
  8
0
  5
25C
 10
-5.72735
 20
-0.360064
 30
0.000000
  70
    32
  0
VERTEX
  8
0
  5
25D
 10
-5.70737
 20
-0.375452
 30
0.000000
  70
    32
  0
VERTEX
  8
0
  5
25E
 10
-5.68742
 20
-0.390847
 30
0.000000
  70
    32
  0
VERTEX
  8
0
  5
25F
 10
-5.66751
 20
-0.406251
 30
0.000000
  70
    32
  0
SEQEND
  8
0
  5
260
  0
POLYLINE
  8
0
  5
261
  66
     1
 10
0.000000
 20
0.000000
 30
0.000000
  70
     8
  0
VERTEX
  8
0
  5
262
 10
8.01999
 20
2.47009
 30
0.000000
  70
    32
  0
VERTEX
  8
0
  5
263
 10
8.00982
 20
2.44484
 30
0.000000
  70
    32
  0
VERTEX
  8
0
  5
264
 10
7.99948
 20
2.41965
 30
0.000000
  70
    32
  0
VERTEX
  8
0
  5
265
 10
7.98898
 20
2.39451
 30
0.000000
  70
    32
  0
VERTEX
  8
0
  5
266
 10
7.97832
 20
2.36942
 30
0.000000
  70
    32
  0
VERTEX
  8
0
  5
267
 10
7.96749
 20
2.34438
 30
0.000000
  70
    32
  0
VERTEX
  8
0
  5
268
 10
7.95650
 20
2.31939
 30
0.000000
  70
    32
  0
VERTEX
  8
0
  5
269
 10
7.94535
 20
2.29446
 30
0.000000
  70
    32
  0
VERTEX
  8
0
  5
26A
 10
7.93404
 20
2.26957
 30
0.000000
  70
    32
  0
VERTEX
  8
0
  5
26B
 10
7.92256
 20
2.24474
 30
0.000000
  70
    32
  0
VERTEX
  8
0
  5
26C
 10
7.91093
 20
2.21995
 30
0.000000
  70
    32
  0
VERTEX
  8
0
  5
26D
 10
7.89914
 20
2.19522
 30
0.000000
  70
    32
  0
VERTEX
  8
0
  5
26E
 10
7.88718
 20
2.17053
 30
0.000000
  70
    32
  0
VERTEX
  8
0
  5
26F
 10
7.87507
 20
2.14590
 30
0.000000
  70
    32
  0
VERTEX
  8
0
  5
270
 10
7.86280
 20
2.12131
 30
0.000000
  70
    32
  0
VERTEX
  8
0
  5
271
 10
7.85037
 20
2.09677
 30
0.000000
  70
    32
  0
VERTEX
  8
0
  5
272
 10
7.83778
 20
2.07229
 30
0.000000
  70
    32
  0
VERTEX
  8
0
  5
273
 10
7.82504
 20
2.04785
 30
0.000000
  70
    32
  0
VERTEX
  8
0
  5
274
 10
7.81214
 20
2.02345
 30
0.000000
  70
    32
  0
VERTEX
  8
0
  5
275
 10
7.79909
 20
1.99911
 30
0.000000
  70
    32
  0
VERTEX
  8
0
  5
276
 10
7.78588
 20
1.97481
 30
0.000000
  70
    32
  0
VERTEX
  8
0
  5
277
 10
7.77251
 20
1.95056
 30
0.000000
  70
    32
  0
VERTEX
  8
0
  5
278
 10
7.75899
 20
1.92636
 30
0.000000
  70
    32
  0
VERTEX
  8
0
  5
279
 10
7.74532
 20
1.90220
 30
0.000000
  70
    32
  0
VERTEX
  8
0
  5
27A
 10
7.73149
 20
1.87809
 30
0.000000
  70
    32
  0
VERTEX
  8
0
  5
27B
 10
7.71751
 20
1.85403
 30
0.000000
  70
    32
  0
VERTEX
  8
0
  5
27C
 10
7.70338
 20
1.83001
 30
0.000000
  70
    32
  0
VERTEX
  8
0
  5
27D
 10
7.68909
 20
1.80604
 30
0.000000
  70
    32
  0
VERTEX
  8
0
  5
27E
 10
7.67466
 20
1.78211
 30
0.000000
  70
    32
  0
VERTEX
  8
0
  5
27F
 10
7.66007
 20
1.75823
 30
0.000000
  70
    32
  0
VERTEX
  8
0
  5
280
 10
7.64534
 20
1.73440
 30
0.000000
  70
    32
  0
VERTEX
  8
0
  5
281
 10
7.63045
 20
1.71061
 30
0.000000
  70
    32
  0
VERTEX
  8
0
  5
282
 10
7.61542
 20
1.68686
 30
0.000000
  70
    32
  0
VERTEX
  8
0
  5
283
 10
7.60023
 20
1.66315
 30
0.000000
  70
    32
  0
VERTEX
  8
0
  5
284
 10
7.58490
 20
1.63950
 30
0.000000
  70
    32
  0
VERTEX
  8
0
  5
285
 10
7.56942
 20
1.61588
 30
0.000000
  70
    32
  0
VERTEX
  8
0
  5
286
 10
7.55379
 20
1.59231
 30
0.000000
  70
    32
  0
VERTEX
  8
0
  5
287
 10
7.53802
 20
1.56878
 30
0.000000
  70
    32
  0
VERTEX
  8
0
  5
288
 10
7.52210
 20
1.54529
 30
0.000000
  70
    32
  0
VERTEX
  8
0
  5
289
 10
7.50604
 20
1.52185
 30
0.000000
  70
    32
  0
VERTEX
  8
0
  5
28A
 10
7.48983
 20
1.49844
 30
0.000000
  70
    32
  0
VERTEX
  8
0
  5
28B
 10
7.47347
 20
1.47508
 30
0.000000
  70
    32
  0
VERTEX
  8
0
  5
28C
 10
7.45697
 20
1.45177
 30
0.000000
  70
    32
  0
VERTEX
  8
0
  5
28D
 10
7.44033
 20
1.42849
 30
0.000000
  70
    32
  0
VERTEX
  8
0
  5
28E
 10
7.42355
 20
1.40525
 30
0.000000
  70
    32
  0
VERTEX
  8
0
  5
28F
 10
7.40662
 20
1.38206
 30
0.000000
  70
    32
  0
VERTEX
  8
0
  5
290
 10
7.38955
 20
1.35890
 30
0.000000
  70
    32
  0
VERTEX
  8
0
  5
291
 10
7.37234
 20
1.33579
 30
0.000000
  70
    32
  0
VERTEX
  8
0
  5
292
 10
7.35499
 20
1.31272
 30
0.000000
  70
    32
  0
VERTEX
  8
0
  5
293
 10
7.33749
 20
1.28968
 30
0.000000
  70
    32
  0
VERTEX
  8
0
  5
294
 10
7.31986
 20
1.26669
 30
0.000000
  70
    32
  0
VERTEX
  8
0
  5
295
 10
7.30209
 20
1.24373
 30
0.000000
  70
    32
  0
VERTEX
  8
0
  5
296
 10
7.28418
 20
1.22081
 30
0.000000
  70
    32
  0
VERTEX
  8
0
  5
297
 10
7.26613
 20
1.19794
 30
0.000000
  70
    32
  0
VERTEX
  8
0
  5
298
 10
7.24794
 20
1.17510
 30
0.000000
  70
    32
  0
VERTEX
  8
0
  5
299
 10
7.22962
 20
1.15230
 30
0.000000
  70
    32
  0
VERTEX
  8
0
  5
29A
 10
7.21116
 20
1.12953
 30
0.000000
  70
    32
  0
VERTEX
  8
0
  5
29B
 10
7.19256
 20
1.10681
 30
0.000000
  70
    32
  0
VERTEX
  8
0
  5
29C
 10
7.17382
 20
1.08412
 30
0.000000
  70
    32
  0
VERTEX
  8
0
  5
29D
 10
7.15496
 20
1.06147
 30
0.000000
  70
    32
  0
VERTEX
  8
0
  5
29E
 10
7.13595
 20
1.03886
 30
0.000000
  70
    32
  0
VERTEX
  8
0
  5
29F
 10
7.11681
 20
1.01628
 30
0.000000
  70
    32
  0
VERTEX
  8
0
  5
2A0
 10
7.09754
 20
0.993738
 30
0.000000
  70
    32
  0
VERTEX
  8
0
  5
2A1
 10
7.07814
 20
0.971233
 30
0.000000
  70
    32
  0
VERTEX
  8
0
  5
2A2
 10
7.05860
 20
0.948764
 30
0.000000
  70
    32
  0
VERTEX
  8
0
  5
2A3
 10
7.03893
 20
0.926330
 30
0.000000
  70
    32
  0
VERTEX
  8
0
  5
2A4
 10
7.01913
 20
0.903932
 30
0.000000
  70
    32
  0
VERTEX
  8
0
  5
2A5
 10
6.99919
 20
0.881569
 30
0.000000
  70
    32
  0
VERTEX
  8
0
  5
2A6
 10
6.97913
 20
0.859240
 30
0.000000
  70
    32
  0
VERTEX
  8
0
  5
2A7
 10
6.95894
 20
0.836946
 30
0.000000
  70
    32
  0
VERTEX
  8
0
  5
2A8
 10
6.93861
 20
0.814687
 30
0.000000
  70
    32
  0
VERTEX
  8
0
  5
2A9
 10
6.91816
 20
0.792461
 30
0.000000
  70
    32
  0
VERTEX
  8
0
  5
2AA
 10
6.89758
 20
0.770269
 30
0.000000
  70
    32
  0
VERTEX
  8
0
  5
2AB
 10
6.87687
 20
0.748110
 30
0.000000
  70
    32
  0
VERTEX
  8
0
  5
2AC
 10
6.85603
 20
0.725984
 30
0.000000
  70
    32
  0
VERTEX
  8
0
  5
2AD
 10
6.83507
 20
0.703891
 30
0.000000
  70
    32
  0
VERTEX
  8
0
  5
2AE
 10
6.81398
 20
0.681831
 30
0.000000
  70
    32
  0
VERTEX
  8
0
  5
2AF
 10
6.79276
 20
0.659804
 30
0.000000
  70
    32
  0
VERTEX
  8
0
  5
2B0
 10
6.77142
 20
0.637808
 30
0.000000
  70
    32
  0
VERTEX
  8
0
  5
2B1
 10
6.74995
 20
0.615844
 30
0.000000
  70
    32
  0
VERTEX
  8
0
  5
2B2
 10
6.72836
 20
0.593911
 30
0.000000
  70
    32
  0
VERTEX
  8
0
  5
2B3
 10
6.70664
 20
0.572010
 30
0.000000
  70
    32
  0
VERTEX
  8
0
  5
2B4
 10
6.68480
 20
0.550140
 30
0.000000
  70
    32
  0
VERTEX
  8
0
  5
2B5
 10
6.66284
 20
0.528301
 30
0.000000
  70
    32
  0
VERTEX
  8
0
  5
2B6
 10
6.64075
 20
0.506492
 30
0.000000
  70
    32
  0
VERTEX
  8
0
  5
2B7
 10
6.61854
 20
0.484713
 30
0.000000
  70
    32
  0
VERTEX
  8
0
  5
2B8
 10
6.59622
 20
0.462964
 30
0.000000
  70
    32
  0
VERTEX
  8
0
  5
2B9
 10
6.57377
 20
0.441245
 30
0.000000
  70
    32
  0
VERTEX
  8
0
  5
2BA
 10
6.55120
 20
0.419556
 30
0.000000
  70
    32
  0
VERTEX
  8
0
  5
2BB
 10
6.52851
 20
0.397895
 30
0.000000
  70
    32
  0
VERTEX
  8
0
  5
2BC
 10
6.50570
 20
0.376264
 30
0.000000
  70
    32
  0
VERTEX
  8
0
  5
2BD
 10
6.48277
 20
0.354660
 30
0.000000
  70
    32
  0
VERTEX
  8
0
  5
2BE
 10
6.45972
 20
0.333086
 30
0.000000
  70
    32
  0
VERTEX
  8
0
  5
2BF
 10
6.43656
 20
0.311539
 30
0.000000
  70
    32
  0
VERTEX
  8
0
  5
2C0
 10
6.41327
 20
0.290020
 30
0.000000
  70
    32
  0
VERTEX
  8
0
  5
2C1
 10
6.38988
 20
0.268529
 30
0.000000
  70
    32
  0
VERTEX
  8
0
  5
2C2
 10
6.36636
 20
0.247065
 30
0.000000
  70
    32
  0
VERTEX
  8
0
  5
2C3
 10
6.34273
 20
0.225628
 30
0.000000
  70
    32
  0
VERTEX
  8
0
  5
2C4
 10
6.31898
 20
0.204217
 30
0.000000
  70
    32
  0
VERTEX
  8
0
  5
2C5
 10
6.29512
 20
0.182834
 30
0.000000
  70
    32
  0
VERTEX
  8
0
  5
2C6
 10
6.27115
 20
0.161476
 30
0.000000
  70
    32
  0
VERTEX
  8
0
  5
2C7
 10
6.24706
 20
0.140144
 30
0.000000
  70
    32
  0
VERTEX
  8
0
  5
2C8
 10
6.22286
 20
0.118838
 30
0.000000
  70
    32
  0
VERTEX
  8
0
  5
2C9
 10
6.19854
 20
0.0975576
 30
0.000000
  70
    32
  0
VERTEX
  8
0
  5
2CA
 10
6.17411
 20
0.0763021
 30
0.000000
  70
    32
  0
VERTEX
  8
0
  5
2CB
 10
6.14957
 20
0.0550714
 30
0.000000
  70
    32
  0
VERTEX
  8
0
  5
2CC
 10
6.12492
 20
0.0338654
 30
0.000000
  70
    32
  0
VERTEX
  8
0
  5
2CD
 10
6.10016
 20
0.0126837
 30
0.000000
  70
    32
  0
VERTEX
  8
0
  5
2CE
 10
6.07529
 20
-0.00847393
 30
0.000000
  70
    32
  0
VERTEX
  8
0
  5
2CF
 10
6.05031
 20
-0.0296078
 30
0.000000
  70
    32
  0
VERTEX
  8
0
  5
2D0
 10
6.02522
 20
-0.0507181
 30
0.000000
  70
    32
  0
VERTEX
  8
0
  5
2D1
 10
6.00002
 20
-0.0718051
 30
0.000000
  70
    32
  0
VERTEX
  8
0
  5
2D2
 10
5.97471
 20
-0.0928691
 30
0.000000
  70
    32
  0
VERTEX
  8
0
  5
2D3
 10
5.94930
 20
-0.113910
 30
0.000000
  70
    32
  0
VERTEX
  8
0
  5
2D4
 10
5.92378
 20
-0.134929
 30
0.000000
  70
    32
  0
VERTEX
  8
0
  5
2D5
 10
5.89815
 20
-0.155926
 30
0.000000
  70
    32
  0
VERTEX
  8
0
  5
2D6
 10
5.87242
 20
-0.176901
 30
0.000000
  70
    32
  0
VERTEX
  8
0
  5
2D7
 10
5.84658
 20
-0.197854
 30
0.000000
  70
    32
  0
VERTEX
  8
0
  5
2D8
 10
5.82063
 20
-0.218785
 30
0.000000
  70
    32
  0
VERTEX
  8
0
  5
2D9
 10
5.79458
 20
-0.239696
 30
0.000000
  70
    32
  0
VERTEX
  8
0
  5
2DA
 10
5.76843
 20
-0.260585
 30
0.000000
  70
    32
  0
VERTEX
  8
0
  5
2DB
 10
5.74217
 20
-0.281454
 30
0.000000
  70
    32
  0
VERTEX
  8
0
  5
2DC
 10
5.71581
 20
-0.302303
 30
0.000000
  70
    32
  0
VERTEX
  8
0
  5
2DD
 10
5.68935
 20
-0.323132
 30
0.000000
  70
    32
  0
VERTEX
  8
0
  5
2DE
 10
5.66279
 20
-0.343941
 30
0.000000
  70
    32
  0
VERTEX
  8
0
  5
2DF
 10
5.63612
 20
-0.364730
 30
0.000000
  70
    32
  0
VERTEX
  8
0
  5
2E0
 10
5.60936
 20
-0.385500
 30
0.000000
  70
    32
  0
VERTEX
  8
0
  5
2E1
 10
5.58249
 20
-0.406251
 30
0.000000
  70
    32
  0
SEQEND
  8
0
  5
2E2
  0
LINE
  5
28
  8
0
 10
-4.8862617288353221
 20
-0.7516742894601834
 30
0.0
 11
-4.6940083290219539
 21
-3.3437490043489499
 31
0.0
  0
POLYLINE
  5
2B
  8
0
 66
     1
 10
0.0
 20
0.0
 30
0.0
  0
VERTEX
  5
2C
  8
0
 10
-7.7179192426604706
 20
3.3437490043489642
 30
0.0
  0
VERTEX
  5
2D
  8
0
 10
-7.9702518299155107
 20
3.110124619765628
 30
0.0
  0
VERTEX
  5
2E
  8
0
 10
-8.1050117288353221
 20
2.4764793162668179
 30
0.0
  0
SEQEND
  5
2F
  8
0
  0
ATTDEF
  5
30
  8
0
 62
     6
 10
0.0
 20
0.0
 30
0.0
 40
0.003
  1
K-19047
  3

  2
MODELNUMBER
 70
     2
  0
ATTDEF
  5
31
  8
0
 62
     6
 10
0.0
 20
-0.005
 30
0.0
 40
0.003
  1
ESCALE
  3

  2
TRADENAME
 70
     2
  0
ATTDEF
  5
32
  8
0
 62
     6
 10
0.0
 20
-0.01
 30
0.0
 40
0.003
  1
LAVATORY
  3

  2
PRODUCT
 70
     2
  0
ATTDEF
  5
33
  8
0
 62
     6
 10
0.0
 20
-0.015
 30
0.0
 40
0.003
  1
VITREOUS CHINA
  3

  2
MATERIAL
 70
     2
  0
LINE
  5
34
  8
0
 10
4.8012382711646771
 20
-0.7516742894601834
 30
0.0
 11
4.6092890697687352
 21
-3.3437490043489499
 31
0.0
  0
POLYLINE
  5
37
  8
0
 66
     1
 10
0.0
 20
0.0
 30
0.0
  0
VERTEX
  5
38
  8
0
 10
7.6418696383038727
 20
3.3507455679497582
 30
0.0
  0
VERTEX
  5
39
  8
0
 10
7.8977005073593167
 20
3.1259429374717911
 30
0.0
  0
VERTEX
  5
3A
  8
0
 10
8.0199882711646637
 20
2.4700911495008731
 30
0.0
  0
SEQEND
  5
3B
  8
0
  0
LINE
  5
AB
  8
0
  6
CONTINUOUS
 10
23.47858998862694
 20
3.0002532010569212
 30
0.0
 11
33.166089988626943
 21
3.0002532010569212
 31
0.0
  0
LINE
  5
AC
  8
0
  6
CONTINUOUS
 10
23.47858998862694
 20
3.0002532010569212
 30
0.0
 11
23.47858998862694
 21
11.17784957688249
 31
0.0
  0
LINE
  5
AD
  8
0
  6
CONTINUOUS
 10
33.166089988626943
 20
3.0002532010569212
 30
0.0
 11
33.166089988626943
 21
10.49638305739759
 31
0.0
  0
LINE
  5
AE
  8
0
  6
CONTINUOUS
 10
28.32233998862694
 20
3.0002532010569212
 30
0.0
 11
22.69733998862694
 21
3.0002532010569212
 31
0.0
  0
LINE
  5
AF
  8
0
  6
CONTINUOUS
 10
22.69733998862694
 20
3.0002532010569212
 30
0.0
 11
22.69733998862694
 21
15.432394959060471
 31
0.0
  0
LINE
  5
B0
  8
0
  6
CONTINUOUS
 10
28.32233998862694
 20
3.0002532010569212
 30
0.0
 11
33.947339988626943
 21
3.0002532010569212
 31
0.0
  0
LINE
  5
B1
  8
0
  6
CONTINUOUS
 10
33.947339988626943
 20
3.0002532010569212
 30
0.0
 11
33.947339988626943
 21
15.67212890260177
 31
0.0
  0
LINE
  5
C3
  8
0
  6
CONTINUOUS
 10
4.8012382711646771
 20
-0.7516742894601834
 30
0.0
 11
5.015319308106001
 21
-0.7516742894601834
 31
0.0
  0
LINE
  5
C5
  8
0
  6
CONTINUOUS
 10
-4.8862617288353221
 20
-0.7516742894601834
 30
0.0
 11
-5.0880227298708851
 21
-0.7516742894601836
 31
0.0
  0
LINE
  5
C6
  8
0
  6
CONTINUOUS
 10
-5.0880227298708851
 20
-0.7425483369373893
 30
0.0
 11
-5.0880227298708851
 21
-0.7516742894601836
 31
0.0
  0
LINE
  5
C7
  8
0
  6
CONTINUOUS
 10
-4.6940083290219539
 20
-3.3437490043489499
 30
0.0
 11
4.6092890697687352
 21
-3.3437490043489499
 31
0.0
  0
LINE
  5
E8
  8
0
  6
CONTINUOUS
 10
-4.8862617288353221
 20
-0.7516742894601834
 30
0.0
 11
-5.6675117288353221
 21
-0.7516742894601834
 31
0.0
  0
LINE
  5
EB
  8
0
  6
CONTINUOUS
 10
4.8012382711646771
 20
-0.7516742894601834
 30
0.0
 11
5.5824882711646779
 21
-0.7516742894601834
 31
0.0
  0
LINE
  5
FE
  8
0
  6
CONTINUOUS
 10
-5.6675117288353221
 20
-0.4062509956510354
 30
0.0
 11
-5.6675117288353221
 21
-0.7516742894601834
 31
0.0
  0
LINE
  5
FF
  8
0
  6
CONTINUOUS
 10
5.5824882711646771
 20
-0.4062509956510354
 30
0.0
 11
5.5824882711646779
 21
-0.7516742894601834
 31
0.0
  0
LINE
  5
100
  8
0
  6
CONTINUOUS
 10
-7.7179192426604706
 20
3.3437490043489642
 30
0.0
 11
-6.8516130548993743
 21
3.3437490043489642
 31
0.0
  0
LINE
  5
101
  8
0
  6
CONTINUOUS
 10
6.8605869082134197
 20
3.3507455679497582
 30
0.0
 11
7.6418696383038727
 21
3.3507455679497582
 31
0.0
  0
ENDSEC
  0
EOF
