  0
SECTION
  2
HEADER
  9
$ACADVER
  1
AC1015
  9
$ACADMAINTVER
 70
     6
  9
$DWGCODEPAGE
  3
ANSI_932
  9
$INSBASE
 10
0.0
 20
0.0
 30
0.0
  9
$EXTMIN
 10
14.463889
 20
12.083328
 30
1.000000E+20
  9
$EXTMAX
 10
200.648218
 20
267.152169
 30
-1.000000E+20
  9
$LIMMIN
 10
14.463889
 20
12.083328
  9
$LIMMAX
 10
200.648218
 20
267.152169
  9
$ORTHOMODE
 70
     0
  9
$REGENMODE
 70
     1
  9
$FILLMODE
 70
     1
  9
$QTEXTMODE
 70
     0
  9
$MIRRTEXT
 70
     1
  9
$LTSCALE
 40
1.0
  9
$ATTMODE
 70
     1
  9
$TEXTSIZE
 40
0.2
  9
$TRACEWID
 40
0.05
  9
$TEXTSTYLE
  7
Standard
  9
$CLAYER
  8
0
  9
$CELTYPE
  6
Continuous
  9
$CECOLOR
 62
   256
  9
$CELTSCALE
 40
1.0
  9
$DISPSILH
 70
     0
  9
$DIMSCALE
 40
1.0
  9
$DIMASZ
 40
0.18
  9
$DIMEXO
 40
0.0625
  9
$DIMDLI
 40
0.38
  9
$DIMRND
 40
0.0
  9
$DIMDLE
 40
0.0
  9
$DIMEXE
 40
0.18
  9
$DIMTP
 40
0.0
  9
$DIMTM
 40
0.0
  9
$DIMTXT
 40
0.18
  9
$DIMCEN
 40
0.09
  9
$DIMTSZ
 40
0.0
  9
$DIMTOL
 70
     0
  9
$DIMLIM
 70
     0
  9
$DIMTIH
 70
     1
  9
$DIMTOH
 70
     1
  9
$DIMSE1
 70
     0
  9
$DIMSE2
 70
     0
  9
$DIMTAD
 70
     0
  9
$DIMZIN
 70
     0
  9
$DIMBLK
  1

  9
$DIMASO
 70
     1
  9
$DIMSHO
 70
     1
  9
$DIMPOST
  1

  9
$DIMAPOST
  1

  9
$DIMALT
 70
     0
  9
$DIMALTD
 70
     2
  9
$DIMALTF
 40
25.4
  9
$DIMLFAC
 40
1.0
  9
$DIMTOFL
 70
     0
  9
$DIMTVP
 40
0.0
  9
$DIMTIX
 70
     0
  9
$DIMSOXD
 70
     0
  9
$DIMSAH
 70
     0
  9
$DIMBLK1
  1

  9
$DIMBLK2
  1

  9
$DIMSTYLE
  2
Standard
  9
$DIMCLRD
 70
     0
  9
$DIMCLRE
 70
     0
  9
$DIMCLRT
 70
     0
  9
$DIMTFAC
 40
1.0
  9
$DIMGAP
 40
0.09
  9
$DIMJUST
 70
     0
  9
$DIMSD1
 70
     0
  9
$DIMSD2
 70
     0
  9
$DIMTOLJ
 70
     1
  9
$DIMTZIN
 70
     0
  9
$DIMALTZ
 70
     0
  9
$DIMALTTZ
 70
     0
  9
$DIMUPT
 70
     0
  9
$DIMDEC
 70
     4
  9
$DIMTDEC
 70
     4
  9
$DIMALTU
 70
     2
  9
$DIMALTTD
 70
     2
  9
$DIMTXSTY
  7
Standard
  9
$DIMAUNIT
 70
     0
  9
$DIMADEC
 70
     0
  9
$DIMALTRND
 40
0.0
  9
$DIMAZIN
 70
     0
  9
$DIMDSEP
 70
     0
  9
$DIMATFIT
 70
     3
  9
$DIMFRAC
 70
     0
  9
$DIMLDRBLK
  1

  9
$DIMLUNIT
 70
     2
  9
$DIMLWD
 70
     0
  9
$DIMLWE
 70
     0
  9
$DIMTMOVE
 70
     0
  9
$LUNITS
 70
     2
  9
$LUPREC
 70
     4
  9
$SKETCHINC
 40
0.1
  9
$FILLETRAD
 40
0.0
  9
$AUNITS
 70
     0
  9
$AUPREC
 70
     0
  9
$MENU
  1
acad
  9
$ELEVATION
 40
0.0
  9
$PELEVATION
 40
0.0
  9
$THICKNESS
 40
0.0
  9
$LIMCHECK
 70
     0
  9
$CHAMFERA
 40
0.0
  9
$CHAMFERB
 40
0.0
  9
$CHAMFERC
 40
0.0
  9
$CHAMFERD
 40
0.0
  9
$SKPOLY
 70
     0
  9
$TDCREATE
 40
0.000000000
  9
$TDUCREATE
 40
0.000000000
  9
$TDUPDATE
 40
0.000000000
  9
$TDUUPDATE
 40
0.000000000
  9
$TDINDWG
 40
0.0000000000
  9
$TDUSRTIMER
 40
0.0000000000
  9
$USRTIMER
 70
     1
  9
$ANGBASE
 50
0.0
  9
$ANGDIR
 70
     0
  9
$PDMODE
 70
     0
  9
$PDSIZE
 40
0.0
  9
$PLINEWID
 40
0.0
  9
$SPLFRAME
 70
     0
  9
$SPLINETYPE
 70
     6
  9
$SPLINESEGS
 70
     8
  9
$HANDSEED
  5
10C
  9
$SURFTAB1
 70
     6
  9
$SURFTAB2
 70
     6
  9
$SURFTYPE
 70
     6
  9
$SURFU
 70
     6
  9
$SURFV
 70
     6
  9
$UCSBASE
  2

  9
$UCSNAME
  2

  9
$UCSORG
 10
0.0
 20
0.0
 30
0.0
  9
$UCSXDIR
 10
1.0
 20
0.0
 30
0.0
  9
$UCSYDIR
 10
0.0
 20
1.0
 30
0.0
  9
$UCSORTHOREF
  2

  9
$UCSORTHOVIEW
 70
     0
  9
$UCSORGTOP
 10
0.0
 20
0.0
 30
0.0
  9
$UCSORGBOTTOM
 10
0.0
 20
0.0
 30
0.0
  9
$UCSORGLEFT
 10
0.0
 20
0.0
 30
0.0
  9
$UCSORGRIGHT
 10
0.0
 20
0.0
 30
0.0
  9
$UCSORGFRONT
 10
0.0
 20
0.0
 30
0.0
  9
$UCSORGBACK
 10
0.0
 20
0.0
 30
0.0
  9
$PUCSBASE
  2

  9
$PUCSNAME
  2

  9
$PUCSORG
 10
0.0
 20
0.0
 30
0.0
  9
$PUCSXDIR
 10
1.0
 20
0.0
 30
0.0
  9
$PUCSYDIR
 10
0.0
 20
1.0
 30
0.0
  9
$PUCSORTHOREF
  2

  9
$PUCSORTHOVIEW
 70
     0
  9
$PUCSORGTOP
 10
0.0
 20
0.0
 30
0.0
  9
$PUCSORGBOTTOM
 10
0.0
 20
0.0
 30
0.0
  9
$PUCSORGLEFT
 10
0.0
 20
0.0
 30
0.0
  9
$PUCSORGRIGHT
 10
0.0
 20
0.0
 30
0.0
  9
$PUCSORGFRONT
 10
0.0
 20
0.0
 30
0.0
  9
$PUCSORGBACK
 10
0.0
 20
0.0
 30
0.0
  9
$USERI1
 70
     0
  9
$USERI2
 70
     0
  9
$USERI3
 70
     0
  9
$USERI4
 70
     0
  9
$USERI5
 70
     0
  9
$USERR1
 40
0.0
  9
$USERR2
 40
0.0
  9
$USERR3
 40
0.0
  9
$USERR4
 40
0.0
  9
$USERR5
 40
0.0
  9
$WORLDVIEW
 70
     1
  9
$SHADEDGE
 70
     3
  9
$SHADEDIF
 70
    70
  9
$TILEMODE
 70
     1
  9
$MAXACTVP
 70
    16
  9
$PINSBASE
 10
0.0
 20
0.0
 30
0.0
  9
$PLIMCHECK
 70
     0
  9
$PEXTMIN
 10
1.000000E+20
 20
1.000000E+20
 30
1.000000E+20
  9
$PEXTMAX
 10
-1.000000E+20
 20
-1.000000E+20
 30
-1.000000E+20
  9
$PLIMMIN
 10
0.0
 20
0.0
  9
$PLIMMAX
 10
12.0
 20
9.0
  9
$UNITMODE
 70
     0
  9
$VISRETAIN
 70
     0
  9
$PLINEGEN
 70
     1
  9
$PSLTSCALE
 70
     0
  9
$TREEDEPTH
 70
  3020
  9
$CMLSTYLE
  2
Standard
  9
$CMLJUST
 70
     0
  9
$CMLSCALE
 40
1.0
  9
$PROXYGRAPHICS
 70
     0
  9
$MEASUREMENT
 70
     0
  9
$CELWEIGHT
370
     0
  9
$ENDCAPS
280
     0
  9
$JOINSTYLE
280
     0
  9
$LWDISPLAY
290
     0
  9
$INSUNITS
 70
     0
  9
$HYPERLINKBASE
  1

  9
$XEDIT
290
     1
  9
$CEPSNTYPE
380
     0
  9
$PSTYLEMODE
290
     1
  9
$FINGERPRINTGUID
  2

  9
$VERSIONGUID
  2

  9
$EXTNAMES
290
     1
  9
$PSVPSCALE
 40
0.0
  0
ENDSEC
  0
SECTION
  2
CLASSES
  0
CLASS
  1
LWPOLYLINE
  2
AcDbPolyline
  3
"AutoCAD"
 90
        0
280
     0
281
     1
  0
CLASS
  1
IMAGE
  2
AcDbRasterImage
  3
ISM
 90
      127
280
     0
281
     1
  0
CLASS
  1
OLE2FRAME
  2
AcDbOle2Frame
  3
""
 90
        0
280
     0
281
     1
  0
CLASS
  1
HATCH
  2
AcDbHatch
  3
"ACAD_SEDONA"
 90
        0
280
     0
281
     1
  0
CLASS
  1
DICTIONARYVAR
  2
AcDbDictionaryVar
  3
"AutoCAD"
 90
        0
280
     0
281
     0
  0
CLASS
  1
RASTERVARIABLES
  2
AcDbRasterVariables
  3
ISM
 90
        0
280
     0
281
     0
  0
CLASS
  1
IMAGEDEF
  2
AcDbRasterImageDef
  3
ISM
 90
        0
280
     0
281
     0
  0
CLASS
  1
IMAGEDEF_REACTOR
  2
AcDbRasterImageDefReactor
  3
ISM
 90
        1
280
     0
281
     0
  0
CLASS
  1
IDBUFFER
  2
AcDbIdBuffer
  3
"Acad"
 90
        0
280
     0
281
     0
  0
CLASS
  1
SPATIAL_FILTER
  2
AcDbSpatialFilter
  3
"Acad"
 90
        0
280
     0
281
     0
  0
CLASS
  1
XRECORD
  2
AcDbXrecord
  3
"<Built In>"
 90
        0
280
     0
281
     0
  0
CLASS
  1
SORTENTSTABLE
  2
AcDbSortentsTable
  3
"AutoCAD"
 90
        0
280
     0
281
     0
  0
CLASS
  1
LAYER_INDEX
  2
AcDbLayerIndex
  3
"Acad"
 90
        0
280
     0
281
     0
  0
CLASS
  1
SPATIAL_INDEX
  2
AcDbSpatialIndex
  3
"Acad"
 90
        0
280
     0
281
     0
  0
CLASS
  1
OBJECT_PTR
  2
CAseDLPNTableRecord
  3
"ASE-LPNTableRecord"
 90
        1
280
     0
281
     0
  0
CLASS
  1
LAYOUT
  2
AcDbLayout
  3
"AutoCAD 2000"
 90
        1
280
     0
281
     0
  0
CLASS
  1
PLOTSETTINGS
  2
AcDbPlotSettings
  3
"AutoCAD 2000"
 90
        1
280
     0
281
     0
  0
CLASS
  1
ACDBDICTIONARYWDFLT
  2
AcDbDictionaryWithDefault
  3
"AutoCAD 2000"
 90
        1
280
     0
281
     0
  0
CLASS
  1
ACDBPLACEHOLDER
  2
AcDbPlaceHolder
  3
"AutoCAD 2000"
 90
        1
280
     0
281
     0
  0
CLASS
  1
VBA_PROJECT
  2
AcDbVbaProject
  3
"acadvba"
 90
        1
280
     0
281
     0
  0
CLASS
  1
WIPEOUT
  2
AcDbWipeout
  3
WipeOut|AutoCAD Express Tool|expresstools@autodesk.com
 90
      127
280
     0
281
     1
  0
CLASS
  1
WIPEOUTVARIABLES
  2
AcDbWipeoutVariables
  3
WipeOut|AutoCAD Express Tool|expresstools@autodesk.com
 90
        0
280
     0
281
     0
  0
CLASS
  1
RTEXT
  2
RText
  3
RText|AutoCAD Express Tool|expresstools@autodesk.com
 90
        0
280
     0
281
     1
  0
CLASS
  1
ARCALIGNEDTEXT
  2
AcDbArcAlignedText
  3
ATEXT|AutoCAD Express Tool|expresstools@autodesk.com
 90
        0
280
     0
281
     1
  0
ENDSEC
  0
SECTION
  2
TABLES
  0
TABLE
  2
VPORT
  5
7
100
AcDbSymbolTable
 70
     1
  0
VPORT
  5
15
100
AcDbSymbolTableRecord
100
AcDbViewportTableRecord
  2
*ACTIVE
 70
     0
 10
0.0
 20
0.0
 11
1.0
 21
1.0
 12
6.591288
 22
4.579184
 13
0.0
 23
0.0
 14
1.0
 24
1.0
 15
0.0
 25
0.0
 16
0.0
 26
0.0
 36
1.0
 17
0.0
 27
0.0
 37
0.0
 40
9.158369
 41
0.688564
 42
50.0
 43
0.0
 44
0.0
 50
0.0
 51
0.0
 71
     0
 72
   100
 73
     1
 74
     1
 75
     0
 76
     0
 77
     0
 78
     0
281
     0
 65
     0
110
0.0
120
0.0
130
0.0
111
1.0
121
0.0
131
0.0
112
0.0
122
1.0
132
0.0
345
0
346
0
 79
     0
146
0.0
  0
ENDTAB
  0
TABLE
  2
LTYPE
  5
4
100
AcDbSymbolTable
 70
     3
  0
LTYPE
  5
11
100
AcDbSymbolTableRecord
100
AcDbLinetypeTableRecord
  2
ByBlock
 70
    64
  3

 72
    65
 73
     0
 40
0.0
  0
LTYPE
  5
12
100
AcDbSymbolTableRecord
100
AcDbLinetypeTableRecord
  2
ByLayer
 70
    64
  3

 72
    65
 73
     0
 40
0.0
  0
LTYPE
  5
13
100
AcDbSymbolTableRecord
100
AcDbLinetypeTableRecord
  2
Continuous
 70
    64
  3
Solid line
 72
    65
 73
     0
 40
0.0
  0
ENDTAB
  0
TABLE
  2
LAYER
  5
2
100
AcDbSymbolTable
 70
     2
  0
LAYER
  5
14
100
AcDbSymbolTableRecord
100
AcDbLayerTableRecord
  2
0
 70
     0
 62
     7
  6
Continuous
290
     1
370
    -3
390
1D
  0
LAYER
  5
28
100
AcDbSymbolTableRecord
100
AcDbLayerTableRecord
  2
LAYER_1
 70
     0
 62
   160
  6
Continuous
290
     1
370
    -3
390
1F
  0
ENDTAB
  0
TABLE
  2
STYLE
  5
3
100
AcDbSymbolTable
 70
     5
  0
STYLE
  5
17
100
AcDbSymbolTableRecord
100
AcDbTextStyleTableRecord
  2
Standard
 70
     0
 40
0.0
 41
1.0
 50
0.0
 71
     0
 42
0.0
  3
txt
  4

  0
STYLE
  5
24
100
AcDbSymbolTableRecord
100
AcDbTextStyleTableRecord
  2
STD
 70
     0
 40
0.0
 41
1.0
 50
0.0
 71
     0
 42
0.0
  3
txt
  4

  0
STYLE
  5
25
100
AcDbSymbolTableRecord
100
AcDbTextStyleTableRecord
  2
TATESTD
 70
     4
 40
0.0
 41
1.0
 50
0.0
 71
     0
 42
0.0
  3
txt
  4

  0
STYLE
  5
26
100
AcDbSymbolTableRecord
100
AcDbTextStyleTableRecord
  2
KANJISTD
 70
     0
 40
0.0
 41
1.0
 50
0.0
 71
     0
 42
0.0
  3
txt
  4
extfont
  0
STYLE
  5
27
100
AcDbSymbolTableRecord
100
AcDbTextStyleTableRecord
  2
KANJITATE
 70
     4
 40
0.0
 41
1.0
 50
0.0
 71
     0
 42
0.0
  3
txt
  4
extfont
  0
ENDTAB
  0
TABLE
  2
VIEW
  5
5
100
AcDbSymbolTable
 70
     0
  0
ENDTAB
  0
TABLE
  2
UCS
  5
6
100
AcDbSymbolTable
 70
     0
  0
ENDTAB
  0
TABLE
  2
APPID
  5
8
100
AcDbSymbolTable
 70
     1
  0
APPID
  5
16
100
AcDbSymbolTableRecord
100
AcDbRegAppTableRecord
  2
ACAD
 70
     0
  0
ENDTAB
  0
TABLE
  2
DIMSTYLE
  5
9
100
AcDbSymbolTable
 70
     1
100
AcDbDimStyleTable
 71
     0
  0
DIMSTYLE
105
18
100
AcDbSymbolTableRecord
100
AcDbDimStyleTableRecord
  2
Standard
 70
     0
  3

  4

 40
1.0
 41
0.18
 42
0.0625
 43
0.38
 44
0.18
 45
0.0
 46
0.0
 47
0.0
 48
0.0
 71
     0
 72
     0
 73
     1
 74
     1
 75
     0
 76
     0
 77
     0
 78
     0
 79
     0
140
0.18
141
0.09
142
0.0
143
25.4
144
1.0
145
0.0
146
1.0
147
0.09
148
0.0
170
     0
171
     2
172
     0
173
     0
174
     0
175
     0
176
     0
177
     0
178
     0
179
     0
271
     4
272
     4
273
     2
274
     2
275
     0
276
     0
277
     2
278
    46
279
     0
280
     0
281
     0
282
     0
283
     1
284
     0
285
     0
286
     0
288
     0
340
17
341
0
342
0
343
0
344
0
371
    -2
372
    -2
  0
ENDTAB
  0
TABLE
  2
BLOCK_RECORD
  5
1
100
AcDbSymbolTable
 70
     1
  0
BLOCK_RECORD
  5
A
100
AcDbSymbolTableRecord
100
AcDbBlockTableRecord
  2
*MODEL_SPACE
340
20
  0
BLOCK_RECORD
  5
B
100
AcDbSymbolTableRecord
100
AcDbBlockTableRecord
  2
*PAPER_SPACE
340
21
  0
BLOCK_RECORD
  5
FA
100
AcDbSymbolTableRecord
100
AcDbBlockTableRecord
  2
AI9-BLK1
340
0
  0
ENDTAB
  0
ENDSEC
  0
SECTION
  2
BLOCKS
  0
BLOCK
  5
D
100
AcDbEntity
  8
0
100
AcDbBlockBegin
  2
*MODEL_SPACE
 70
     0
 10
0.0
 20
0.0
 30
0.0
  3
*MODEL_SPACE
  1

  0
ENDBLK
  5
E
100
AcDbEntity
  8
0
100
AcDbBlockEnd
  0
BLOCK
  5
F
100
AcDbEntity
 67
     1
  8
0
100
AcDbBlockBegin
  2
*PAPER_SPACE
 70
     0
 10
0.0
 20
0.0
 30
0.0
  3
*PAPER_SPACE
  1

  0
ENDBLK
  5
10
100
AcDbEntity
 67
     1
  8
0
100
AcDbBlockEnd
  0
BLOCK
  5
FC
100
AcDbEntity
  8
LAYER_1
 62
     7
100
AcDbBlockBegin
  2
AI9-BLK1
 70
     0
 10
0.0
 20
0.0
 30
0.0
  3
AI9-BLK1
  1

  0
IMAGE
  5
FD
100
AcDbEntity
  8
LAYER_1
 62
     7
 92
        0
100
AcDbRasterImage
 90
        0
 10
-36.796117
 20
-4.411158
 30
0.0
 11
0.169567
 21
0.0
 31
0.0
 12
0.0
 22
0.172985
 32
0.0
 13
434.0
 23
51.0
340
FF
 70
     7
280
     0
281
    50
282
    50
283
     0
360
FE
 71
     1
 91
        2
 14
-0.5
 24
-0.5
 14
433.5
 24
50.5
  0
ENDBLK
  5
100
100
AcDbEntity
  8
LAYER_1
100
AcDbBlockEnd
  0
ENDSEC
  0
SECTION
  2
ENTITIES
  0
HATCH
  5
10B
100
AcDbEntity
  8
LAYER_1
 62
   250
100
AcDbHatch
 10
0.0
 20
0.0
 30
0.0
210
0.0
220
0.0
230
1.0
  2
SOLID
 70
     1
 71
     0
 91
        1
 92
        3
 72
     0
 73
     1
 93
        4
 10
14.648373752170137
 20
248.28320855034721
 10
200.64821777343749
 20
248.28320855034721
 10
200.64821777343749
 20
255.7831814236111
 10
14.648373752170137
 20
255.7831814236111
 97
        0
 75
     0
 76
     1
 98
        1
 10
0.0
 20
0.0
  0
LINE
  5
10A
100
AcDbEntity
  8
LAYER_1
 62
   250
100
AcDbLine
 10
14.648374
 20
17.09043
 30
0.0
 11
200.648218
 21
17.09043
 31
0.0
  0
LINE
  5
109
100
AcDbEntity
  8
LAYER_1
 62
   250
100
AcDbLine
 10
14.648374
 20
221.701369
 30
0.0
 11
200.648218
 21
221.701369
 31
0.0
  0
MTEXT
  5
108
100
AcDbEntity
  8
LAYER_1
 62
   250
100
AcDbMText
 10
167.37583
 20
15.940785
 30
0.0
 40
2.887318
 41
0.0
 71
     1
 72
     2
  1
\fNBIAAA+Helvetica|b0|i0;www
  7
STD
210
0.0
220
0.0
230
1.0
 11
1.000001
 21
0.0
 31
0.0
 73
     1
 44
1.0
  0
MTEXT
  5
107
100
AcDbEntity
  8
LAYER_1
 62
   250
100
AcDbMText
 10
175.56999
 20
15.940785
 30
0.0
 40
2.887318
 41
0.0
 71
     1
 72
     2
  1
\fNBIAAA+Helvetica|b0|i0;.kohle
  7
STD
210
0.0
220
0.0
230
1.0
 11
1.000001
 21
0.0
 31
0.0
 73
     1
 44
1.0
  0
MTEXT
  5
106
100
AcDbEntity
  8
LAYER_1
 62
   250
100
AcDbMText
 10
185.920779
 20
15.940785
 30
0.0
 40
2.887318
 41
0.0
 71
     1
 72
     2
  1
\fNBIAAA+Helvetica|b0|i0;r.
  7
STD
210
0.0
220
0.0
230
1.0
 11
1.000001
 21
0.0
 31
0.0
 73
     1
 44
1.0
  0
MTEXT
  5
105
100
AcDbEntity
  8
LAYER_1
 62
   250
100
AcDbMText
 10
188.081887
 20
15.940785
 30
0.0
 40
2.887318
 41
0.0
 71
     1
 72
     2
  1
\fNBIAAA+Helvetica|b0|i0;com.cn
  7
STD
210
0.0
220
0.0
230
1.0
 11
1.000001
 21
0.0
 31
0.0
 73
     1
 44
1.0
  0
MTEXT
  5
104
100
AcDbEntity
  8
LAYER_1
 62
   250
100
AcDbMText
 10
14.463889
 20
228.128424
 30
0.0
 40
3.674769
 41
0.0
 71
     1
 72
     2
  1
\fQDGBAA+HYZhongHeiJ GBpc-EUC-H|b0|i0|c134;ｵ睚�ｼﾍｻﾘ･ﾀ
  7
KANJISTD
210
0.0
220
0.0
230
1.0
 11
1.000001
 21
0.0
 31
0.0
 73
     1
 44
1.0
  0
LINE
  5
103
100
AcDbEntity
  8
LAYER_1
 62
   250
100
AcDbLine
 10
14.648374
 20
104.458051
 30
0.0
 11
200.648218
 21
104.458051
 31
0.0
  0
MTEXT
  5
102
100
AcDbEntity
  8
LAYER_1
 62
   250
100
AcDbMText
 10
14.648374
 20
110.884762
 30
0.0
 40
3.674769
 41
0.0
 71
     1
 72
     2
  1
\fQDGBAA+HYZhongHeiJ GBpc-EUC-H|b0|i0|c134;ｵ睚�ｶﾆｷﾎﾐ｣Z
  7
KANJISTD
210
0.0
220
0.0
230
1.0
 11
1.000001
 21
0.0
 31
0.0
 73
     1
 44
1.0
  0
MTEXT
  5
101
100
AcDbEntity
  8
LAYER_1
 62
   250
100
AcDbMText
 10
41.807267
 20
109.834828
 30
0.0
 40
2.624835
 41
0.0
 71
     1
 72
     2
  1
\fQDGBAA+HYZhongHeiJ GBpc-EUC-H|b0|i0|c134;Hｷ�ﾑ｢ZｽｨﾆｾI
  7
KANJISTD
210
0.0
220
0.0
230
1.0
 11
1.000001
 21
0.0
 31
0.0
 73
     1
 44
1.0
  0
INSERT
  5
FB
100
AcDbEntity
  8
LAYER_1
 62
     7
100
AcDbBlockReference
  2
AI9-BLK1
 10
51.381963
 20
262.741069
 30
0.0
  0
MTEXT
  5
F9
100
AcDbEntity
  8
LAYER_1
 62
   250
100
AcDbMText
 10
156.418704
 20
240.560584
 30
0.0
 40
6.299603
 41
0.0
 71
     1
 72
     2
  1
\fNBIAAA+Helvetica|b0|i0;K-18744T
  7
STD
210
0.0
220
0.0
230
1.0
 11
1.000001
 21
0.0
 31
0.0
 73
     1
 44
1.0
  0
MTEXT
  5
F8
100
AcDbEntity
  8
LAYER_1
 62
   250
100
AcDbMText
 10
168.624333
 20
247.030974
 30
0.0
 40
3.674769
 41
0.0
 71
     1
 72
     2
  1
\fNBIAAA+Helvetica|b0|i0;SAPPHIR
  7
STD
210
0.0
220
0.0
230
1.0
 11
1.000001
 21
0.0
 31
0.0
 73
     1
 44
1.0
  0
MTEXT
  5
F7
100
AcDbEntity
  8
LAYER_1
 62
   250
100
AcDbMText
 10
190.306041
 20
247.030974
 30
0.0
 40
3.674769
 41
0.0
 71
     1
 72
     2
  1
\fNBIAAA+Helvetica|b0|i0;E
  7
STD
210
0.0
220
0.0
230
1.0
 11
1.000001
 21
0.0
 31
0.0
 73
     1
 44
1.0
  0
MTEXT
  5
F6
100
AcDbEntity
  8
LAYER_1
 62
     7
100
AcDbMText
 10
150.914819
 20
254.351457
 30
0.0
 40
3.674769
 41
0.0
 71
     1
 72
     2
  1
\fQDGBAA+HYZhongHeiJ GBpc-EUC-H|b0|i0|c134;@ﾎﾞｺｭﾓﾂｲﾃ�
  7
KANJISTD
210
0.0
220
0.0
230
1.0
 11
1.000001
 21
0.0
 31
0.0
 73
     1
 44
1.0
  0
MTEXT
  5
F5
100
AcDbEntity
  8
LAYER_1
 62
     7
100
AcDbMText
 10
178.078708
 20
254.351457
 30
0.0
 40
3.674769
 41
0.0
 71
     1
 72
     2
  1
\fDWVAAA+HYZhongHeiJ GBK-EUC-H|b0|i0|c134;ﾖｴﾖ�
  7
KANJISTD
210
0.0
220
0.0
230
1.0
 11
1.000001
 21
0.0
 31
0.0
 73
     1
 44
1.0
  0
MTEXT
  5
F4
100
AcDbEntity
  8
LAYER_1
 62
     7
100
AcDbMText
 10
192.895375
 20
254.351457
 30
0.0
 40
3.674769
 41
0.0
 71
     1
 72
     2
  1
\fQDGBAA+HYZhongHeiJ GBpc-EUC-H|b0|i0|c134;ｻｾ
  7
KANJISTD
210
0.0
220
0.0
230
1.0
 11
1.000001
 21
0.0
 31
0.0
 73
     1
 44
1.0
  0
HATCH
  5
F3
100
AcDbEntity
  8
LAYER_1
 62
   250
100
AcDbHatch
 10
0.0
 20
0.0
 30
0.0
210
0.0
220
0.0
230
1.0
  2
SOLID
 70
     1
 71
     0
 91
        1
 92
        3
 72
     0
 73
     1
 93
        4
 10
14.955159505208332
 20
212.23390163845485
 10
166.30578342013888
 20
212.23390163845485
 10
166.30578342013888
 20
218.75787896050346
 10
14.955159505208332
 20
218.75787896050346
 97
        0
 75
     0
 76
     1
 98
        1
 10
0.0
 20
0.0
  0
MTEXT
  5
F2
100
AcDbEntity
  8
LAYER_1
 62
     7
100
AcDbMText
 10
84.362809
 20
216.920439
 30
0.0
 40
3.170695
 41
0.0
 71
     1
 72
     2
  1
\fUBRAAA+HelveticaNeue Roman|b0|i0;K-18744T
  7
STD
210
0.0
220
0.0
230
1.0
 11
1.000001
 21
0.0
 31
0.0
 73
     1
 44
1.0
  0
LINE
  5
F1
100
AcDbEntity
  8
LAYER_1
 62
   250
100
AcDbLine
 10
14.95516
 20
141.12093
 30
0.0
 11
166.301994
 21
141.12093
 31
0.0
  0
LINE
  5
F0
100
AcDbEntity
  8
LAYER_1
 62
   250
100
AcDbLine
 10
45.899868
 20
218.684498
 30
0.0
 11
45.899868
 21
133.796484
 31
0.0
  0
LINE
  5
EF
100
AcDbEntity
  8
LAYER_1
 62
   250
100
AcDbLine
 10
141.042209
 20
218.738759
 30
0.0
 11
141.042209
 21
133.796484
 31
0.0
  0
LINE
  5
EE
100
AcDbEntity
  8
LAYER_1
 62
   250
100
AcDbLine
 10
15.068159
 20
205.574877
 30
0.0
 11
166.254796
 21
205.574877
 31
0.0
  0
LINE
  5
ED
100
AcDbEntity
  8
LAYER_1
 62
   250
100
AcDbLine
 10
15.068159
 20
189.490932
 30
0.0
 11
166.254796
 21
189.490932
 31
0.0
  0
LINE
  5
EC
100
AcDbEntity
  8
LAYER_1
 62
   250
100
AcDbLine
 10
15.068159
 20
182.194392
 30
0.0
 11
166.254796
 21
182.194392
 31
0.0
  0
LINE
  5
EB
100
AcDbEntity
  8
LAYER_1
 62
   250
100
AcDbLine
 10
15.068159
 20
175.496954
 30
0.0
 11
166.254796
 21
175.496954
 31
0.0
  0
LINE
  5
EA
100
AcDbEntity
  8
LAYER_1
 62
   250
100
AcDbLine
 10
15.068159
 20
197.120612
 30
0.0
 11
166.254796
 21
197.120612
 31
0.0
  0
MTEXT
  5
E9
100
AcDbEntity
  8
LAYER_1
 62
     7
100
AcDbMText
 10
16.338021
 20
217.236526
 30
0.0
 40
3.170695
 41
0.0
 71
     1
 72
     2
  1
\fQDGBAA+HYZhongHeiJ GBpc-EUC-H|b0|i0|c134;ﾓｴｽｬ
  7
KANJISTD
210
0.0
220
0.0
230
1.0
 11
1.000001
 21
0.0
 31
0.0
 73
     1
 44
1.0
  0
MTEXT
  5
E8
100
AcDbEntity
  8
LAYER_1
 62
     7
100
AcDbMText
 10
144.762568
 20
217.533321
 30
0.0
 40
3.170695
 41
0.0
 71
     1
 72
     2
  1
\fQDGBAA+HYZhongHeiJ GBpc-EUC-H|b0|i0|c134;ｵｵﾂ｣ﾔ�
  7
KANJISTD
210
0.0
220
0.0
230
1.0
 11
1.000001
 21
0.0
 31
0.0
 73
     1
 44
1.0
  0
MTEXT
  5
E7
100
AcDbEntity
  8
LAYER_1
 62
     2
100
AcDbMText
 10
16.338021
 20
210.71341
 30
0.0
 40
3.170695
 41
0.0
 71
     1
 72
     2
  1
\fXTCAAA+HYZhongDengXianJ GBpc-EUC-H|b0|i0|c134;ｶﾆｷﾎ
  7
KANJISTD
210
0.0
220
0.0
230
1.0
 11
1.000001
 21
0.0
 31
0.0
 73
     1
 44
1.0
  0
MTEXT
  5
E6
100
AcDbEntity
  8
LAYER_1
 62
     2
100
AcDbMText
 10
16.338021
 20
203.893844
 30
0.0
 40
3.170695
 41
0.0
 71
     1
 72
     2
  1
\fXTCAAA+HYZhongDengXianJ GBpc-EUC-H|b0|i0|c134;ﾇﾁｵｦｶﾆｷﾎ
  7
KANJISTD
210
0.0
220
0.0
230
1.0
 11
1.000001
 21
0.0
 31
0.0
 73
     1
 44
1.0
  0
MTEXT
  5
E5
100
AcDbEntity
  8
LAYER_1
 62
     2
100
AcDbMText
 10
16.338021
 20
195.497974
 30
0.0
 40
3.170695
 41
0.0
 71
     1
 72
     2
  1
\fXTCAAA+HYZhongDengXianJ GBpc-EUC-H|b0|i0|c134;ﾅ睿ﾄﾄｦ
  7
KANJISTD
210
0.0
220
0.0
230
1.0
 11
1.000001
 21
0.0
 31
0.0
 73
     1
 44
1.0
  0
MTEXT
  5
E4
100
AcDbEntity
  8
LAYER_1
 62
     2
100
AcDbMText
 10
16.338021
 20
187.714297
 30
0.0
 40
3.170695
 41
0.0
 71
     1
 72
     2
  1
\fXTCAAA+HYZhongDengXianJ GBpc-EUC-H|b0|i0|c134;ﾙﾄﾄｦ
  7
KANJISTD
210
0.0
220
0.0
230
1.0
 11
1.000001
 21
0.0
 31
0.0
 73
     1
 44
1.0
  0
MTEXT
  5
E3
100
AcDbEntity
  8
LAYER_1
 62
     2
100
AcDbMText
 10
16.338021
 20
180.896109
 30
0.0
 40
3.170695
 41
0.0
 71
     1
 72
     2
  1
\fXTCAAA+HYZhongDengXianJ GBpc-EUC-H|b0|i0|c134;ｵｫﾄｶ
  7
KANJISTD
210
0.0
220
0.0
230
1.0
 11
1.000001
 21
0.0
 31
0.0
 73
     1
 44
1.0
  0
MTEXT
  5
E2
100
AcDbEntity
  8
LAYER_1
 62
     2
100
AcDbMText
 10
16.338021
 20
174.078093
 30
0.0
 40
3.170695
 41
0.0
 71
     1
 72
     2
  1
\fXTCAAA+HYZhongDengXianJ GBpc-EUC-H|b0|i0|c134;ｲ德､ﾍ､
  7
KANJISTD
210
0.0
220
0.0
230
1.0
 11
1.000001
 21
0.0
 31
0.0
 73
     1
 44
1.0
  0
MTEXT
  5
E1
100
AcDbEntity
  8
LAYER_1
 62
     2
100
AcDbMText
 10
16.338021
 20
160.434998
 30
0.0
 40
3.170695
 41
0.0
 71
     1
 72
     2
  1
\fXTCAAA+HYZhongDengXianJ GBpc-EUC-H|b0|i0|c134;ﾈｬﾍ�
  7
KANJISTD
210
0.0
220
0.0
230
1.0
 11
1.000001
 21
0.0
 31
0.0
 73
     1
 44
1.0
  0
MTEXT
  5
E0
100
AcDbEntity
  8
LAYER_1
 62
     2
100
AcDbMText
 10
16.338021
 20
146.565216
 30
0.0
 40
3.170695
 41
0.0
 71
     1
 72
     2
  1
\fXTCAAA+HYZhongDengXianJ GBpc-EUC-H|b0|i0|c134;ﾄ睹�
  7
KANJISTD
210
0.0
220
0.0
230
1.0
 11
1.000001
 21
0.0
 31
0.0
 73
     1
 44
1.0
  0
MTEXT
  5
DF
100
AcDbEntity
  8
LAYER_1
 62
     2
100
AcDbMText
 10
146.31665
 20
146.565216
 30
0.0
 40
3.170695
 41
0.0
 71
     1
 72
     2
  1
\fXTCAAA+HYZhongDengXianJ GBpc-EUC-H|b0|i0|c134;ｸﾁ
  7
KANJISTD
210
0.0
220
0.0
230
1.0
 11
1.000001
 21
0.0
 31
0.0
 73
     1
 44
1.0
  0
MTEXT
  5
DE
100
AcDbEntity
  8
LAYER_1
 62
     2
100
AcDbMText
 10
150.577889
 20
146.565216
 30
0.0
 40
3.170695
 41
0.0
 71
     1
 72
     2
  1
\fWLDBAA+HelveticaNeue Light|b0|i0;2
  7
STD
210
0.0
220
0.0
230
1.0
 11
1.000001
 21
0.0
 31
0.0
 73
     1
 44
1.0
  0
MTEXT
  5
DD
100
AcDbEntity
  8
LAYER_1
 62
     2
100
AcDbMText
 10
152.947081
 20
146.565216
 30
0.0
 40
3.170695
 41
0.0
 71
     1
 72
     2
  1
\fXTCAAA+HYZhongDengXianJ GBpc-EUC-H|b0|i0|c134;ｵｦｺﾄ
  7
KANJISTD
210
0.0
220
0.0
230
1.0
 11
1.000001
 21
0.0
 31
0.0
 73
     1
 44
1.0
  0
MTEXT
  5
DC
100
AcDbEntity
  8
LAYER_1
 62
     2
100
AcDbMText
 10
16.338021
 20
139.935474
 30
0.0
 40
3.170695
 41
0.0
 71
     1
 72
     2
  1
\fXTCAAA+HYZhongDengXianJ GBpc-EUC-H|b0|i0|c134;ｳﾙ�
  7
KANJISTD
210
0.0
220
0.0
230
1.0
 11
1.000001
 21
0.0
 31
0.0
 73
     1
 44
1.0
  0
MTEXT
  5
DB
100
AcDbEntity
  8
LAYER_1
 62
     2
100
AcDbMText
 10
72.166999
 20
210.336517
 30
0.0
 40
3.170695
 41
0.0
 71
     1
 72
     2
  1
\fWLDBAA+HelveticaNeue Light|b0|i0;1450 x 1450 x 485 mm
  7
STD
210
0.0
220
0.0
230
1.0
 11
1.000001
 21
0.0
 31
0.0
 73
     1
 44
1.0
  0
MTEXT
  5
DA
100
AcDbEntity
  8
LAYER_1
 62
     2
100
AcDbMText
 10
61.950224
 20
203.618581
 30
0.0
 40
3.170695
 41
0.0
 71
     1
 72
     2
  1
\fXTCAAA+HYZhongDengXianJ GBpc-EUC-H|b0|i0|c134;ｸ�ｴﾆ･ﾀ
  7
KANJISTD
210
0.0
220
0.0
230
1.0
 11
1.000001
 21
0.0
 31
0.0
 73
     1
 44
1.0
  0
MTEXT
  5
D9
100
AcDbEntity
  8
LAYER_1
 62
     2
100
AcDbMText
 10
74.733767
 20
203.618581
 30
0.0
 40
3.170695
 41
0.0
 71
     1
 72
     2
  1
\fWLDBAA+HelveticaNeue Light|b0|i0;1130 mm
  7
STD
210
0.0
220
0.0
230
1.0
 11
1.000001
 21
0.0
 31
0.0
 73
     1
 44
1.0
  0
MTEXT
  5
D8
100
AcDbEntity
  8
LAYER_1
 62
     2
100
AcDbMText
 10
92.495474
 20
203.843568
 30
0.0
 40
1.69105
 41
0.0
 71
     1
 72
     2
  1
\fWLDBAA+HelveticaNeue Light|b0|i0;2
  7
STD
210
0.0
220
0.0
230
1.0
 11
1.000001
 21
0.0
 31
0.0
 73
     1
 44
1.0
  0
MTEXT
  5
D7
100
AcDbEntity
  8
LAYER_1
 62
     2
100
AcDbMText
 10
93.759135
 20
203.618581
 30
0.0
 40
3.170695
 41
0.0
 71
     1
 72
     2
  1
\fWLDBAA+HelveticaNeue Light|b0|i0; 
  7
STD
210
0.0
220
0.0
230
1.0
 11
1.000001
 21
0.0
 31
0.0
 73
     1
 44
1.0
  0
MTEXT
  5
D6
100
AcDbEntity
  8
LAYER_1
 62
     2
100
AcDbMText
 10
94.943731
 20
203.618581
 30
0.0
 40
3.170695
 41
0.0
 71
     1
 72
     2
  1
\fWLDBAA+HelveticaNeue Light|b0|i0; 
  7
STD
210
0.0
220
0.0
230
1.0
 11
1.000001
 21
0.0
 31
0.0
 73
     1
 44
1.0
  0
MTEXT
  5
D5
100
AcDbEntity
  8
LAYER_1
 62
     2
100
AcDbMText
 10
96.128327
 20
203.618581
 30
0.0
 40
3.170695
 41
0.0
 71
     1
 72
     2
  1
\fXTCAAA+HYZhongDengXianJ GBpc-EUC-H|b0|i0|c134;ｸｾｴﾆ･ﾀ
  7
KANJISTD
210
0.0
220
0.0
230
1.0
 11
1.000001
 21
0.0
 31
0.0
 73
     1
 44
1.0
  0
MTEXT
  5
D4
100
AcDbEntity
  8
LAYER_1
 62
     2
100
AcDbMText
 10
108.91256
 20
203.618581
 30
0.0
 40
3.170695
 41
0.0
 71
     1
 72
     2
  1
\fWLDBAA+HelveticaNeue Light|b0|i0;820 mm
  7
STD
210
0.0
220
0.0
230
1.0
 11
1.000001
 21
0.0
 31
0.0
 73
     1
 44
1.0
  0
MTEXT
  5
D3
100
AcDbEntity
  8
LAYER_1
 62
     2
100
AcDbMText
 10
124.305246
 20
203.843568
 30
0.0
 40
1.69105
 41
0.0
 71
     1
 72
     2
  1
\fWLDBAA+HelveticaNeue Light|b0|i0;2
  7
STD
210
0.0
220
0.0
230
1.0
 11
1.000001
 21
0.0
 31
0.0
 73
     1
 44
1.0
  0
MTEXT
  5
D2
100
AcDbEntity
  8
LAYER_1
 62
     2
100
AcDbMText
 10
84.529724
 20
195.530185
 30
0.0
 40
3.170695
 41
0.0
 71
     1
 72
     2
  1
\fXTCAAA+HYZhongDengXianJ GBpc-EUC-H|b0|i0|c134;ﾌ腥ﾙｭﾕﾎﾍﾁI
  7
KANJISTD
210
0.0
220
0.0
230
1.0
 11
1.000001
 21
0.0
 31
0.0
 73
     1
 44
1.0
  0
MTEXT
  5
D1
100
AcDbEntity
  8
LAYER_1
 62
     2
100
AcDbMText
 10
85.944453
 20
187.462461
 30
0.0
 40
3.170695
 41
0.0
 71
     1
 72
     2
  1
\fWLDBAA+HelveticaNeue Light|b0|i0;30
  7
STD
210
0.0
220
0.0
230
1.0
 11
1.000001
 21
0.0
 31
0.0
 73
     1
 44
1.0
  0
MTEXT
  5
D0
100
AcDbEntity
  8
LAYER_1
 62
     2
100
AcDbMText
 10
90.683181
 20
187.745992
 30
0.0
 40
3.170695
 41
0.0
 71
     1
 72
     2
  1
\fXTCAAA+HYZhongDengXianJ GBpc-EUC-H|b0|i0|c134;ｻﾖ
  7
KANJISTD
210
0.0
220
0.0
230
1.0
 11
1.000001
 21
0.0
 31
0.0
 73
     1
 44
1.0
  0
MTEXT
  5
CF
100
AcDbEntity
  8
LAYER_1
 62
     2
100
AcDbMText
 10
81.111673
 20
180.753654
 30
0.0
 40
3.170695
 41
0.0
 71
     1
 72
     2
  1
\fXTCAAA+HYZhongDengXianJ GBpc-EUC-H|b0|i0|c134;ｻﾆﾄｨｹｯﾓﾂｲﾃ�
  7
KANJISTD
210
0.0
220
0.0
230
1.0
 11
1.000001
 21
0.0
 31
0.0
 73
     1
 44
1.0
  0
MTEXT
  5
CE
100
AcDbEntity
  8
LAYER_1
 62
     2
100
AcDbMText
 10
87.503703
 20
174.305641
 30
0.0
 40
3.170695
 41
0.0
 71
     1
 72
     2
  1
\fXTCAAA+HYZhongDengXianJ GBpc-EUC-H|b0|i0|c134;ﾉ鉧ﾒﾍ､
  7
KANJISTD
210
0.0
220
0.0
230
1.0
 11
1.000001
 21
0.0
 31
0.0
 73
     1
 44
1.0
  0
MTEXT
  5
CD
100
AcDbEntity
  8
LAYER_1
 62
     2
100
AcDbMText
 10
80.988166
 20
160.100651
 30
0.0
 40
3.170695
 41
0.0
 71
     1
 72
     2
  1
\fWLDBAA+HelveticaNeue Light|b0|i0;K-17249T-CP
  7
STD
210
0.0
220
0.0
230
1.0
 11
1.000001
 21
0.0
 31
0.0
 73
     1
 44
1.0
  0
MTEXT
  5
CC
100
AcDbEntity
  8
LAYER_1
 62
     2
100
AcDbMText
 10
150.9317
 20
180.555044
 30
0.0
 40
3.170695
 41
0.0
 71
     1
 72
     2
  1
\fWLDBAA+HelveticaNeue Light|b0|i0;5.5
  7
STD
210
0.0
220
0.0
230
1.0
 11
1.000001
 21
0.0
 31
0.0
 73
     1
 44
1.0
  0
MTEXT
  5
CB
100
AcDbEntity
  8
LAYER_1
 62
     2
100
AcDbMText
 10
62.691436
 20
146.483739
 30
0.0
 40
3.170695
 41
0.0
 71
     1
 72
     2
  1
\fWLDBAA+HelveticaNeue Light|b0|i0;K-954T-4 
  7
STD
210
0.0
220
0.0
230
1.0
 11
1.000001
 21
0.0
 31
0.0
 73
     1
 44
1.0
  0
MTEXT
  5
CA
100
AcDbEntity
  8
LAYER_1
 62
     2
100
AcDbMText
 10
81.636877
 20
146.483739
 30
0.0
 40
3.170695
 41
0.0
 71
     1
 72
     2
  1
\fXTCAAA+HYZhongDengXianJ GBpc-EUC-H|b0|i0|c134;ﾍｸﾀﾇﾈｻｾｴﾆﾍ､ﾖ貊ｾﾄ睹�
  7
KANJISTD
210
0.0
220
0.0
230
1.0
 11
1.000001
 21
0.0
 31
0.0
 73
     1
 44
1.0
  0
LINE
  5
C9
100
AcDbEntity
  8
LAYER_1
 62
   250
100
AcDbLine
 10
15.068503
 20
133.795106
 30
0.0
 11
166.255141
 21
133.795106
 31
0.0
  0
HATCH
  5
C8
100
AcDbEntity
  8
LAYER_1
 62
   254
100
AcDbHatch
 10
0.0
 20
0.0
 30
0.0
210
0.0
220
0.0
230
1.0
  2
SOLID
 70
     1
 71
     0
 91
        1
 92
        3
 72
     0
 73
     1
 93
        4
 10
14.955159505208332
 20
162.02973090277777
 10
166.28649088541664
 20
162.02973090277777
 10
166.28649088541664
 20
168.57627360026041
 10
14.955159505208332
 20
168.57627360026041
 97
        0
 75
     0
 76
     1
 98
        1
 10
0.0
 20
0.0
  0
HATCH
  5
C7
100
AcDbEntity
  8
LAYER_1
 62
   254
100
AcDbHatch
 10
0.0
 20
0.0
 30
0.0
210
0.0
220
0.0
230
1.0
  2
SOLID
 70
     1
 71
     0
 91
        1
 92
        3
 72
     0
 73
     1
 93
        4
 10
14.955159505208332
 20
148.35563015407985
 10
166.30199381510414
 20
148.35563015407985
 10
166.30199381510414
 20
154.87650689019097
 10
14.955159505208332
 20
154.87650689019097
 97
        0
 75
     0
 76
     1
 98
        1
 10
0.0
 20
0.0
  0
MTEXT
  5
C6
100
AcDbEntity
  8
LAYER_1
 62
     2
100
AcDbMText
 10
16.338021
 20
167.253531
 30
0.0
 40
3.170695
 41
0.0
 71
     1
 72
     2
  1
\fXTCAAA+HYZhongDengXianJ GBpc-EUC-H|b0|i0|c134;ｳ翊柀ﾋｿ�
  7
KANJISTD
210
0.0
220
0.0
230
1.0
 11
1.000001
 21
0.0
 31
0.0
 73
     1
 44
1.0
  0
MTEXT
  5
C5
100
AcDbEntity
  8
LAYER_1
 62
     2
100
AcDbMText
 10
16.338021
 20
153.202881
 30
0.0
 40
3.170695
 41
0.0
 71
     1
 72
     2
  1
\fXTCAAA+HYZhongDengXianJ GBpc-EUC-H|b0|i0|c134;ﾂｰﾓ贍ｪﾈﾋｿ�
  7
KANJISTD
210
0.0
220
0.0
230
1.0
 11
1.000001
 21
0.0
 31
0.0
 73
     1
 44
1.0
  0
MTEXT
  5
C4
100
AcDbEntity
  8
LAYER_1
 62
     2
100
AcDbMText
 10
74.50174
 20
139.274015
 30
0.0
 40
3.170695
 41
0.0
 71
     1
 72
     2
  1
\fXTCAAA+HYZhongDengXianJ GBpc-EUC-H|b0|i0|c134;ｴ･ｵ睚�ﾙｧﾏﾈｻ鋧ｾﾋ�
  7
KANJISTD
210
0.0
220
0.0
230
1.0
 11
1.000001
 21
0.0
 31
0.0
 73
     1
 44
1.0
  0
MTEXT
  5
C3
100
AcDbEntity
  8
LAYER_1
 62
     2
100
AcDbMText
 10
108.593199
 20
139.274015
 30
0.0
 40
3.170695
 41
0.0
 71
     1
 72
     2
  1
\fWLDBAA+HelveticaNeue Light|b0|i0;(0)
  7
STD
210
0.0
220
0.0
230
1.0
 11
1.000001
 21
0.0
 31
0.0
 73
     1
 44
1.0
  0
MTEXT
  5
C2
100
AcDbEntity
  8
LAYER_1
 62
     2
100
AcDbMText
 10
46.674843
 20
100.780382
 30
0.0
 40
1.469304
 41
0.0
 71
     1
 72
     2
  1
\fWLDBAA+HelveticaNeue Light|b0|i0;725
  7
STD
210
0.0
220
0.0
230
1.0
 11
1.000001
 21
0.0
 31
0.0
 73
     1
 44
1.0
  0
MTEXT
  5
C1
100
AcDbEntity
  8
LAYER_1
 62
     2
100
AcDbMText
 10
61.268267
 20
85.628163
 30
0.0
 40
1.469304
 41
0.0
 71
     1
 72
     2
  1
\fWLDBAA+HelveticaNeue Light|b0|i0;725
  7
STD
210
0.0
220
0.0
230
1.0
 11
1.000001
 21
0.0
 31
0.0
 73
     1
 44
1.0
  0
MTEXT
  5
C0
100
AcDbEntity
  8
LAYER_1
 62
     2
100
AcDbMText
 10
33.142163
 20
28.026836
 30
0.0
 40
3.149802
 41
0.0
 71
     1
 72
     2
  1
\fUBRAAA+HelveticaNeue Roman|b0|i0;K-18744T
  7
STD
210
0.0
220
0.0
230
1.0
 11
1.000001
 21
0.0
 31
0.0
 73
     1
 44
1.0
  0
HATCH
  5
BF
100
AcDbEntity
  8
LAYER_1
 62
   250
100
AcDbHatch
 10
0.0
 20
0.0
 30
0.0
210
0.0
220
0.0
230
1.0
  2
SOLID
 70
     1
 71
     0
 91
      119
 92
        1
 93
        1
 72
     4
 94
        3
 73
     0
 74
     0
 95
       17
 96
       13
 40
0.0
 40
0.0
 40
0.0
 40
0.0
 40
1.0
 40
1.0
 40
1.0
 40
2.0
 40
2.0
 40
2.0
 40
3.0
 40
3.0
 40
3.0
 40
4.0
 40
4.0
 40
4.0
 40
4.0
 10
61.941783311631937
 20
77.15911458333332
 10
61.941783311631937
 20
77.15911458333332
 10
62.02360432942708
 20
77.15911458333332
 10
62.02360432942708
 20
77.15911458333332
 10
62.02360432942708
 20
77.15911458333332
 10
62.02360432942708
 20
77.028200954861106
 10
62.02360432942708
 20
77.028200954861106
 10
62.02360432942708
 20
77.028200954861106
 10
61.941783311631937
 20
77.028200954861106
 10
61.941783311631937
 20
77.028200954861106
 10
61.941783311631937
 20
77.028200954861106
 10
61.941783311631937
 20
77.15911458333332
 10
61.941783311631937
 20
77.15911458333332
 97
        0
 92
        1
 93
        1
 72
     4
 94
        3
 73
     0
 74
     0
 95
       17
 96
       13
 40
0.0
 40
0.0
 40
0.0
 40
0.0
 40
1.0
 40
1.0
 40
1.0
 40
2.0
 40
2.0
 40
2.0
 40
3.0
 40
3.0
 40
3.0
 40
4.0
 40
4.0
 40
4.0
 40
4.0
 10
60.898608398437496
 20
77.15911458333332
 10
60.898608398437496
 20
77.15911458333332
 10
61.550075954861107
 20
77.15911458333332
 10
61.550075954861107
 20
77.15911458333332
 10
61.550075954861107
 20
77.15911458333332
 10
61.550075954861107
 20
77.028200954861106
 10
61.550075954861107
 20
77.028200954861106
 10
61.550075954861107
 20
77.028200954861106
 10
60.898608398437496
 20
77.028200954861106
 10
60.898608398437496
 20
77.028200954861106
 10
60.898608398437496
 20
77.028200954861106
 10
60.898608398437496
 20
77.15911458333332
 10
60.898608398437496
 20
77.15911458333332
 97
        0
 92
        1
 93
        1
 72
     4
 94
        3
 73
     0
 74
     0
 95
       17
 96
       13
 40
0.0
 40
0.0
 40
0.0
 40
0.0
 40
1.0
 40
1.0
 40
1.0
 40
2.0
 40
2.0
 40
2.0
 40
3.0
 40
3.0
 40
3.0
 40
4.0
 40
4.0
 40
4.0
 40
4.0
 10
60.376504177517354
 20
77.15911458333332
 10
60.376504177517354
 20
77.15911458333332
 10
60.506901041666659
 20
77.15911458333332
 10
60.506901041666659
 20
77.15911458333332
 10
60.506901041666659
 20
77.15911458333332
 10
60.506901041666659
 20
77.028200954861106
 10
60.506901041666659
 20
77.028200954861106
 10
60.506901041666659
 20
77.028200954861106
 10
60.376504177517354
 20
77.028200954861106
 10
60.376504177517354
 20
77.028200954861106
 10
60.376504177517354
 20
77.028200954861106
 10
60.376504177517354
 20
77.15911458333332
 10
60.376504177517354
 20
77.15911458333332
 97
        0
 92
        1
 93
        1
 72
     4
 94
        3
 73
     0
 74
     0
 95
       17
 96
       13
 40
0.0
 40
0.0
 40
0.0
 40
0.0
 40
1.0
 40
1.0
 40
1.0
 40
2.0
 40
2.0
 40
2.0
 40
3.0
 40
3.0
 40
3.0
 40
4.0
 40
4.0
 40
4.0
 40
4.0
 10
59.333673773871524
 20
77.15911458333332
 10
59.333673773871524
 20
77.15911458333332
 10
59.985485839843747
 20
77.15911458333332
 10
59.985485839843747
 20
77.15911458333332
 10
59.985485839843747
 20
77.15911458333332
 10
59.985485839843747
 20
77.028200954861106
 10
59.985485839843747
 20
77.028200954861106
 10
59.985485839843747
 20
77.028200954861106
 10
59.333673773871524
 20
77.028200954861106
 10
59.333673773871524
 20
77.028200954861106
 10
59.333673773871524
 20
77.028200954861106
 10
59.333673773871524
 20
77.15911458333332
 10
59.333673773871524
 20
77.15911458333332
 97
        0
 92
        1
 93
        1
 72
     4
 94
        3
 73
     0
 74
     0
 95
       17
 96
       13
 40
0.0
 40
0.0
 40
0.0
 40
0.0
 40
1.0
 40
1.0
 40
1.0
 40
2.0
 40
2.0
 40
2.0
 40
3.0
 40
3.0
 40
3.0
 40
4.0
 40
4.0
 40
4.0
 40
4.0
 10
58.811914062499994
 20
77.15911458333332
 10
58.811914062499994
 20
77.15911458333332
 10
58.942138671874993
 20
77.15911458333332
 10
58.942138671874993
 20
77.15911458333332
 10
58.942138671874993
 20
77.15911458333332
 10
58.942138671874993
 20
77.028200954861106
 10
58.942138671874993
 20
77.028200954861106
 10
58.942138671874993
 20
77.028200954861106
 10
58.811914062499994
 20
77.028200954861106
 10
58.811914062499994
 20
77.028200954861106
 10
58.811914062499994
 20
77.028200954861106
 10
58.811914062499994
 20
77.15911458333332
 10
58.811914062499994
 20
77.15911458333332
 97
        0
 92
        1
 93
        1
 72
     4
 94
        3
 73
     0
 74
     0
 95
       17
 96
       13
 40
0.0
 40
0.0
 40
0.0
 40
0.0
 40
1.0
 40
1.0
 40
1.0
 40
2.0
 40
2.0
 40
2.0
 40
3.0
 40
3.0
 40
3.0
 40
4.0
 40
4.0
 40
4.0
 40
4.0
 10
57.768739149305553
 20
77.15911458333332
 10
57.768739149305553
 20
77.15911458333332
 10
58.420723470052081
 20
77.15911458333332
 10
58.420723470052081
 20
77.15911458333332
 10
58.420723470052081
 20
77.15911458333332
 10
58.420723470052081
 20
77.028200954861106
 10
58.420723470052081
 20
77.028200954861106
 10
58.420723470052081
 20
77.028200954861106
 10
57.768739149305553
 20
77.028200954861106
 10
57.768739149305553
 20
77.028200954861106
 10
57.768739149305553
 20
77.028200954861106
 10
57.768739149305553
 20
77.15911458333332
 10
57.768739149305553
 20
77.15911458333332
 97
        0
 92
        1
 93
        1
 72
     4
 94
        3
 73
     0
 74
     0
 95
       17
 96
       13
 40
0.0
 40
0.0
 40
0.0
 40
0.0
 40
1.0
 40
1.0
 40
1.0
 40
2.0
 40
2.0
 40
2.0
 40
3.0
 40
3.0
 40
3.0
 40
4.0
 40
4.0
 40
4.0
 40
4.0
 10
57.247323947482634
 20
77.15911458333332
 10
57.247323947482634
 20
77.15911458333332
 10
57.377548556857633
 20
77.15911458333332
 10
57.377548556857633
 20
77.15911458333332
 10
57.377548556857633
 20
77.15911458333332
 10
57.377548556857633
 20
77.028200954861106
 10
57.377548556857633
 20
77.028200954861106
 10
57.377548556857633
 20
77.028200954861106
 10
57.247323947482634
 20
77.028200954861106
 10
57.247323947482634
 20
77.028200954861106
 10
57.247323947482634
 20
77.028200954861106
 10
57.247323947482634
 20
77.15911458333332
 10
57.247323947482634
 20
77.15911458333332
 97
        0
 92
        1
 93
        1
 72
     4
 94
        3
 73
     0
 74
     0
 95
       17
 96
       13
 40
0.0
 40
0.0
 40
0.0
 40
0.0
 40
1.0
 40
1.0
 40
1.0
 40
2.0
 40
2.0
 40
2.0
 40
3.0
 40
3.0
 40
3.0
 40
4.0
 40
4.0
 40
4.0
 40
4.0
 10
56.203804524739581
 20
77.15911458333332
 10
56.203804524739581
 20
77.15911458333332
 10
56.855788845486103
 20
77.15911458333332
 10
56.855788845486103
 20
77.15911458333332
 10
56.855788845486103
 20
77.15911458333332
 10
56.855788845486103
 20
77.028200954861106
 10
56.855788845486103
 20
77.028200954861106
 10
56.855788845486103
 20
77.028200954861106
 10
56.203804524739581
 20
77.028200954861106
 10
56.203804524739581
 20
77.028200954861106
 10
56.203804524739581
 20
77.028200954861106
 10
56.203804524739581
 20
77.15911458333332
 10
56.203804524739581
 20
77.15911458333332
 97
        0
 92
        1
 93
        1
 72
     4
 94
        3
 73
     0
 74
     0
 95
       17
 96
       13
 40
0.0
 40
0.0
 40
0.0
 40
0.0
 40
1.0
 40
1.0
 40
1.0
 40
2.0
 40
2.0
 40
2.0
 40
3.0
 40
3.0
 40
3.0
 40
4.0
 40
4.0
 40
4.0
 40
4.0
 10
55.682389322916663
 20
77.15911458333332
 10
55.682389322916663
 20
77.15911458333332
 10
55.812613932291661
 20
77.15911458333332
 10
55.812613932291661
 20
77.15911458333332
 10
55.812613932291661
 20
77.15911458333332
 10
55.812613932291661
 20
77.028200954861106
 10
55.812613932291661
 20
77.028200954861106
 10
55.812613932291661
 20
77.028200954861106
 10
55.682389322916663
 20
77.028200954861106
 10
55.682389322916663
 20
77.028200954861106
 10
55.682389322916663
 20
77.028200954861106
 10
55.682389322916663
 20
77.15911458333332
 10
55.682389322916663
 20
77.15911458333332
 97
        0
 92
        1
 93
        1
 72
     4
 94
        3
 73
     0
 74
     0
 95
       17
 96
       13
 40
0.0
 40
0.0
 40
0.0
 40
0.0
 40
1.0
 40
1.0
 40
1.0
 40
2.0
 40
2.0
 40
2.0
 40
3.0
 40
3.0
 40
3.0
 40
4.0
 40
4.0
 40
4.0
 40
4.0
 10
54.638869900173603
 20
77.15911458333332
 10
54.638869900173603
 20
77.15911458333332
 10
55.290854220920131
 20
77.15911458333332
 10
55.290854220920131
 20
77.15911458333332
 10
55.290854220920131
 20
77.15911458333332
 10
55.290854220920131
 20
77.028200954861106
 10
55.290854220920131
 20
77.028200954861106
 10
55.290854220920131
 20
77.028200954861106
 10
54.638869900173603
 20
77.028200954861106
 10
54.638869900173603
 20
77.028200954861106
 10
54.638869900173603
 20
77.028200954861106
 10
54.638869900173603
 20
77.15911458333332
 10
54.638869900173603
 20
77.15911458333332
 97
        0
 92
        1
 93
        1
 72
     4
 94
        3
 73
     0
 74
     0
 95
       17
 96
       13
 40
0.0
 40
0.0
 40
0.0
 40
0.0
 40
1.0
 40
1.0
 40
1.0
 40
2.0
 40
2.0
 40
2.0
 40
3.0
 40
3.0
 40
3.0
 40
4.0
 40
4.0
 40
4.0
 40
4.0
 10
54.117454698350691
 20
77.15911458333332
 10
54.117454698350691
 20
77.15911458333332
 10
54.24767930772569
 20
77.15911458333332
 10
54.24767930772569
 20
77.15911458333332
 10
54.24767930772569
 20
77.15911458333332
 10
54.24767930772569
 20
77.028200954861106
 10
54.24767930772569
 20
77.028200954861106
 10
54.24767930772569
 20
77.028200954861106
 10
54.117454698350691
 20
77.028200954861106
 10
54.117454698350691
 20
77.028200954861106
 10
54.117454698350691
 20
77.028200954861106
 10
54.117454698350691
 20
77.15911458333332
 10
54.117454698350691
 20
77.15911458333332
 97
        0
 92
        1
 93
        1
 72
     4
 94
        3
 73
     0
 74
     0
 95
       17
 96
       13
 40
0.0
 40
0.0
 40
0.0
 40
0.0
 40
1.0
 40
1.0
 40
1.0
 40
2.0
 40
2.0
 40
2.0
 40
3.0
 40
3.0
 40
3.0
 40
4.0
 40
4.0
 40
4.0
 40
4.0
 10
53.074279785156243
 20
77.15911458333332
 10
53.074279785156243
 20
77.15911458333332
 10
53.72591959635416
 20
77.15911458333332
 10
53.72591959635416
 20
77.15911458333332
 10
53.72591959635416
 20
77.15911458333332
 10
53.72591959635416
 20
77.028200954861106
 10
53.72591959635416
 20
77.028200954861106
 10
53.72591959635416
 20
77.028200954861106
 10
53.074279785156243
 20
77.028200954861106
 10
53.074279785156243
 20
77.028200954861106
 10
53.074279785156243
 20
77.028200954861106
 10
53.074279785156243
 20
77.15911458333332
 10
53.074279785156243
 20
77.15911458333332
 97
        0
 92
        1
 93
        1
 72
     4
 94
        3
 73
     0
 74
     0
 95
       17
 96
       13
 40
0.0
 40
0.0
 40
0.0
 40
0.0
 40
1.0
 40
1.0
 40
1.0
 40
2.0
 40
2.0
 40
2.0
 40
3.0
 40
3.0
 40
3.0
 40
4.0
 40
4.0
 40
4.0
 40
4.0
 10
52.55252007378472
 20
77.15911458333332
 10
52.55252007378472
 20
77.15911458333332
 10
52.682744683159719
 20
77.15911458333332
 10
52.682744683159719
 20
77.15911458333332
 10
52.682744683159719
 20
77.15911458333332
 10
52.682744683159719
 20
77.028200954861106
 10
52.682744683159719
 20
77.028200954861106
 10
52.682744683159719
 20
77.028200954861106
 10
52.55252007378472
 20
77.028200954861106
 10
52.55252007378472
 20
77.028200954861106
 10
52.55252007378472
 20
77.028200954861106
 10
52.55252007378472
 20
77.15911458333332
 10
52.55252007378472
 20
77.15911458333332
 97
        0
 92
        1
 93
        1
 72
     4
 94
        3
 73
     0
 74
     0
 95
       17
 96
       13
 40
0.0
 40
0.0
 40
0.0
 40
0.0
 40
1.0
 40
1.0
 40
1.0
 40
2.0
 40
2.0
 40
2.0
 40
3.0
 40
3.0
 40
3.0
 40
4.0
 40
4.0
 40
4.0
 40
4.0
 10
51.509345160590271
 20
77.15911458333332
 10
51.509345160590271
 20
77.15911458333332
 10
52.1613294813368
 20
77.15911458333332
 10
52.1613294813368
 20
77.15911458333332
 10
52.1613294813368
 20
77.15911458333332
 10
52.1613294813368
 20
77.028200954861106
 10
52.1613294813368
 20
77.028200954861106
 10
52.1613294813368
 20
77.028200954861106
 10
51.509345160590271
 20
77.028200954861106
 10
51.509345160590271
 20
77.028200954861106
 10
51.509345160590271
 20
77.028200954861106
 10
51.509345160590271
 20
77.15911458333332
 10
51.509345160590271
 20
77.15911458333332
 97
        0
 92
        1
 93
        1
 72
     4
 94
        3
 73
     0
 74
     0
 95
       17
 96
       13
 40
0.0
 40
0.0
 40
0.0
 40
0.0
 40
1.0
 40
1.0
 40
1.0
 40
2.0
 40
2.0
 40
2.0
 40
3.0
 40
3.0
 40
3.0
 40
4.0
 40
4.0
 40
4.0
 40
4.0
 10
50.98792995876736
 20
77.15911458333332
 10
50.98792995876736
 20
77.15911458333332
 10
51.117810058593747
 20
77.15911458333332
 10
51.117810058593747
 20
77.15911458333332
 10
51.117810058593747
 20
77.15911458333332
 10
51.117810058593747
 20
77.028200954861106
 10
51.117810058593747
 20
77.028200954861106
 10
51.117810058593747
 20
77.028200954861106
 10
50.98792995876736
 20
77.028200954861106
 10
50.98792995876736
 20
77.028200954861106
 10
50.98792995876736
 20
77.028200954861106
 10
50.98792995876736
 20
77.15911458333332
 10
50.98792995876736
 20
77.15911458333332
 97
        0
 92
        1
 93
        1
 72
     4
 94
        3
 73
     0
 74
     0
 95
       17
 96
       13
 40
0.0
 40
0.0
 40
0.0
 40
0.0
 40
1.0
 40
1.0
 40
1.0
 40
2.0
 40
2.0
 40
2.0
 40
3.0
 40
3.0
 40
3.0
 40
4.0
 40
4.0
 40
4.0
 40
4.0
 10
49.9444105360243
 20
77.15911458333332
 10
49.9444105360243
 20
77.15911458333332
 10
50.596394856770829
 20
77.15911458333332
 10
50.596394856770829
 20
77.15911458333332
 10
50.596394856770829
 20
77.15911458333332
 10
50.596394856770829
 20
77.028200954861106
 10
50.596394856770829
 20
77.028200954861106
 10
50.596394856770829
 20
77.028200954861106
 10
49.9444105360243
 20
77.028200954861106
 10
49.9444105360243
 20
77.028200954861106
 10
49.9444105360243
 20
77.028200954861106
 10
49.9444105360243
 20
77.15911458333332
 10
49.9444105360243
 20
77.15911458333332
 97
        0
 92
        1
 93
        1
 72
     4
 94
        3
 73
     0
 74
     0
 95
       17
 96
       13
 40
0.0
 40
0.0
 40
0.0
 40
0.0
 40
1.0
 40
1.0
 40
1.0
 40
2.0
 40
2.0
 40
2.0
 40
3.0
 40
3.0
 40
3.0
 40
4.0
 40
4.0
 40
4.0
 40
4.0
 10
49.42265082465277
 20
77.15911458333332
 10
49.42265082465277
 20
77.15911458333332
 10
49.553564453124999
 20
77.15911458333332
 10
49.553564453124999
 20
77.15911458333332
 10
49.553564453124999
 20
77.15911458333332
 10
49.553564453124999
 20
77.028200954861106
 10
49.553564453124999
 20
77.028200954861106
 10
49.553564453124999
 20
77.028200954861106
 10
49.42265082465277
 20
77.028200954861106
 10
49.42265082465277
 20
77.028200954861106
 10
49.42265082465277
 20
77.028200954861106
 10
49.42265082465277
 20
77.15911458333332
 10
49.42265082465277
 20
77.15911458333332
 97
        0
 92
        1
 93
        1
 72
     4
 94
        3
 73
     0
 74
     0
 95
       17
 96
       13
 40
0.0
 40
0.0
 40
0.0
 40
0.0
 40
1.0
 40
1.0
 40
1.0
 40
2.0
 40
2.0
 40
2.0
 40
3.0
 40
3.0
 40
3.0
 40
4.0
 40
4.0
 40
4.0
 40
4.0
 10
48.379131401909717
 20
77.15911458333332
 10
48.379131401909717
 20
77.15911458333332
 10
49.031460232204857
 20
77.15911458333332
 10
49.031460232204857
 20
77.15911458333332
 10
49.031460232204857
 20
77.15911458333332
 10
49.031460232204857
 20
77.028200954861106
 10
49.031460232204857
 20
77.028200954861106
 10
49.031460232204857
 20
77.028200954861106
 10
48.379131401909717
 20
77.028200954861106
 10
48.379131401909717
 20
77.028200954861106
 10
48.379131401909717
 20
77.028200954861106
 10
48.379131401909717
 20
77.15911458333332
 10
48.379131401909717
 20
77.15911458333332
 97
        0
 92
        1
 93
        1
 72
     4
 94
        3
 73
     0
 74
     0
 95
       17
 96
       13
 40
0.0
 40
0.0
 40
0.0
 40
0.0
 40
1.0
 40
1.0
 40
1.0
 40
2.0
 40
2.0
 40
2.0
 40
3.0
 40
3.0
 40
3.0
 40
4.0
 40
4.0
 40
4.0
 40
4.0
 10
47.857716200086799
 20
77.15911458333332
 10
47.857716200086799
 20
77.15911458333332
 10
47.98862982855902
 20
77.15911458333332
 10
47.98862982855902
 20
77.15911458333332
 10
47.98862982855902
 20
77.15911458333332
 10
47.98862982855902
 20
77.028200954861106
 10
47.98862982855902
 20
77.028200954861106
 10
47.98862982855902
 20
77.028200954861106
 10
47.857716200086799
 20
77.028200954861106
 10
47.857716200086799
 20
77.028200954861106
 10
47.857716200086799
 20
77.028200954861106
 10
47.857716200086799
 20
77.15911458333332
 10
47.857716200086799
 20
77.15911458333332
 97
        0
 92
        1
 93
        1
 72
     4
 94
        3
 73
     0
 74
     0
 95
       17
 96
       13
 40
0.0
 40
0.0
 40
0.0
 40
0.0
 40
1.0
 40
1.0
 40
1.0
 40
2.0
 40
2.0
 40
2.0
 40
3.0
 40
3.0
 40
3.0
 40
4.0
 40
4.0
 40
4.0
 40
4.0
 10
46.814885796440969
 20
77.15911458333332
 10
46.814885796440969
 20
77.15911458333332
 10
47.466870117187497
 20
77.15911458333332
 10
47.466870117187497
 20
77.15911458333332
 10
47.466870117187497
 20
77.15911458333332
 10
47.466870117187497
 20
77.028200954861106
 10
47.466870117187497
 20
77.028200954861106
 10
47.466870117187497
 20
77.028200954861106
 10
46.814885796440969
 20
77.028200954861106
 10
46.814885796440969
 20
77.028200954861106
 10
46.814885796440969
 20
77.028200954861106
 10
46.814885796440969
 20
77.15911458333332
 10
46.814885796440969
 20
77.15911458333332
 97
        0
 92
        1
 93
        1
 72
     4
 94
        3
 73
     0
 74
     0
 95
       17
 96
       13
 40
0.0
 40
0.0
 40
0.0
 40
0.0
 40
1.0
 40
1.0
 40
1.0
 40
2.0
 40
2.0
 40
2.0
 40
3.0
 40
3.0
 40
3.0
 40
4.0
 40
4.0
 40
4.0
 40
4.0
 10
46.292781575520827
 20
77.15911458333332
 10
46.292781575520827
 20
77.15911458333332
 10
46.423350694444437
 20
77.15911458333332
 10
46.423350694444437
 20
77.15911458333332
 10
46.423350694444437
 20
77.15911458333332
 10
46.423350694444437
 20
77.028200954861106
 10
46.423350694444437
 20
77.028200954861106
 10
46.423350694444437
 20
77.028200954861106
 10
46.292781575520827
 20
77.028200954861106
 10
46.292781575520827
 20
77.028200954861106
 10
46.292781575520827
 20
77.028200954861106
 10
46.292781575520827
 20
77.15911458333332
 10
46.292781575520827
 20
77.15911458333332
 97
        0
 92
        1
 93
        1
 72
     4
 94
        3
 73
     0
 74
     0
 95
       17
 96
       13
 40
0.0
 40
0.0
 40
0.0
 40
0.0
 40
1.0
 40
1.0
 40
1.0
 40
2.0
 40
2.0
 40
2.0
 40
3.0
 40
3.0
 40
3.0
 40
4.0
 40
4.0
 40
4.0
 40
4.0
 10
45.249606662326386
 20
77.15911458333332
 10
45.249606662326386
 20
77.15911458333332
 10
45.901590983072914
 20
77.15911458333332
 10
45.901590983072914
 20
77.15911458333332
 10
45.901590983072914
 20
77.15911458333332
 10
45.901590983072914
 20
77.028200954861106
 10
45.901590983072914
 20
77.028200954861106
 10
45.901590983072914
 20
77.028200954861106
 10
45.249606662326386
 20
77.028200954861106
 10
45.249606662326386
 20
77.028200954861106
 10
45.249606662326386
 20
77.028200954861106
 10
45.249606662326386
 20
77.15911458333332
 10
45.249606662326386
 20
77.15911458333332
 97
        0
 92
        1
 93
        1
 72
     4
 94
        3
 73
     0
 74
     0
 95
       17
 96
       13
 40
0.0
 40
0.0
 40
0.0
 40
0.0
 40
1.0
 40
1.0
 40
1.0
 40
2.0
 40
2.0
 40
2.0
 40
3.0
 40
3.0
 40
3.0
 40
4.0
 40
4.0
 40
4.0
 40
4.0
 10
44.728363715277773
 20
77.15911458333332
 10
44.728363715277773
 20
77.15911458333332
 10
44.858416069878466
 20
77.15911458333332
 10
44.858416069878466
 20
77.15911458333332
 10
44.858416069878466
 20
77.15911458333332
 10
44.858416069878466
 20
77.028200954861106
 10
44.858416069878466
 20
77.028200954861106
 10
44.858416069878466
 20
77.028200954861106
 10
44.728363715277773
 20
77.028200954861106
 10
44.728363715277773
 20
77.028200954861106
 10
44.728363715277773
 20
77.028200954861106
 10
44.728363715277773
 20
77.15911458333332
 10
44.728363715277773
 20
77.15911458333332
 97
        0
 92
        1
 93
        1
 72
     4
 94
        3
 73
     0
 74
     0
 95
       17
 96
       13
 40
0.0
 40
0.0
 40
0.0
 40
0.0
 40
1.0
 40
1.0
 40
1.0
 40
2.0
 40
2.0
 40
2.0
 40
3.0
 40
3.0
 40
3.0
 40
4.0
 40
4.0
 40
4.0
 40
4.0
 10
43.68484429253472
 20
77.15911458333332
 10
43.68484429253472
 20
77.15911458333332
 10
44.336656358506943
 20
77.15911458333332
 10
44.336656358506943
 20
77.15911458333332
 10
44.336656358506943
 20
77.15911458333332
 10
44.336656358506943
 20
77.028200954861106
 10
44.336656358506943
 20
77.028200954861106
 10
44.336656358506943
 20
77.028200954861106
 10
43.68484429253472
 20
77.028200954861106
 10
43.68484429253472
 20
77.028200954861106
 10
43.68484429253472
 20
77.028200954861106
 10
43.68484429253472
 20
77.15911458333332
 10
43.68484429253472
 20
77.15911458333332
 97
        0
 92
        1
 93
        1
 72
     4
 94
        3
 73
     0
 74
     0
 95
       17
 96
       13
 40
0.0
 40
0.0
 40
0.0
 40
0.0
 40
1.0
 40
1.0
 40
1.0
 40
2.0
 40
2.0
 40
2.0
 40
3.0
 40
3.0
 40
3.0
 40
4.0
 40
4.0
 40
4.0
 40
4.0
 10
43.163429090711801
 20
77.15911458333332
 10
43.163429090711801
 20
77.15911458333332
 10
43.293825954861106
 20
77.15911458333332
 10
43.293825954861106
 20
77.15911458333332
 10
43.293825954861106
 20
77.15911458333332
 10
43.293825954861106
 20
77.028200954861106
 10
43.293825954861106
 20
77.028200954861106
 10
43.293825954861106
 20
77.028200954861106
 10
43.163429090711801
 20
77.028200954861106
 10
43.163429090711801
 20
77.028200954861106
 10
43.163429090711801
 20
77.028200954861106
 10
43.163429090711801
 20
77.15911458333332
 10
43.163429090711801
 20
77.15911458333332
 97
        0
 92
        1
 93
        1
 72
     4
 94
        3
 73
     0
 74
     0
 95
       17
 96
       13
 40
0.0
 40
0.0
 40
0.0
 40
0.0
 40
1.0
 40
1.0
 40
1.0
 40
2.0
 40
2.0
 40
2.0
 40
3.0
 40
3.0
 40
3.0
 40
4.0
 40
4.0
 40
4.0
 40
4.0
 10
42.12025417751736
 20
77.15911458333332
 10
42.12025417751736
 20
77.15911458333332
 10
42.771721733940971
 20
77.15911458333332
 10
42.771721733940971
 20
77.15911458333332
 10
42.771721733940971
 20
77.15911458333332
 10
42.771721733940971
 20
77.028200954861106
 10
42.771721733940971
 20
77.028200954861106
 10
42.771721733940971
 20
77.028200954861106
 10
42.12025417751736
 20
77.028200954861106
 10
42.12025417751736
 20
77.028200954861106
 10
42.12025417751736
 20
77.028200954861106
 10
42.12025417751736
 20
77.15911458333332
 10
42.12025417751736
 20
77.15911458333332
 97
        0
 92
        1
 93
        1
 72
     4
 94
        3
 73
     0
 74
     0
 95
       17
 96
       13
 40
0.0
 40
0.0
 40
0.0
 40
0.0
 40
1.0
 40
1.0
 40
1.0
 40
2.0
 40
2.0
 40
2.0
 40
3.0
 40
3.0
 40
3.0
 40
4.0
 40
4.0
 40
4.0
 40
4.0
 10
41.598149956597219
 20
77.15911458333332
 10
41.598149956597219
 20
77.15911458333332
 10
41.728546820746523
 20
77.15911458333332
 10
41.728546820746523
 20
77.15911458333332
 10
41.728546820746523
 20
77.15911458333332
 10
41.728546820746523
 20
77.028200954861106
 10
41.728546820746523
 20
77.028200954861106
 10
41.728546820746523
 20
77.028200954861106
 10
41.598149956597219
 20
77.028200954861106
 10
41.598149956597219
 20
77.028200954861106
 10
41.598149956597219
 20
77.028200954861106
 10
41.598149956597219
 20
77.15911458333332
 10
41.598149956597219
 20
77.15911458333332
 97
        0
 92
        1
 93
        1
 72
     4
 94
        3
 73
     0
 74
     0
 95
       17
 96
       13
 40
0.0
 40
0.0
 40
0.0
 40
0.0
 40
1.0
 40
1.0
 40
1.0
 40
2.0
 40
2.0
 40
2.0
 40
3.0
 40
3.0
 40
3.0
 40
4.0
 40
4.0
 40
4.0
 40
4.0
 10
40.555319552951389
 20
77.15911458333332
 10
40.555319552951389
 20
77.15911458333332
 10
41.207131618923604
 20
77.15911458333332
 10
41.207131618923604
 20
77.15911458333332
 10
41.207131618923604
 20
77.15911458333332
 10
41.207131618923604
 20
77.028200954861106
 10
41.207131618923604
 20
77.028200954861106
 10
41.207131618923604
 20
77.028200954861106
 10
40.555319552951389
 20
77.028200954861106
 10
40.555319552951389
 20
77.028200954861106
 10
40.555319552951389
 20
77.028200954861106
 10
40.555319552951389
 20
77.15911458333332
 10
40.555319552951389
 20
77.15911458333332
 97
        0
 92
        1
 93
        1
 72
     4
 94
        3
 73
     0
 74
     0
 95
       17
 96
       13
 40
0.0
 40
0.0
 40
0.0
 40
0.0
 40
1.0
 40
1.0
 40
1.0
 40
2.0
 40
2.0
 40
2.0
 40
3.0
 40
3.0
 40
3.0
 40
4.0
 40
4.0
 40
4.0
 40
4.0
 10
40.033559841579859
 20
77.15911458333332
 10
40.033559841579859
 20
77.15911458333332
 10
40.163612196180551
 20
77.15911458333332
 10
40.163612196180551
 20
77.15911458333332
 10
40.163612196180551
 20
77.15911458333332
 10
40.163612196180551
 20
77.028200954861106
 10
40.163612196180551
 20
77.028200954861106
 10
40.163612196180551
 20
77.028200954861106
 10
40.033559841579859
 20
77.028200954861106
 10
40.033559841579859
 20
77.028200954861106
 10
40.033559841579859
 20
77.028200954861106
 10
40.033559841579859
 20
77.15911458333332
 10
40.033559841579859
 20
77.15911458333332
 97
        0
 92
        1
 93
        1
 72
     4
 94
        3
 73
     0
 74
     0
 95
       17
 96
       13
 40
0.0
 40
0.0
 40
0.0
 40
0.0
 40
1.0
 40
1.0
 40
1.0
 40
2.0
 40
2.0
 40
2.0
 40
3.0
 40
3.0
 40
3.0
 40
4.0
 40
4.0
 40
4.0
 40
4.0
 10
38.990040418836799
 20
77.15911458333332
 10
38.990040418836799
 20
77.15911458333332
 10
39.641852484809021
 20
77.15911458333332
 10
39.641852484809021
 20
77.15911458333332
 10
39.641852484809021
 20
77.15911458333332
 10
39.641852484809021
 20
77.028200954861106
 10
39.641852484809021
 20
77.028200954861106
 10
39.641852484809021
 20
77.028200954861106
 10
38.990040418836799
 20
77.028200954861106
 10
38.990040418836799
 20
77.028200954861106
 10
38.990040418836799
 20
77.028200954861106
 10
38.990040418836799
 20
77.15911458333332
 10
38.990040418836799
 20
77.15911458333332
 97
        0
 92
        1
 93
        1
 72
     4
 94
        3
 73
     0
 74
     0
 95
       17
 96
       13
 40
0.0
 40
0.0
 40
0.0
 40
0.0
 40
1.0
 40
1.0
 40
1.0
 40
2.0
 40
2.0
 40
2.0
 40
3.0
 40
3.0
 40
3.0
 40
4.0
 40
4.0
 40
4.0
 40
4.0
 10
38.468625217013887
 20
77.15911458333332
 10
38.468625217013887
 20
77.15911458333332
 10
38.599194335937497
 20
77.15911458333332
 10
38.599194335937497
 20
77.15911458333332
 10
38.599194335937497
 20
77.15911458333332
 10
38.599194335937497
 20
77.028200954861106
 10
38.599194335937497
 20
77.028200954861106
 10
38.599194335937497
 20
77.028200954861106
 10
38.468625217013887
 20
77.028200954861106
 10
38.468625217013887
 20
77.028200954861106
 10
38.468625217013887
 20
77.028200954861106
 10
38.468625217013887
 20
77.15911458333332
 10
38.468625217013887
 20
77.15911458333332
 97
        0
 92
        1
 93
        1
 72
     4
 94
        3
 73
     0
 74
     0
 95
       17
 96
       13
 40
0.0
 40
0.0
 40
0.0
 40
0.0
 40
1.0
 40
1.0
 40
1.0
 40
2.0
 40
2.0
 40
2.0
 40
3.0
 40
3.0
 40
3.0
 40
4.0
 40
4.0
 40
4.0
 40
4.0
 10
37.425450303819439
 20
77.15911458333332
 10
37.425450303819439
 20
77.15911458333332
 10
38.077090115017356
 20
77.15911458333332
 10
38.077090115017356
 20
77.15911458333332
 10
38.077090115017356
 20
77.15911458333332
 10
38.077090115017356
 20
77.028200954861106
 10
38.077090115017356
 20
77.028200954861106
 10
38.077090115017356
 20
77.028200954861106
 10
37.425450303819439
 20
77.028200954861106
 10
37.425450303819439
 20
77.028200954861106
 10
37.425450303819439
 20
77.028200954861106
 10
37.425450303819439
 20
77.15911458333332
 10
37.425450303819439
 20
77.15911458333332
 97
        0
 92
        1
 93
        1
 72
     4
 94
        3
 73
     0
 74
     0
 95
       17
 96
       13
 40
0.0
 40
0.0
 40
0.0
 40
0.0
 40
1.0
 40
1.0
 40
1.0
 40
2.0
 40
2.0
 40
2.0
 40
3.0
 40
3.0
 40
3.0
 40
4.0
 40
4.0
 40
4.0
 40
4.0
 10
36.904035101996527
 20
77.15911458333332
 10
36.904035101996527
 20
77.15911458333332
 10
37.034259711371526
 20
77.15911458333332
 10
37.034259711371526
 20
77.15911458333332
 10
37.034259711371526
 20
77.15911458333332
 10
37.034259711371526
 20
77.028200954861106
 10
37.034259711371526
 20
77.028200954861106
 10
37.034259711371526
 20
77.028200954861106
 10
36.904035101996527
 20
77.028200954861106
 10
36.904035101996527
 20
77.028200954861106
 10
36.904035101996527
 20
77.028200954861106
 10
36.904035101996527
 20
77.15911458333332
 10
36.904035101996527
 20
77.15911458333332
 97
        0
 92
        1
 93
        1
 72
     4
 94
        3
 73
     0
 74
     0
 95
       17
 96
       13
 40
0.0
 40
0.0
 40
0.0
 40
0.0
 40
1.0
 40
1.0
 40
1.0
 40
2.0
 40
2.0
 40
2.0
 40
3.0
 40
3.0
 40
3.0
 40
4.0
 40
4.0
 40
4.0
 40
4.0
 10
35.860515679253467
 20
77.15911458333332
 10
35.860515679253467
 20
77.15911458333332
 10
36.512844509548607
 20
77.15911458333332
 10
36.512844509548607
 20
77.15911458333332
 10
36.512844509548607
 20
77.15911458333332
 10
36.512844509548607
 20
77.028200954861106
 10
36.512844509548607
 20
77.028200954861106
 10
36.512844509548607
 20
77.028200954861106
 10
35.860515679253467
 20
77.028200954861106
 10
35.860515679253467
 20
77.028200954861106
 10
35.860515679253467
 20
77.028200954861106
 10
35.860515679253467
 20
77.15911458333332
 10
35.860515679253467
 20
77.15911458333332
 97
        0
 92
        1
 93
        1
 72
     4
 94
        3
 73
     0
 74
     0
 95
       17
 96
       13
 40
0.0
 40
0.0
 40
0.0
 40
0.0
 40
1.0
 40
1.0
 40
1.0
 40
2.0
 40
2.0
 40
2.0
 40
3.0
 40
3.0
 40
3.0
 40
4.0
 40
4.0
 40
4.0
 40
4.0
 10
35.339100477430556
 20
77.15911458333332
 10
35.339100477430556
 20
77.15911458333332
 10
35.469669596354166
 20
77.15911458333332
 10
35.469669596354166
 20
77.15911458333332
 10
35.469669596354166
 20
77.15911458333332
 10
35.469669596354166
 20
77.028200954861106
 10
35.469669596354166
 20
77.028200954861106
 10
35.469669596354166
 20
77.028200954861106
 10
35.339100477430556
 20
77.028200954861106
 10
35.339100477430556
 20
77.028200954861106
 10
35.339100477430556
 20
77.028200954861106
 10
35.339100477430556
 20
77.15911458333332
 10
35.339100477430556
 20
77.15911458333332
 97
        0
 92
        1
 93
        1
 72
     4
 94
        3
 73
     0
 74
     0
 95
       17
 96
       13
 40
0.0
 40
0.0
 40
0.0
 40
0.0
 40
1.0
 40
1.0
 40
1.0
 40
2.0
 40
2.0
 40
2.0
 40
3.0
 40
3.0
 40
3.0
 40
4.0
 40
4.0
 40
4.0
 40
4.0
 10
34.295581054687496
 20
77.15911458333332
 10
34.295581054687496
 20
77.15911458333332
 10
34.947220865885413
 20
77.15911458333332
 10
34.947220865885413
 20
77.15911458333332
 10
34.947220865885413
 20
77.15911458333332
 10
34.947220865885413
 20
77.028200954861106
 10
34.947220865885413
 20
77.028200954861106
 10
34.947220865885413
 20
77.028200954861106
 10
34.295581054687496
 20
77.028200954861106
 10
34.295581054687496
 20
77.028200954861106
 10
34.295581054687496
 20
77.028200954861106
 10
34.295581054687496
 20
77.15911458333332
 10
34.295581054687496
 20
77.15911458333332
 97
        0
 92
        1
 93
        1
 72
     4
 94
        3
 73
     0
 74
     0
 95
       17
 96
       13
 40
0.0
 40
0.0
 40
0.0
 40
0.0
 40
1.0
 40
1.0
 40
1.0
 40
2.0
 40
2.0
 40
2.0
 40
3.0
 40
3.0
 40
3.0
 40
4.0
 40
4.0
 40
4.0
 40
4.0
 10
33.774165852864577
 20
77.15911458333332
 10
33.774165852864577
 20
77.15911458333332
 10
33.904734971788194
 20
77.15911458333332
 10
33.904734971788194
 20
77.15911458333332
 10
33.904734971788194
 20
77.15911458333332
 10
33.904734971788194
 20
77.028200954861106
 10
33.904734971788194
 20
77.028200954861106
 10
33.904734971788194
 20
77.028200954861106
 10
33.774165852864577
 20
77.028200954861106
 10
33.774165852864577
 20
77.028200954861106
 10
33.774165852864577
 20
77.028200954861106
 10
33.774165852864577
 20
77.15911458333332
 10
33.774165852864577
 20
77.15911458333332
 97
        0
 92
        1
 93
        1
 72
     4
 94
        3
 73
     0
 74
     0
 95
       17
 96
       13
 40
0.0
 40
0.0
 40
0.0
 40
0.0
 40
1.0
 40
1.0
 40
1.0
 40
2.0
 40
2.0
 40
2.0
 40
3.0
 40
3.0
 40
3.0
 40
4.0
 40
4.0
 40
4.0
 40
4.0
 10
32.730646430121524
 20
77.15911458333332
 10
32.730646430121524
 20
77.15911458333332
 10
33.382630750868053
 20
77.15911458333332
 10
33.382630750868053
 20
77.15911458333332
 10
33.382630750868053
 20
77.15911458333332
 10
33.382630750868053
 20
77.028200954861106
 10
33.382630750868053
 20
77.028200954861106
 10
33.382630750868053
 20
77.028200954861106
 10
32.730646430121524
 20
77.028200954861106
 10
32.730646430121524
 20
77.028200954861106
 10
32.730646430121524
 20
77.028200954861106
 10
32.730646430121524
 20
77.15911458333332
 10
32.730646430121524
 20
77.15911458333332
 97
        0
 92
        1
 93
        1
 72
     4
 94
        3
 73
     0
 74
     0
 95
       17
 96
       13
 40
0.0
 40
0.0
 40
0.0
 40
0.0
 40
1.0
 40
1.0
 40
1.0
 40
2.0
 40
2.0
 40
2.0
 40
3.0
 40
3.0
 40
3.0
 40
4.0
 40
4.0
 40
4.0
 40
4.0
 10
32.209575737847217
 20
77.15911458333332
 10
32.209575737847217
 20
77.15911458333332
 10
32.339800347222216
 20
77.15911458333332
 10
32.339800347222216
 20
77.15911458333332
 10
32.339800347222216
 20
77.15911458333332
 10
32.339800347222216
 20
77.028200954861106
 10
32.339800347222216
 20
77.028200954861106
 10
32.339800347222216
 20
77.028200954861106
 10
32.209575737847217
 20
77.028200954861106
 10
32.209575737847217
 20
77.028200954861106
 10
32.209575737847217
 20
77.028200954861106
 10
32.209575737847217
 20
77.15911458333332
 10
32.209575737847217
 20
77.15911458333332
 97
        0
 92
        1
 93
        1
 72
     4
 94
        3
 73
     0
 74
     0
 95
       17
 96
       13
 40
0.0
 40
0.0
 40
0.0
 40
0.0
 40
1.0
 40
1.0
 40
1.0
 40
2.0
 40
2.0
 40
2.0
 40
3.0
 40
3.0
 40
3.0
 40
4.0
 40
4.0
 40
4.0
 40
4.0
 10
31.166056315104164
 20
77.15911458333332
 10
31.166056315104164
 20
77.15911458333332
 10
31.818040635850693
 20
77.15911458333332
 10
31.818040635850693
 20
77.15911458333332
 10
31.818040635850693
 20
77.15911458333332
 10
31.818040635850693
 20
77.028200954861106
 10
31.818040635850693
 20
77.028200954861106
 10
31.818040635850693
 20
77.028200954861106
 10
31.166056315104164
 20
77.028200954861106
 10
31.166056315104164
 20
77.028200954861106
 10
31.166056315104164
 20
77.028200954861106
 10
31.166056315104164
 20
77.15911458333332
 10
31.166056315104164
 20
77.15911458333332
 97
        0
 92
        1
 93
        1
 72
     4
 94
        3
 73
     0
 74
     0
 95
       17
 96
       13
 40
0.0
 40
0.0
 40
0.0
 40
0.0
 40
1.0
 40
1.0
 40
1.0
 40
2.0
 40
2.0
 40
2.0
 40
3.0
 40
3.0
 40
3.0
 40
4.0
 40
4.0
 40
4.0
 40
4.0
 10
30.644296603732638
 20
77.15911458333332
 10
30.644296603732638
 20
77.15911458333332
 10
30.774865722656248
 20
77.15911458333332
 10
30.774865722656248
 20
77.15911458333332
 10
30.774865722656248
 20
77.15911458333332
 10
30.774865722656248
 20
77.028200954861106
 10
30.774865722656248
 20
77.028200954861106
 10
30.774865722656248
 20
77.028200954861106
 10
30.644296603732638
 20
77.028200954861106
 10
30.644296603732638
 20
77.028200954861106
 10
30.644296603732638
 20
77.028200954861106
 10
30.644296603732638
 20
77.15911458333332
 10
30.644296603732638
 20
77.15911458333332
 97
        0
 92
        1
 93
        1
 72
     4
 94
        3
 73
     0
 74
     0
 95
       17
 96
       13
 40
0.0
 40
0.0
 40
0.0
 40
0.0
 40
1.0
 40
1.0
 40
1.0
 40
2.0
 40
2.0
 40
2.0
 40
3.0
 40
3.0
 40
3.0
 40
4.0
 40
4.0
 40
4.0
 40
4.0
 10
29.601121690538193
 20
77.15911458333332
 10
29.601121690538193
 20
77.15911458333332
 10
30.253106011284718
 20
77.15911458333332
 10
30.253106011284718
 20
77.15911458333332
 10
30.253106011284718
 20
77.15911458333332
 10
30.253106011284718
 20
77.028200954861106
 10
30.253106011284718
 20
77.028200954861106
 10
30.253106011284718
 20
77.028200954861106
 10
29.601121690538193
 20
77.028200954861106
 10
29.601121690538193
 20
77.028200954861106
 10
29.601121690538193
 20
77.028200954861106
 10
29.601121690538193
 20
77.15911458333332
 10
29.601121690538193
 20
77.15911458333332
 97
        0
 92
        1
 93
        1
 72
     4
 94
        3
 73
     0
 74
     0
 95
       17
 96
       13
 40
0.0
 40
0.0
 40
0.0
 40
0.0
 40
1.0
 40
1.0
 40
1.0
 40
2.0
 40
2.0
 40
2.0
 40
3.0
 40
3.0
 40
3.0
 40
4.0
 40
4.0
 40
4.0
 40
4.0
 10
29.079361979166663
 20
77.15911458333332
 10
29.079361979166663
 20
77.15911458333332
 10
29.209931098090276
 20
77.15911458333332
 10
29.209931098090276
 20
77.15911458333332
 10
29.209931098090276
 20
77.15911458333332
 10
29.209931098090276
 20
77.028200954861106
 10
29.209931098090276
 20
77.028200954861106
 10
29.209931098090276
 20
77.028200954861106
 10
29.079361979166663
 20
77.028200954861106
 10
29.079361979166663
 20
77.028200954861106
 10
29.079361979166663
 20
77.028200954861106
 10
29.079361979166663
 20
77.15911458333332
 10
29.079361979166663
 20
77.15911458333332
 97
        0
 92
        1
 93
        1
 72
     4
 94
        3
 73
     0
 74
     0
 95
       17
 96
       13
 40
0.0
 40
0.0
 40
0.0
 40
0.0
 40
1.0
 40
1.0
 40
1.0
 40
2.0
 40
2.0
 40
2.0
 40
3.0
 40
3.0
 40
3.0
 40
4.0
 40
4.0
 40
4.0
 40
4.0
 10
28.03584255642361
 20
77.15911458333332
 10
28.03584255642361
 20
77.15911458333332
 10
28.688515896267358
 20
77.15911458333332
 10
28.688515896267358
 20
77.15911458333332
 10
28.688515896267358
 20
77.15911458333332
 10
28.688515896267358
 20
77.028200954861106
 10
28.688515896267358
 20
77.028200954861106
 10
28.688515896267358
 20
77.028200954861106
 10
28.03584255642361
 20
77.028200954861106
 10
28.03584255642361
 20
77.028200954861106
 10
28.03584255642361
 20
77.028200954861106
 10
28.03584255642361
 20
77.15911458333332
 10
28.03584255642361
 20
77.15911458333332
 97
        0
 92
        1
 93
        1
 72
     4
 94
        3
 73
     0
 74
     0
 95
       17
 96
       13
 40
0.0
 40
0.0
 40
0.0
 40
0.0
 40
1.0
 40
1.0
 40
1.0
 40
2.0
 40
2.0
 40
2.0
 40
3.0
 40
3.0
 40
3.0
 40
4.0
 40
4.0
 40
4.0
 40
4.0
 10
27.514427354600691
 20
77.15911458333332
 10
27.514427354600691
 20
77.15911458333332
 10
27.644996473524301
 20
77.15911458333332
 10
27.644996473524301
 20
77.15911458333332
 10
27.644996473524301
 20
77.15911458333332
 10
27.644996473524301
 20
77.028200954861106
 10
27.644996473524301
 20
77.028200954861106
 10
27.644996473524301
 20
77.028200954861106
 10
27.514427354600691
 20
77.028200954861106
 10
27.514427354600691
 20
77.028200954861106
 10
27.514427354600691
 20
77.028200954861106
 10
27.514427354600691
 20
77.15911458333332
 10
27.514427354600691
 20
77.15911458333332
 97
        0
 92
        1
 93
        1
 72
     4
 94
        3
 73
     0
 74
     0
 95
       17
 96
       13
 40
0.0
 40
0.0
 40
0.0
 40
0.0
 40
1.0
 40
1.0
 40
1.0
 40
2.0
 40
2.0
 40
2.0
 40
3.0
 40
3.0
 40
3.0
 40
4.0
 40
4.0
 40
4.0
 40
4.0
 10
26.471252441406246
 20
77.15911458333332
 10
26.471252441406246
 20
77.15911458333332
 10
27.123581271701386
 20
77.15911458333332
 10
27.123581271701386
 20
77.15911458333332
 10
27.123581271701386
 20
77.15911458333332
 10
27.123581271701386
 20
77.028200954861106
 10
27.123581271701386
 20
77.028200954861106
 10
27.123581271701386
 20
77.028200954861106
 10
26.471252441406246
 20
77.028200954861106
 10
26.471252441406246
 20
77.028200954861106
 10
26.471252441406246
 20
77.028200954861106
 10
26.471252441406246
 20
77.15911458333332
 10
26.471252441406246
 20
77.15911458333332
 97
        0
 92
        1
 93
        1
 72
     4
 94
        3
 73
     0
 74
     0
 95
       17
 96
       13
 40
0.0
 40
0.0
 40
0.0
 40
0.0
 40
1.0
 40
1.0
 40
1.0
 40
2.0
 40
2.0
 40
2.0
 40
3.0
 40
3.0
 40
3.0
 40
4.0
 40
4.0
 40
4.0
 40
4.0
 10
25.949837239583331
 20
77.15911458333332
 10
25.949837239583331
 20
77.15911458333332
 10
26.080406358506941
 20
77.15911458333332
 10
26.080406358506941
 20
77.15911458333332
 10
26.080406358506941
 20
77.15911458333332
 10
26.080406358506941
 20
77.028200954861106
 10
26.080406358506941
 20
77.028200954861106
 10
26.080406358506941
 20
77.028200954861106
 10
25.949837239583331
 20
77.028200954861106
 10
25.949837239583331
 20
77.028200954861106
 10
25.949837239583331
 20
77.028200954861106
 10
25.949837239583331
 20
77.15911458333332
 10
25.949837239583331
 20
77.15911458333332
 97
        0
 92
        1
 93
        1
 72
     4
 94
        3
 73
     0
 74
     0
 95
       17
 96
       13
 40
0.0
 40
0.0
 40
0.0
 40
0.0
 40
1.0
 40
1.0
 40
1.0
 40
2.0
 40
2.0
 40
2.0
 40
3.0
 40
3.0
 40
3.0
 40
4.0
 40
4.0
 40
4.0
 40
4.0
 10
24.906317816840275
 20
77.15911458333332
 10
24.906317816840275
 20
77.15911458333332
 10
25.558302137586804
 20
77.15911458333332
 10
25.558302137586804
 20
77.15911458333332
 10
25.558302137586804
 20
77.15911458333332
 10
25.558302137586804
 20
77.028200954861106
 10
25.558302137586804
 20
77.028200954861106
 10
25.558302137586804
 20
77.028200954861106
 10
24.906317816840275
 20
77.028200954861106
 10
24.906317816840275
 20
77.028200954861106
 10
24.906317816840275
 20
77.028200954861106
 10
24.906317816840275
 20
77.15911458333332
 10
24.906317816840275
 20
77.15911458333332
 97
        0
 92
        1
 93
        1
 72
     4
 94
        3
 73
     0
 74
     0
 95
       17
 96
       13
 40
0.0
 40
0.0
 40
0.0
 40
0.0
 40
1.0
 40
1.0
 40
1.0
 40
2.0
 40
2.0
 40
2.0
 40
3.0
 40
3.0
 40
3.0
 40
4.0
 40
4.0
 40
4.0
 40
4.0
 10
24.384730360243054
 20
77.15911458333332
 10
24.384730360243054
 20
77.15911458333332
 10
24.515127224392359
 20
77.15911458333332
 10
24.515127224392359
 20
77.15911458333332
 10
24.515127224392359
 20
77.15911458333332
 10
24.515127224392359
 20
77.028200954861106
 10
24.515127224392359
 20
77.028200954861106
 10
24.515127224392359
 20
77.028200954861106
 10
24.384730360243054
 20
77.028200954861106
 10
24.384730360243054
 20
77.028200954861106
 10
24.384730360243054
 20
77.028200954861106
 10
24.384730360243054
 20
77.15911458333332
 10
24.384730360243054
 20
77.15911458333332
 97
        0
 92
        1
 93
        1
 72
     4
 94
        3
 73
     0
 74
     0
 95
       17
 96
       13
 40
0.0
 40
0.0
 40
0.0
 40
0.0
 40
1.0
 40
1.0
 40
1.0
 40
2.0
 40
2.0
 40
2.0
 40
3.0
 40
3.0
 40
3.0
 40
4.0
 40
4.0
 40
4.0
 40
4.0
 10
23.341899956597221
 20
77.15911458333332
 10
23.341899956597221
 20
77.15911458333332
 10
23.993367513020832
 20
77.15911458333332
 10
23.993367513020832
 20
77.15911458333332
 10
23.993367513020832
 20
77.15911458333332
 10
23.993367513020832
 20
77.028200954861106
 10
23.993367513020832
 20
77.028200954861106
 10
23.993367513020832
 20
77.028200954861106
 10
23.341899956597221
 20
77.028200954861106
 10
23.341899956597221
 20
77.028200954861106
 10
23.341899956597221
 20
77.028200954861106
 10
23.341899956597221
 20
77.15911458333332
 10
23.341899956597221
 20
77.15911458333332
 97
        0
 92
        1
 93
        1
 72
     4
 94
        3
 73
     0
 74
     0
 95
       17
 96
       13
 40
0.0
 40
0.0
 40
0.0
 40
0.0
 40
1.0
 40
1.0
 40
1.0
 40
2.0
 40
2.0
 40
2.0
 40
3.0
 40
3.0
 40
3.0
 40
4.0
 40
4.0
 40
4.0
 40
4.0
 10
22.820140245225691
 20
77.15911458333332
 10
22.820140245225691
 20
77.15911458333332
 10
22.950192599826387
 20
77.15911458333332
 10
22.950192599826387
 20
77.15911458333332
 10
22.950192599826387
 20
77.15911458333332
 10
22.950192599826387
 20
77.028200954861106
 10
22.950192599826387
 20
77.028200954861106
 10
22.950192599826387
 20
77.028200954861106
 10
22.820140245225691
 20
77.028200954861106
 10
22.820140245225691
 20
77.028200954861106
 10
22.820140245225691
 20
77.028200954861106
 10
22.820140245225691
 20
77.15911458333332
 10
22.820140245225691
 20
77.15911458333332
 97
        0
 92
        1
 93
        1
 72
     4
 94
        3
 73
     0
 74
     0
 95
       17
 96
       13
 40
0.0
 40
0.0
 40
0.0
 40
0.0
 40
1.0
 40
1.0
 40
1.0
 40
2.0
 40
2.0
 40
2.0
 40
3.0
 40
3.0
 40
3.0
 40
4.0
 40
4.0
 40
4.0
 40
4.0
 10
21.776965332031249
 20
77.15911458333332
 10
21.776965332031249
 20
77.15911458333332
 10
22.428777398003469
 20
77.15911458333332
 10
22.428777398003469
 20
77.15911458333332
 10
22.428777398003469
 20
77.15911458333332
 10
22.428777398003469
 20
77.028200954861106
 10
22.428777398003469
 20
77.028200954861106
 10
22.428777398003469
 20
77.028200954861106
 10
21.776965332031249
 20
77.028200954861106
 10
21.776965332031249
 20
77.028200954861106
 10
21.776965332031249
 20
77.028200954861106
 10
21.776965332031249
 20
77.15911458333332
 10
21.776965332031249
 20
77.15911458333332
 97
        0
 92
        1
 93
        1
 72
     4
 94
        3
 73
     0
 74
     0
 95
       17
 96
       13
 40
0.0
 40
0.0
 40
0.0
 40
0.0
 40
1.0
 40
1.0
 40
1.0
 40
2.0
 40
2.0
 40
2.0
 40
3.0
 40
3.0
 40
3.0
 40
4.0
 40
4.0
 40
4.0
 40
4.0
 10
21.255205620659719
 20
77.15911458333332
 10
21.255205620659719
 20
77.15911458333332
 10
21.385257975260416
 20
77.15911458333332
 10
21.385257975260416
 20
77.15911458333332
 10
21.385257975260416
 20
77.15911458333332
 10
21.385257975260416
 20
77.028200954861106
 10
21.385257975260416
 20
77.028200954861106
 10
21.385257975260416
 20
77.028200954861106
 10
21.255205620659719
 20
77.028200954861106
 10
21.255205620659719
 20
77.028200954861106
 10
21.255205620659719
 20
77.028200954861106
 10
21.255205620659719
 20
77.15911458333332
 10
21.255205620659719
 20
77.15911458333332
 97
        0
 92
        1
 93
        1
 72
     4
 94
        3
 73
     0
 74
     0
 95
       17
 96
       13
 40
0.0
 40
0.0
 40
0.0
 40
0.0
 40
1.0
 40
1.0
 40
1.0
 40
2.0
 40
2.0
 40
2.0
 40
3.0
 40
3.0
 40
3.0
 40
4.0
 40
4.0
 40
4.0
 40
4.0
 10
20.212030707465274
 20
77.15911458333332
 10
20.212030707465274
 20
77.15911458333332
 10
20.863498263888886
 20
77.15911458333332
 10
20.863498263888886
 20
77.15911458333332
 10
20.863498263888886
 20
77.15911458333332
 10
20.863498263888886
 20
77.028200954861106
 10
20.863498263888886
 20
77.028200954861106
 10
20.863498263888886
 20
77.028200954861106
 10
20.212030707465274
 20
77.028200954861106
 10
20.212030707465274
 20
77.028200954861106
 10
20.212030707465274
 20
77.028200954861106
 10
20.212030707465274
 20
77.15911458333332
 10
20.212030707465274
 20
77.15911458333332
 97
        0
 92
        1
 93
        1
 72
     4
 94
        3
 73
     0
 74
     0
 95
       17
 96
       13
 40
0.0
 40
0.0
 40
0.0
 40
0.0
 40
1.0
 40
1.0
 40
1.0
 40
2.0
 40
2.0
 40
2.0
 40
3.0
 40
3.0
 40
3.0
 40
4.0
 40
4.0
 40
4.0
 40
4.0
 10
19.689926486545136
 20
77.15911458333332
 10
19.689926486545136
 20
77.15911458333332
 10
19.820840115017358
 20
77.15911458333332
 10
19.820840115017358
 20
77.15911458333332
 10
19.820840115017358
 20
77.15911458333332
 10
19.820840115017358
 20
77.028200954861106
 10
19.820840115017358
 20
77.028200954861106
 10
19.820840115017358
 20
77.028200954861106
 10
19.689926486545136
 20
77.028200954861106
 10
19.689926486545136
 20
77.028200954861106
 10
19.689926486545136
 20
77.028200954861106
 10
19.689926486545136
 20
77.15911458333332
 10
19.689926486545136
 20
77.15911458333332
 97
        0
 92
        1
 93
        1
 72
     4
 94
        3
 73
     0
 74
     0
 95
       17
 96
       13
 40
0.0
 40
0.0
 40
0.0
 40
0.0
 40
1.0
 40
1.0
 40
1.0
 40
2.0
 40
2.0
 40
2.0
 40
3.0
 40
3.0
 40
3.0
 40
4.0
 40
4.0
 40
4.0
 40
4.0
 10
18.647096082899303
 20
77.15911458333332
 10
18.647096082899303
 20
77.15911458333332
 10
19.299080403645831
 20
77.15911458333332
 10
19.299080403645831
 20
77.15911458333332
 10
19.299080403645831
 20
77.15911458333332
 10
19.299080403645831
 20
77.028200954861106
 10
19.299080403645831
 20
77.028200954861106
 10
19.299080403645831
 20
77.028200954861106
 10
18.647096082899303
 20
77.028200954861106
 10
18.647096082899303
 20
77.028200954861106
 10
18.647096082899303
 20
77.028200954861106
 10
18.647096082899303
 20
77.15911458333332
 10
18.647096082899303
 20
77.15911458333332
 97
        0
 92
        1
 93
        1
 72
     4
 94
        3
 73
     0
 74
     0
 95
       17
 96
       13
 40
0.0
 40
0.0
 40
0.0
 40
0.0
 40
1.0
 40
1.0
 40
1.0
 40
2.0
 40
2.0
 40
2.0
 40
3.0
 40
3.0
 40
3.0
 40
4.0
 40
4.0
 40
4.0
 40
4.0
 10
18.125680881076388
 20
77.15911458333332
 10
18.125680881076388
 20
77.15911458333332
 10
18.255905490451386
 20
77.15911458333332
 10
18.255905490451386
 20
77.15911458333332
 10
18.255905490451386
 20
77.15911458333332
 10
18.255905490451386
 20
77.028200954861106
 10
18.255905490451386
 20
77.028200954861106
 10
18.255905490451386
 20
77.028200954861106
 10
18.125680881076388
 20
77.028200954861106
 10
18.125680881076388
 20
77.028200954861106
 10
18.125680881076388
 20
77.028200954861106
 10
18.125680881076388
 20
77.15911458333332
 10
18.125680881076388
 20
77.15911458333332
 97
        0
 92
        1
 93
        1
 72
     4
 94
        3
 73
     0
 74
     0
 95
       17
 96
       13
 40
0.0
 40
0.0
 40
0.0
 40
0.0
 40
1.0
 40
1.0
 40
1.0
 40
2.0
 40
2.0
 40
2.0
 40
3.0
 40
3.0
 40
3.0
 40
4.0
 40
4.0
 40
4.0
 40
4.0
 10
17.082161458333331
 20
77.15911458333332
 10
17.082161458333331
 20
77.15911458333332
 10
17.73414577907986
 20
77.15911458333332
 10
17.73414577907986
 20
77.15911458333332
 10
17.73414577907986
 20
77.15911458333332
 10
17.73414577907986
 20
77.028200954861106
 10
17.73414577907986
 20
77.028200954861106
 10
17.73414577907986
 20
77.028200954861106
 10
17.082161458333331
 20
77.028200954861106
 10
17.082161458333331
 20
77.028200954861106
 10
17.082161458333331
 20
77.028200954861106
 10
17.082161458333331
 20
77.15911458333332
 10
17.082161458333331
 20
77.15911458333332
 97
        0
 92
        1
 93
        1
 72
     4
 94
        3
 73
     0
 74
     0
 95
       17
 96
       13
 40
0.0
 40
0.0
 40
0.0
 40
0.0
 40
1.0
 40
1.0
 40
1.0
 40
2.0
 40
2.0
 40
2.0
 40
3.0
 40
3.0
 40
3.0
 40
4.0
 40
4.0
 40
4.0
 40
4.0
 10
16.560401746961805
 20
77.15911458333332
 10
16.560401746961805
 20
77.15911458333332
 10
16.690626356336804
 20
77.15911458333332
 10
16.690626356336804
 20
77.15911458333332
 10
16.690626356336804
 20
77.15911458333332
 10
16.690626356336804
 20
77.028200954861106
 10
16.690626356336804
 20
77.028200954861106
 10
16.690626356336804
 20
77.028200954861106
 10
16.560401746961805
 20
77.028200954861106
 10
16.560401746961805
 20
77.028200954861106
 10
16.560401746961805
 20
77.028200954861106
 10
16.560401746961805
 20
77.15911458333332
 10
16.560401746961805
 20
77.15911458333332
 97
        0
 92
        1
 93
        1
 72
     4
 94
        3
 73
     0
 74
     0
 95
       17
 96
       13
 40
0.0
 40
0.0
 40
0.0
 40
0.0
 40
1.0
 40
1.0
 40
1.0
 40
2.0
 40
2.0
 40
2.0
 40
3.0
 40
3.0
 40
3.0
 40
4.0
 40
4.0
 40
4.0
 40
4.0
 10
15.517571343315971
 20
77.15911458333332
 10
15.517571343315971
 20
77.15911458333332
 10
16.169211154513889
 20
77.15911458333332
 10
16.169211154513889
 20
77.15911458333332
 10
16.169211154513889
 20
77.15911458333332
 10
16.169211154513889
 20
77.028200954861106
 10
16.169211154513889
 20
77.028200954861106
 10
16.169211154513889
 20
77.028200954861106
 10
15.517571343315971
 20
77.028200954861106
 10
15.517571343315971
 20
77.028200954861106
 10
15.517571343315971
 20
77.028200954861106
 10
15.517571343315971
 20
77.15911458333332
 10
15.517571343315971
 20
77.15911458333332
 97
        0
 92
        1
 93
        1
 72
     4
 94
        3
 73
     0
 74
     0
 95
       17
 96
       13
 40
0.0
 40
0.0
 40
0.0
 40
0.0
 40
1.0
 40
1.0
 40
1.0
 40
2.0
 40
2.0
 40
2.0
 40
3.0
 40
3.0
 40
3.0
 40
4.0
 40
4.0
 40
4.0
 40
4.0
 10
39.030175781249994
 20
52.946294487847219
 10
39.030175781249994
 20
52.946294487847219
 10
38.899606662326384
 20
52.946294487847219
 10
38.899606662326384
 20
52.946294487847219
 10
38.899606662326384
 20
52.946294487847219
 10
38.899606662326384
 20
53.598795572916664
 10
38.899606662326384
 20
53.598795572916664
 10
38.899606662326384
 20
53.598795572916664
 10
39.030175781249994
 20
53.598795572916664
 10
39.030175781249994
 20
53.598795572916664
 10
39.030175781249994
 20
53.598795572916664
 10
39.030175781249994
 20
52.946294487847219
 10
39.030175781249994
 20
52.946294487847219
 97
        0
 92
        1
 93
        1
 72
     4
 94
        3
 73
     0
 74
     0
 95
       17
 96
       13
 40
0.0
 40
0.0
 40
0.0
 40
0.0
 40
1.0
 40
1.0
 40
1.0
 40
2.0
 40
2.0
 40
2.0
 40
3.0
 40
3.0
 40
3.0
 40
4.0
 40
4.0
 40
4.0
 40
4.0
 10
39.030175781249994
 20
53.98946940104166
 10
39.030175781249994
 20
53.98946940104166
 10
38.899606662326384
 20
53.98946940104166
 10
38.899606662326384
 20
53.98946940104166
 10
38.899606662326384
 20
53.98946940104166
 10
38.899606662326384
 20
54.119694010416659
 10
38.899606662326384
 20
54.119694010416659
 10
38.899606662326384
 20
54.119694010416659
 10
39.030175781249994
 20
54.119694010416659
 10
39.030175781249994
 20
54.119694010416659
 10
39.030175781249994
 20
54.119694010416659
 10
39.030175781249994
 20
53.98946940104166
 10
39.030175781249994
 20
53.98946940104166
 97
        0
 92
        1
 93
        1
 72
     4
 94
        3
 73
     0
 74
     0
 95
       17
 96
       13
 40
0.0
 40
0.0
 40
0.0
 40
0.0
 40
1.0
 40
1.0
 40
1.0
 40
2.0
 40
2.0
 40
2.0
 40
3.0
 40
3.0
 40
3.0
 40
4.0
 40
4.0
 40
4.0
 40
4.0
 10
39.030175781249994
 20
54.511745876736107
 10
39.030175781249994
 20
54.511745876736107
 10
38.899606662326384
 20
54.511745876736107
 10
38.899606662326384
 20
54.511745876736107
 10
38.899606662326384
 20
54.511745876736107
 10
38.899606662326384
 20
55.16355794270833
 10
38.899606662326384
 20
55.16355794270833
 10
38.899606662326384
 20
55.16355794270833
 10
39.030175781249994
 20
55.16355794270833
 10
39.030175781249994
 20
55.16355794270833
 10
39.030175781249994
 20
55.16355794270833
 10
39.030175781249994
 20
54.511745876736107
 10
39.030175781249994
 20
54.511745876736107
 97
        0
 92
        1
 93
        1
 72
     4
 94
        3
 73
     0
 74
     0
 95
       17
 96
       13
 40
0.0
 40
0.0
 40
0.0
 40
0.0
 40
1.0
 40
1.0
 40
1.0
 40
2.0
 40
2.0
 40
2.0
 40
3.0
 40
3.0
 40
3.0
 40
4.0
 40
4.0
 40
4.0
 40
4.0
 10
39.030175781249994
 20
55.554920789930549
 10
39.030175781249994
 20
55.554920789930549
 10
38.899606662326384
 20
55.554920789930549
 10
38.899606662326384
 20
55.554920789930549
 10
38.899606662326384
 20
55.554920789930549
 10
38.899606662326384
 20
55.685145399305547
 10
38.899606662326384
 20
55.685145399305547
 10
38.899606662326384
 20
55.685145399305547
 10
39.030175781249994
 20
55.685145399305547
 10
39.030175781249994
 20
55.685145399305547
 10
39.030175781249994
 20
55.685145399305547
 10
39.030175781249994
 20
55.554920789930549
 10
39.030175781249994
 20
55.554920789930549
 97
        0
 92
        1
 93
        1
 72
     4
 94
        3
 73
     0
 74
     0
 95
       17
 96
       13
 40
0.0
 40
0.0
 40
0.0
 40
0.0
 40
1.0
 40
1.0
 40
1.0
 40
2.0
 40
2.0
 40
2.0
 40
3.0
 40
3.0
 40
3.0
 40
4.0
 40
4.0
 40
4.0
 40
4.0
 10
39.030175781249994
 20
56.076508246527773
 10
39.030175781249994
 20
56.076508246527773
 10
38.899606662326384
 20
56.076508246527773
 10
38.899606662326384
 20
56.076508246527773
 10
38.899606662326384
 20
56.076508246527773
 10
38.899606662326384
 20
56.728320312499996
 10
38.899606662326384
 20
56.728320312499996
 10
38.899606662326384
 20
56.728320312499996
 10
39.030175781249994
 20
56.728320312499996
 10
39.030175781249994
 20
56.728320312499996
 10
39.030175781249994
 20
56.728320312499996
 10
39.030175781249994
 20
56.076508246527773
 10
39.030175781249994
 20
56.076508246527773
 97
        0
 92
        1
 93
        1
 72
     4
 94
        3
 73
     0
 74
     0
 95
       17
 96
       13
 40
0.0
 40
0.0
 40
0.0
 40
0.0
 40
1.0
 40
1.0
 40
1.0
 40
2.0
 40
2.0
 40
2.0
 40
3.0
 40
3.0
 40
3.0
 40
4.0
 40
4.0
 40
4.0
 40
4.0
 10
39.030175781249994
 20
57.119683159722214
 10
39.030175781249994
 20
57.119683159722214
 10
38.899606662326384
 20
57.119683159722214
 10
38.899606662326384
 20
57.119683159722214
 10
38.899606662326384
 20
57.119683159722214
 10
38.899606662326384
 20
57.24990776909722
 10
38.899606662326384
 20
57.24990776909722
 10
38.899606662326384
 20
57.24990776909722
 10
39.030175781249994
 20
57.24990776909722
 10
39.030175781249994
 20
57.24990776909722
 10
39.030175781249994
 20
57.24990776909722
 10
39.030175781249994
 20
57.119683159722214
 10
39.030175781249994
 20
57.119683159722214
 97
        0
 92
        1
 93
        1
 72
     4
 94
        3
 73
     0
 74
     0
 95
       17
 96
       13
 40
0.0
 40
0.0
 40
0.0
 40
0.0
 40
1.0
 40
1.0
 40
1.0
 40
2.0
 40
2.0
 40
2.0
 40
3.0
 40
3.0
 40
3.0
 40
4.0
 40
4.0
 40
4.0
 40
4.0
 10
39.030175781249994
 20
57.641270616319439
 10
39.030175781249994
 20
57.641270616319439
 10
38.899606662326384
 20
57.641270616319439
 10
38.899606662326384
 20
57.641270616319439
 10
38.899606662326384
 20
57.641270616319439
 10
38.899606662326384
 20
58.293082682291661
 10
38.899606662326384
 20
58.293082682291661
 10
38.899606662326384
 20
58.293082682291661
 10
39.030175781249994
 20
58.293082682291661
 10
39.030175781249994
 20
58.293082682291661
 10
39.030175781249994
 20
58.293082682291661
 10
39.030175781249994
 20
57.641270616319439
 10
39.030175781249994
 20
57.641270616319439
 97
        0
 92
        1
 93
        1
 72
     4
 94
        3
 73
     0
 74
     0
 95
       17
 96
       13
 40
0.0
 40
0.0
 40
0.0
 40
0.0
 40
1.0
 40
1.0
 40
1.0
 40
2.0
 40
2.0
 40
2.0
 40
3.0
 40
3.0
 40
3.0
 40
4.0
 40
4.0
 40
4.0
 40
4.0
 10
39.030175781249994
 20
58.683756510416664
 10
39.030175781249994
 20
58.683756510416664
 10
38.899606662326384
 20
58.683756510416664
 10
38.899606662326384
 20
58.683756510416664
 10
38.899606662326384
 20
58.683756510416664
 10
38.899606662326384
 20
58.814670138888886
 10
38.899606662326384
 20
58.814670138888886
 10
38.899606662326384
 20
58.814670138888886
 10
39.030175781249994
 20
58.814670138888886
 10
39.030175781249994
 20
58.814670138888886
 10
39.030175781249994
 20
58.814670138888886
 10
39.030175781249994
 20
58.683756510416664
 10
39.030175781249994
 20
58.683756510416664
 97
        0
 92
        1
 93
        1
 72
     4
 94
        3
 73
     0
 74
     0
 95
       17
 96
       13
 40
0.0
 40
0.0
 40
0.0
 40
0.0
 40
1.0
 40
1.0
 40
1.0
 40
2.0
 40
2.0
 40
2.0
 40
3.0
 40
3.0
 40
3.0
 40
4.0
 40
4.0
 40
4.0
 40
4.0
 10
39.030175781249994
 20
59.206032986111104
 10
39.030175781249994
 20
59.206032986111104
 10
38.899606662326384
 20
59.206032986111104
 10
38.899606662326384
 20
59.206032986111104
 10
38.899606662326384
 20
59.206032986111104
 10
38.899606662326384
 20
59.857156032986104
 10
38.899606662326384
 20
59.857156032986104
 10
38.899606662326384
 20
59.857156032986104
 10
39.030175781249994
 20
59.857156032986104
 10
39.030175781249994
 20
59.857156032986104
 10
39.030175781249994
 20
59.857156032986104
 10
39.030175781249994
 20
59.206032986111104
 10
39.030175781249994
 20
59.206032986111104
 97
        0
 92
        1
 93
        1
 72
     4
 94
        3
 73
     0
 74
     0
 95
       17
 96
       13
 40
0.0
 40
0.0
 40
0.0
 40
0.0
 40
1.0
 40
1.0
 40
1.0
 40
2.0
 40
2.0
 40
2.0
 40
3.0
 40
3.0
 40
3.0
 40
4.0
 40
4.0
 40
4.0
 40
4.0
 10
39.030175781249994
 20
60.249207899305553
 10
39.030175781249994
 20
60.249207899305553
 10
38.899606662326384
 20
60.249207899305553
 10
38.899606662326384
 20
60.249207899305553
 10
38.899606662326384
 20
60.249207899305553
 10
38.899606662326384
 20
60.379432508680551
 10
38.899606662326384
 20
60.379432508680551
 10
38.899606662326384
 20
60.379432508680551
 10
39.030175781249994
 20
60.379432508680551
 10
39.030175781249994
 20
60.379432508680551
 10
39.030175781249994
 20
60.379432508680551
 10
39.030175781249994
 20
60.249207899305553
 10
39.030175781249994
 20
60.249207899305553
 97
        0
 92
        1
 93
        1
 72
     4
 94
        3
 73
     0
 74
     0
 95
       17
 96
       13
 40
0.0
 40
0.0
 40
0.0
 40
0.0
 40
1.0
 40
1.0
 40
1.0
 40
2.0
 40
2.0
 40
2.0
 40
3.0
 40
3.0
 40
3.0
 40
4.0
 40
4.0
 40
4.0
 40
4.0
 10
39.030175781249994
 20
60.77079535590277
 10
39.030175781249994
 20
60.77079535590277
 10
38.899606662326384
 20
60.77079535590277
 10
38.899606662326384
 20
60.77079535590277
 10
38.899606662326384
 20
60.77079535590277
 10
38.899606662326384
 20
61.422607421874993
 10
38.899606662326384
 20
61.422607421874993
 10
38.899606662326384
 20
61.422607421874993
 10
39.030175781249994
 20
61.422607421874993
 10
39.030175781249994
 20
61.422607421874993
 10
39.030175781249994
 20
61.422607421874993
 10
39.030175781249994
 20
60.77079535590277
 10
39.030175781249994
 20
60.77079535590277
 97
        0
 92
        1
 93
        1
 72
     4
 94
        3
 73
     0
 74
     0
 95
       17
 96
       13
 40
0.0
 40
0.0
 40
0.0
 40
0.0
 40
1.0
 40
1.0
 40
1.0
 40
2.0
 40
2.0
 40
2.0
 40
3.0
 40
3.0
 40
3.0
 40
4.0
 40
4.0
 40
4.0
 40
4.0
 10
39.030175781249994
 20
61.813970269097219
 10
39.030175781249994
 20
61.813970269097219
 10
38.899606662326384
 20
61.813970269097219
 10
38.899606662326384
 20
61.813970269097219
 10
38.899606662326384
 20
61.813970269097219
 10
38.899606662326384
 20
61.944194878472217
 10
38.899606662326384
 20
61.944194878472217
 10
38.899606662326384
 20
61.944194878472217
 10
39.030175781249994
 20
61.944194878472217
 10
39.030175781249994
 20
61.944194878472217
 10
39.030175781249994
 20
61.944194878472217
 10
39.030175781249994
 20
61.813970269097219
 10
39.030175781249994
 20
61.813970269097219
 97
        0
 92
        1
 93
        1
 72
     4
 94
        3
 73
     0
 74
     0
 95
       17
 96
       13
 40
0.0
 40
0.0
 40
0.0
 40
0.0
 40
1.0
 40
1.0
 40
1.0
 40
2.0
 40
2.0
 40
2.0
 40
3.0
 40
3.0
 40
3.0
 40
4.0
 40
4.0
 40
4.0
 40
4.0
 10
39.030175781249994
 20
62.335557725694436
 10
39.030175781249994
 20
62.335557725694436
 10
38.899606662326384
 20
62.335557725694436
 10
38.899606662326384
 20
62.335557725694436
 10
38.899606662326384
 20
62.335557725694436
 10
38.899606662326384
 20
62.987369791666659
 10
38.899606662326384
 20
62.987369791666659
 10
38.899606662326384
 20
62.987369791666659
 10
39.030175781249994
 20
62.987369791666659
 10
39.030175781249994
 20
62.987369791666659
 10
39.030175781249994
 20
62.987369791666659
 10
39.030175781249994
 20
62.335557725694436
 10
39.030175781249994
 20
62.335557725694436
 97
        0
 92
        1
 93
        1
 72
     4
 94
        3
 73
     0
 74
     0
 95
       17
 96
       13
 40
0.0
 40
0.0
 40
0.0
 40
0.0
 40
1.0
 40
1.0
 40
1.0
 40
2.0
 40
2.0
 40
2.0
 40
3.0
 40
3.0
 40
3.0
 40
4.0
 40
4.0
 40
4.0
 40
4.0
 10
39.030175781249994
 20
63.378732638888884
 10
39.030175781249994
 20
63.378732638888884
 10
38.899606662326384
 20
63.378732638888884
 10
38.899606662326384
 20
63.378732638888884
 10
38.899606662326384
 20
63.378732638888884
 10
38.899606662326384
 20
63.509646267361106
 10
38.899606662326384
 20
63.509646267361106
 10
38.899606662326384
 20
63.509646267361106
 10
39.030175781249994
 20
63.509646267361106
 10
39.030175781249994
 20
63.509646267361106
 10
39.030175781249994
 20
63.509646267361106
 10
39.030175781249994
 20
63.378732638888884
 10
39.030175781249994
 20
63.378732638888884
 97
        0
 92
        1
 93
        1
 72
     4
 94
        3
 73
     0
 74
     0
 95
       17
 96
       13
 40
0.0
 40
0.0
 40
0.0
 40
0.0
 40
1.0
 40
1.0
 40
1.0
 40
2.0
 40
2.0
 40
2.0
 40
3.0
 40
3.0
 40
3.0
 40
4.0
 40
4.0
 40
4.0
 40
4.0
 10
39.030175781249994
 20
63.900320095486109
 10
39.030175781249994
 20
63.900320095486109
 10
38.899606662326384
 20
63.900320095486109
 10
38.899606662326384
 20
63.900320095486109
 10
38.899606662326384
 20
63.900320095486109
 10
38.899606662326384
 20
64.552821180555554
 10
38.899606662326384
 20
64.552821180555554
 10
38.899606662326384
 20
64.552821180555554
 10
39.030175781249994
 20
64.552821180555554
 10
39.030175781249994
 20
64.552821180555554
 10
39.030175781249994
 20
64.552821180555554
 10
39.030175781249994
 20
63.900320095486109
 10
39.030175781249994
 20
63.900320095486109
 97
        0
 92
        1
 93
        1
 72
     4
 94
        3
 73
     0
 74
     0
 95
       17
 96
       13
 40
0.0
 40
0.0
 40
0.0
 40
0.0
 40
1.0
 40
1.0
 40
1.0
 40
2.0
 40
2.0
 40
2.0
 40
3.0
 40
3.0
 40
3.0
 40
4.0
 40
4.0
 40
4.0
 40
4.0
 10
39.030175781249994
 20
64.944184027777766
 10
39.030175781249994
 20
64.944184027777766
 10
38.899606662326384
 20
64.944184027777766
 10
38.899606662326384
 20
64.944184027777766
 10
38.899606662326384
 20
64.944184027777766
 10
38.899606662326384
 20
65.073719618055549
 10
38.899606662326384
 20
65.073719618055549
 10
38.899606662326384
 20
65.073719618055549
 10
39.030175781249994
 20
65.073719618055549
 10
39.030175781249994
 20
65.073719618055549
 10
39.030175781249994
 20
65.073719618055549
 10
39.030175781249994
 20
64.944184027777766
 10
39.030175781249994
 20
64.944184027777766
 97
        0
 92
        1
 93
        1
 72
     4
 94
        3
 73
     0
 74
     0
 95
       17
 96
       13
 40
0.0
 40
0.0
 40
0.0
 40
0.0
 40
1.0
 40
1.0
 40
1.0
 40
2.0
 40
2.0
 40
2.0
 40
3.0
 40
3.0
 40
3.0
 40
4.0
 40
4.0
 40
4.0
 40
4.0
 10
39.030175781249994
 20
65.465771484374997
 10
39.030175781249994
 20
65.465771484374997
 10
38.899606662326384
 20
65.465771484374997
 10
38.899606662326384
 20
65.465771484374997
 10
38.899606662326384
 20
65.465771484374997
 10
38.899606662326384
 20
66.11758355034722
 10
38.899606662326384
 20
66.11758355034722
 10
38.899606662326384
 20
66.11758355034722
 10
39.030175781249994
 20
66.11758355034722
 10
39.030175781249994
 20
66.11758355034722
 10
39.030175781249994
 20
66.11758355034722
 10
39.030175781249994
 20
65.465771484374997
 10
39.030175781249994
 20
65.465771484374997
 97
        0
 92
        1
 93
        1
 72
     4
 94
        3
 73
     0
 74
     0
 95
       17
 96
       13
 40
0.0
 40
0.0
 40
0.0
 40
0.0
 40
1.0
 40
1.0
 40
1.0
 40
2.0
 40
2.0
 40
2.0
 40
3.0
 40
3.0
 40
3.0
 40
4.0
 40
4.0
 40
4.0
 40
4.0
 10
39.030175781249994
 20
66.508946397569431
 10
39.030175781249994
 20
66.508946397569431
 10
38.899606662326384
 20
66.508946397569431
 10
38.899606662326384
 20
66.508946397569431
 10
38.899606662326384
 20
66.508946397569431
 10
38.899606662326384
 20
66.639171006944437
 10
38.899606662326384
 20
66.639171006944437
 10
38.899606662326384
 20
66.639171006944437
 10
39.030175781249994
 20
66.639171006944437
 10
39.030175781249994
 20
66.639171006944437
 10
39.030175781249994
 20
66.639171006944437
 10
39.030175781249994
 20
66.508946397569431
 10
39.030175781249994
 20
66.508946397569431
 97
        0
 92
        1
 93
        1
 72
     4
 94
        3
 73
     0
 74
     0
 95
       17
 96
       13
 40
0.0
 40
0.0
 40
0.0
 40
0.0
 40
1.0
 40
1.0
 40
1.0
 40
2.0
 40
2.0
 40
2.0
 40
3.0
 40
3.0
 40
3.0
 40
4.0
 40
4.0
 40
4.0
 40
4.0
 10
39.030175781249994
 20
67.02984483506944
 10
39.030175781249994
 20
67.02984483506944
 10
38.899606662326384
 20
67.02984483506944
 10
38.899606662326384
 20
67.02984483506944
 10
38.899606662326384
 20
67.02984483506944
 10
38.899606662326384
 20
67.682345920138886
 10
38.899606662326384
 20
67.682345920138886
 10
38.899606662326384
 20
67.682345920138886
 10
39.030175781249994
 20
67.682345920138886
 10
39.030175781249994
 20
67.682345920138886
 10
39.030175781249994
 20
67.682345920138886
 10
39.030175781249994
 20
67.02984483506944
 10
39.030175781249994
 20
67.02984483506944
 97
        0
 92
        1
 93
        1
 72
     4
 94
        3
 73
     0
 74
     0
 95
       17
 96
       13
 40
0.0
 40
0.0
 40
0.0
 40
0.0
 40
1.0
 40
1.0
 40
1.0
 40
2.0
 40
2.0
 40
2.0
 40
3.0
 40
3.0
 40
3.0
 40
4.0
 40
4.0
 40
4.0
 40
4.0
 10
39.030175781249994
 20
68.073019748263889
 10
39.030175781249994
 20
68.073019748263889
 10
38.899606662326384
 20
68.073019748263889
 10
38.899606662326384
 20
68.073019748263889
 10
38.899606662326384
 20
68.073019748263889
 10
38.899606662326384
 20
68.203933376736103
 10
38.899606662326384
 20
68.203933376736103
 10
38.899606662326384
 20
68.203933376736103
 10
39.030175781249994
 20
68.203933376736103
 10
39.030175781249994
 20
68.203933376736103
 10
39.030175781249994
 20
68.203933376736103
 10
39.030175781249994
 20
68.073019748263889
 10
39.030175781249994
 20
68.073019748263889
 97
        0
 92
        1
 93
        1
 72
     4
 94
        3
 73
     0
 74
     0
 95
       17
 96
       13
 40
0.0
 40
0.0
 40
0.0
 40
0.0
 40
1.0
 40
1.0
 40
1.0
 40
2.0
 40
2.0
 40
2.0
 40
3.0
 40
3.0
 40
3.0
 40
4.0
 40
4.0
 40
4.0
 40
4.0
 10
39.030175781249994
 20
68.595296223958329
 10
39.030175781249994
 20
68.595296223958329
 10
38.899606662326384
 20
68.595296223958329
 10
38.899606662326384
 20
68.595296223958329
 10
38.899606662326384
 20
68.595296223958329
 10
38.899606662326384
 20
69.247108289930551
 10
38.899606662326384
 20
69.247108289930551
 10
38.899606662326384
 20
69.247108289930551
 10
39.030175781249994
 20
69.247108289930551
 10
39.030175781249994
 20
69.247108289930551
 10
39.030175781249994
 20
69.247108289930551
 10
39.030175781249994
 20
68.595296223958329
 10
39.030175781249994
 20
68.595296223958329
 97
        0
 92
        1
 93
        1
 72
     4
 94
        3
 73
     0
 74
     0
 95
       17
 96
       13
 40
0.0
 40
0.0
 40
0.0
 40
0.0
 40
1.0
 40
1.0
 40
1.0
 40
2.0
 40
2.0
 40
2.0
 40
3.0
 40
3.0
 40
3.0
 40
4.0
 40
4.0
 40
4.0
 40
4.0
 10
39.030175781249994
 20
69.638471137152777
 10
39.030175781249994
 20
69.638471137152777
 10
38.899606662326384
 20
69.638471137152777
 10
38.899606662326384
 20
69.638471137152777
 10
38.899606662326384
 20
69.638471137152777
 10
38.899606662326384
 20
69.768695746527769
 10
38.899606662326384
 20
69.768695746527769
 10
38.899606662326384
 20
69.768695746527769
 10
39.030175781249994
 20
69.768695746527769
 10
39.030175781249994
 20
69.768695746527769
 10
39.030175781249994
 20
69.768695746527769
 10
39.030175781249994
 20
69.638471137152777
 10
39.030175781249994
 20
69.638471137152777
 97
        0
 92
        1
 93
        1
 72
     4
 94
        3
 73
     0
 74
     0
 95
       17
 96
       13
 40
0.0
 40
0.0
 40
0.0
 40
0.0
 40
1.0
 40
1.0
 40
1.0
 40
2.0
 40
2.0
 40
2.0
 40
3.0
 40
3.0
 40
3.0
 40
4.0
 40
4.0
 40
4.0
 40
4.0
 10
39.030175781249994
 20
70.160058593749994
 10
39.030175781249994
 20
70.160058593749994
 10
38.899606662326384
 20
70.160058593749994
 10
38.899606662326384
 20
70.160058593749994
 10
38.899606662326384
 20
70.160058593749994
 10
38.899606662326384
 20
70.811870659722217
 10
38.899606662326384
 20
70.811870659722217
 10
38.899606662326384
 20
70.811870659722217
 10
39.030175781249994
 20
70.811870659722217
 10
39.030175781249994
 20
70.811870659722217
 10
39.030175781249994
 20
70.811870659722217
 10
39.030175781249994
 20
70.160058593749994
 10
39.030175781249994
 20
70.160058593749994
 97
        0
 92
        1
 93
        1
 72
     4
 94
        3
 73
     0
 74
     0
 95
       17
 96
       13
 40
0.0
 40
0.0
 40
0.0
 40
0.0
 40
1.0
 40
1.0
 40
1.0
 40
2.0
 40
2.0
 40
2.0
 40
3.0
 40
3.0
 40
3.0
 40
4.0
 40
4.0
 40
4.0
 40
4.0
 10
39.030175781249994
 20
71.203233506944443
 10
39.030175781249994
 20
71.203233506944443
 10
38.899606662326384
 20
71.203233506944443
 10
38.899606662326384
 20
71.203233506944443
 10
38.899606662326384
 20
71.203233506944443
 10
38.899606662326384
 20
71.333458116319434
 10
38.899606662326384
 20
71.333458116319434
 10
38.899606662326384
 20
71.333458116319434
 10
39.030175781249994
 20
71.333458116319434
 10
39.030175781249994
 20
71.333458116319434
 10
39.030175781249994
 20
71.333458116319434
 10
39.030175781249994
 20
71.203233506944443
 10
39.030175781249994
 20
71.203233506944443
 97
        0
 92
        1
 93
        1
 72
     4
 94
        3
 73
     0
 74
     0
 95
       17
 96
       13
 40
0.0
 40
0.0
 40
0.0
 40
0.0
 40
1.0
 40
1.0
 40
1.0
 40
2.0
 40
2.0
 40
2.0
 40
3.0
 40
3.0
 40
3.0
 40
4.0
 40
4.0
 40
4.0
 40
4.0
 10
39.030175781249994
 20
71.72482096354166
 10
39.030175781249994
 20
71.72482096354166
 10
38.899606662326384
 20
71.72482096354166
 10
38.899606662326384
 20
71.72482096354166
 10
38.899606662326384
 20
71.72482096354166
 10
38.899606662326384
 20
72.376633029513883
 10
38.899606662326384
 20
72.376633029513883
 10
38.899606662326384
 20
72.376633029513883
 10
39.030175781249994
 20
72.376633029513883
 10
39.030175781249994
 20
72.376633029513883
 10
39.030175781249994
 20
72.376633029513883
 10
39.030175781249994
 20
71.72482096354166
 10
39.030175781249994
 20
71.72482096354166
 97
        0
 92
        1
 93
        1
 72
     4
 94
        3
 73
     0
 74
     0
 95
       17
 96
       13
 40
0.0
 40
0.0
 40
0.0
 40
0.0
 40
1.0
 40
1.0
 40
1.0
 40
2.0
 40
2.0
 40
2.0
 40
3.0
 40
3.0
 40
3.0
 40
4.0
 40
4.0
 40
4.0
 40
4.0
 10
39.030175781249994
 20
72.768684895833331
 10
39.030175781249994
 20
72.768684895833331
 10
38.899606662326384
 20
72.768684895833331
 10
38.899606662326384
 20
72.768684895833331
 10
38.899606662326384
 20
72.768684895833331
 10
38.899606662326384
 20
72.8982204861111
 10
38.899606662326384
 20
72.8982204861111
 10
38.899606662326384
 20
72.8982204861111
 10
39.030175781249994
 20
72.8982204861111
 10
39.030175781249994
 20
72.8982204861111
 10
39.030175781249994
 20
72.8982204861111
 10
39.030175781249994
 20
72.768684895833331
 10
39.030175781249994
 20
72.768684895833331
 97
        0
 92
        1
 93
        1
 72
     4
 94
        3
 73
     0
 74
     0
 95
       17
 96
       13
 40
0.0
 40
0.0
 40
0.0
 40
0.0
 40
1.0
 40
1.0
 40
1.0
 40
2.0
 40
2.0
 40
2.0
 40
3.0
 40
3.0
 40
3.0
 40
4.0
 40
4.0
 40
4.0
 40
4.0
 10
39.030175781249994
 20
73.289583333333326
 10
39.030175781249994
 20
73.289583333333326
 10
38.899606662326384
 20
73.289583333333326
 10
38.899606662326384
 20
73.289583333333326
 10
38.899606662326384
 20
73.289583333333326
 10
38.899606662326384
 20
73.941395399305549
 10
38.899606662326384
 20
73.941395399305549
 10
38.899606662326384
 20
73.941395399305549
 10
39.030175781249994
 20
73.941395399305549
 10
39.030175781249994
 20
73.941395399305549
 10
39.030175781249994
 20
73.941395399305549
 10
39.030175781249994
 20
73.289583333333326
 10
39.030175781249994
 20
73.289583333333326
 97
        0
 92
        1
 93
        1
 72
     4
 94
        3
 73
     0
 74
     0
 95
       17
 96
       13
 40
0.0
 40
0.0
 40
0.0
 40
0.0
 40
1.0
 40
1.0
 40
1.0
 40
2.0
 40
2.0
 40
2.0
 40
3.0
 40
3.0
 40
3.0
 40
4.0
 40
4.0
 40
4.0
 40
4.0
 10
39.030175781249994
 20
74.332758246527774
 10
39.030175781249994
 20
74.332758246527774
 10
38.899606662326384
 20
74.332758246527774
 10
38.899606662326384
 20
74.332758246527774
 10
38.899606662326384
 20
74.332758246527774
 10
38.899606662326384
 20
74.463671874999989
 10
38.899606662326384
 20
74.463671874999989
 10
38.899606662326384
 20
74.463671874999989
 10
39.030175781249994
 20
74.463671874999989
 10
39.030175781249994
 20
74.463671874999989
 10
39.030175781249994
 20
74.463671874999989
 10
39.030175781249994
 20
74.332758246527774
 10
39.030175781249994
 20
74.332758246527774
 97
        0
 92
        1
 93
        1
 72
     4
 94
        3
 73
     0
 74
     0
 95
       17
 96
       13
 40
0.0
 40
0.0
 40
0.0
 40
0.0
 40
1.0
 40
1.0
 40
1.0
 40
2.0
 40
2.0
 40
2.0
 40
3.0
 40
3.0
 40
3.0
 40
4.0
 40
4.0
 40
4.0
 40
4.0
 10
39.030175781249994
 20
74.854345703124991
 10
39.030175781249994
 20
74.854345703124991
 10
38.899606662326384
 20
74.854345703124991
 10
38.899606662326384
 20
74.854345703124991
 10
38.899606662326384
 20
74.854345703124991
 10
38.899606662326384
 20
75.506846788194437
 10
38.899606662326384
 20
75.506846788194437
 10
38.899606662326384
 20
75.506846788194437
 10
39.030175781249994
 20
75.506846788194437
 10
39.030175781249994
 20
75.506846788194437
 10
39.030175781249994
 20
75.506846788194437
 10
39.030175781249994
 20
74.854345703124991
 10
39.030175781249994
 20
74.854345703124991
 97
        0
 92
        1
 93
        1
 72
     4
 94
        3
 73
     0
 74
     0
 95
       17
 96
       13
 40
0.0
 40
0.0
 40
0.0
 40
0.0
 40
1.0
 40
1.0
 40
1.0
 40
2.0
 40
2.0
 40
2.0
 40
3.0
 40
3.0
 40
3.0
 40
4.0
 40
4.0
 40
4.0
 40
4.0
 10
39.030175781249994
 20
75.898209635416663
 10
39.030175781249994
 20
75.898209635416663
 10
38.899606662326384
 20
75.898209635416663
 10
38.899606662326384
 20
75.898209635416663
 10
38.899606662326384
 20
75.898209635416663
 10
38.899606662326384
 20
76.028434244791654
 10
38.899606662326384
 20
76.028434244791654
 10
38.899606662326384
 20
76.028434244791654
 10
39.030175781249994
 20
76.028434244791654
 10
39.030175781249994
 20
76.028434244791654
 10
39.030175781249994
 20
76.028434244791654
 10
39.030175781249994
 20
75.898209635416663
 10
39.030175781249994
 20
75.898209635416663
 97
        0
 92
        1
 93
        1
 72
     4
 94
        3
 73
     0
 74
     0
 95
       17
 96
       13
 40
0.0
 40
0.0
 40
0.0
 40
0.0
 40
1.0
 40
1.0
 40
1.0
 40
2.0
 40
2.0
 40
2.0
 40
3.0
 40
3.0
 40
3.0
 40
4.0
 40
4.0
 40
4.0
 40
4.0
 10
39.030175781249994
 20
76.419108072916657
 10
39.030175781249994
 20
76.419108072916657
 10
38.899606662326384
 20
76.419108072916657
 10
38.899606662326384
 20
76.419108072916657
 10
38.899606662326384
 20
76.419108072916657
 10
38.899606662326384
 20
77.071609157986103
 10
38.899606662326384
 20
77.071609157986103
 10
38.899606662326384
 20
77.071609157986103
 10
39.030175781249994
 20
77.071609157986103
 10
39.030175781249994
 20
77.071609157986103
 10
39.030175781249994
 20
77.071609157986103
 10
39.030175781249994
 20
76.419108072916657
 10
39.030175781249994
 20
76.419108072916657
 97
        0
 92
        1
 93
        1
 72
     4
 94
        3
 73
     0
 74
     0
 95
       17
 96
       13
 40
0.0
 40
0.0
 40
0.0
 40
0.0
 40
1.0
 40
1.0
 40
1.0
 40
2.0
 40
2.0
 40
2.0
 40
3.0
 40
3.0
 40
3.0
 40
4.0
 40
4.0
 40
4.0
 40
4.0
 10
39.030175781249994
 20
77.462972005208329
 10
39.030175781249994
 20
77.462972005208329
 10
38.899606662326384
 20
77.462972005208329
 10
38.899606662326384
 20
77.462972005208329
 10
38.899606662326384
 20
77.462972005208329
 10
38.899606662326384
 20
77.59319661458332
 10
38.899606662326384
 20
77.59319661458332
 10
38.899606662326384
 20
77.59319661458332
 10
39.030175781249994
 20
77.59319661458332
 10
39.030175781249994
 20
77.59319661458332
 10
39.030175781249994
 20
77.59319661458332
 10
39.030175781249994
 20
77.462972005208329
 10
39.030175781249994
 20
77.462972005208329
 97
        0
 92
        1
 93
        1
 72
     4
 94
        3
 73
     0
 74
     0
 95
       17
 96
       13
 40
0.0
 40
0.0
 40
0.0
 40
0.0
 40
1.0
 40
1.0
 40
1.0
 40
2.0
 40
2.0
 40
2.0
 40
3.0
 40
3.0
 40
3.0
 40
4.0
 40
4.0
 40
4.0
 40
4.0
 10
39.030175781249994
 20
77.983870442708323
 10
39.030175781249994
 20
77.983870442708323
 10
38.899606662326384
 20
77.983870442708323
 10
38.899606662326384
 20
77.983870442708323
 10
38.899606662326384
 20
77.983870442708323
 10
38.899606662326384
 20
78.636371527777769
 10
38.899606662326384
 20
78.636371527777769
 10
38.899606662326384
 20
78.636371527777769
 10
39.030175781249994
 20
78.636371527777769
 10
39.030175781249994
 20
78.636371527777769
 10
39.030175781249994
 20
78.636371527777769
 10
39.030175781249994
 20
77.983870442708323
 10
39.030175781249994
 20
77.983870442708323
 97
        0
 92
        1
 93
        1
 72
     4
 94
        3
 73
     0
 74
     0
 95
       17
 96
       13
 40
0.0
 40
0.0
 40
0.0
 40
0.0
 40
1.0
 40
1.0
 40
1.0
 40
2.0
 40
2.0
 40
2.0
 40
3.0
 40
3.0
 40
3.0
 40
4.0
 40
4.0
 40
4.0
 40
4.0
 10
39.030175781249994
 20
79.027734374999994
 10
39.030175781249994
 20
79.027734374999994
 10
38.899606662326384
 20
79.027734374999994
 10
38.899606662326384
 20
79.027734374999994
 10
38.899606662326384
 20
79.027734374999994
 10
38.899606662326384
 20
79.157958984374986
 10
38.899606662326384
 20
79.157958984374986
 10
38.899606662326384
 20
79.157958984374986
 10
39.030175781249994
 20
79.157958984374986
 10
39.030175781249994
 20
79.157958984374986
 10
39.030175781249994
 20
79.157958984374986
 10
39.030175781249994
 20
79.027734374999994
 10
39.030175781249994
 20
79.027734374999994
 97
        0
 92
        1
 93
        1
 72
     4
 94
        3
 73
     0
 74
     0
 95
       17
 96
       13
 40
0.0
 40
0.0
 40
0.0
 40
0.0
 40
1.0
 40
1.0
 40
1.0
 40
2.0
 40
2.0
 40
2.0
 40
3.0
 40
3.0
 40
3.0
 40
4.0
 40
4.0
 40
4.0
 40
4.0
 10
39.030175781249994
 20
79.549321831597211
 10
39.030175781249994
 20
79.549321831597211
 10
38.899606662326384
 20
79.549321831597211
 10
38.899606662326384
 20
79.549321831597211
 10
38.899606662326384
 20
79.549321831597211
 10
38.899606662326384
 20
80.201133897569434
 10
38.899606662326384
 20
80.201133897569434
 10
38.899606662326384
 20
80.201133897569434
 10
39.030175781249994
 20
80.201133897569434
 10
39.030175781249994
 20
80.201133897569434
 10
39.030175781249994
 20
80.201133897569434
 10
39.030175781249994
 20
79.549321831597211
 10
39.030175781249994
 20
79.549321831597211
 97
        0
 92
        1
 93
        1
 72
     4
 94
        3
 73
     0
 74
     0
 95
       17
 96
       13
 40
0.0
 40
0.0
 40
0.0
 40
0.0
 40
1.0
 40
1.0
 40
1.0
 40
2.0
 40
2.0
 40
2.0
 40
3.0
 40
3.0
 40
3.0
 40
4.0
 40
4.0
 40
4.0
 40
4.0
 10
39.030175781249994
 20
80.59249674479166
 10
39.030175781249994
 20
80.59249674479166
 10
38.899606662326384
 20
80.59249674479166
 10
38.899606662326384
 20
80.59249674479166
 10
38.899606662326384
 20
80.59249674479166
 10
38.899606662326384
 20
80.723410373263889
 10
38.899606662326384
 20
80.723410373263889
 10
38.899606662326384
 20
80.723410373263889
 10
39.030175781249994
 20
80.723410373263889
 10
39.030175781249994
 20
80.723410373263889
 10
39.030175781249994
 20
80.723410373263889
 10
39.030175781249994
 20
80.59249674479166
 10
39.030175781249994
 20
80.59249674479166
 97
        0
 92
        1
 93
        1
 72
     4
 94
        3
 73
     0
 74
     0
 95
       17
 96
       13
 40
0.0
 40
0.0
 40
0.0
 40
0.0
 40
1.0
 40
1.0
 40
1.0
 40
2.0
 40
2.0
 40
2.0
 40
3.0
 40
3.0
 40
3.0
 40
4.0
 40
4.0
 40
4.0
 40
4.0
 10
39.030175781249994
 20
81.114084201388877
 10
39.030175781249994
 20
81.114084201388877
 10
38.899606662326384
 20
81.114084201388877
 10
38.899606662326384
 20
81.114084201388877
 10
38.899606662326384
 20
81.114084201388877
 10
38.899606662326384
 20
81.7658962673611
 10
38.899606662326384
 20
81.7658962673611
 10
38.899606662326384
 20
81.7658962673611
 10
39.030175781249994
 20
81.7658962673611
 10
39.030175781249994
 20
81.7658962673611
 10
39.030175781249994
 20
81.7658962673611
 10
39.030175781249994
 20
81.114084201388877
 10
39.030175781249994
 20
81.114084201388877
 97
        0
 92
        1
 93
        1
 72
     4
 94
        3
 73
     0
 74
     0
 95
       17
 96
       13
 40
0.0
 40
0.0
 40
0.0
 40
0.0
 40
1.0
 40
1.0
 40
1.0
 40
2.0
 40
2.0
 40
2.0
 40
3.0
 40
3.0
 40
3.0
 40
4.0
 40
4.0
 40
4.0
 40
4.0
 10
39.030175781249994
 20
82.157259114583326
 10
39.030175781249994
 20
82.157259114583326
 10
38.899606662326384
 20
82.157259114583326
 10
38.899606662326384
 20
82.157259114583326
 10
38.899606662326384
 20
82.157259114583326
 10
38.899606662326384
 20
82.287483723958331
 10
38.899606662326384
 20
82.287483723958331
 10
38.899606662326384
 20
82.287483723958331
 10
39.030175781249994
 20
82.287483723958331
 10
39.030175781249994
 20
82.287483723958331
 10
39.030175781249994
 20
82.287483723958331
 10
39.030175781249994
 20
82.157259114583326
 10
39.030175781249994
 20
82.157259114583326
 97
        0
 92
        1
 93
        1
 72
     4
 94
        3
 73
     0
 74
     0
 95
       17
 96
       13
 40
0.0
 40
0.0
 40
0.0
 40
0.0
 40
1.0
 40
1.0
 40
1.0
 40
2.0
 40
2.0
 40
2.0
 40
3.0
 40
3.0
 40
3.0
 40
4.0
 40
4.0
 40
4.0
 40
4.0
 10
39.030175781249994
 20
82.678846571180543
 10
39.030175781249994
 20
82.678846571180543
 10
38.899606662326384
 20
82.678846571180543
 10
38.899606662326384
 20
82.678846571180543
 10
38.899606662326384
 20
82.678846571180543
 10
38.899606662326384
 20
83.330658637152766
 10
38.899606662326384
 20
83.330658637152766
 10
38.899606662326384
 20
83.330658637152766
 10
39.030175781249994
 20
83.330658637152766
 10
39.030175781249994
 20
83.330658637152766
 10
39.030175781249994
 20
83.330658637152766
 10
39.030175781249994
 20
82.678846571180543
 10
39.030175781249994
 20
82.678846571180543
 97
        0
 92
        1
 93
        1
 72
     4
 94
        3
 73
     0
 74
     0
 95
       17
 96
       13
 40
0.0
 40
0.0
 40
0.0
 40
0.0
 40
1.0
 40
1.0
 40
1.0
 40
2.0
 40
2.0
 40
2.0
 40
3.0
 40
3.0
 40
3.0
 40
4.0
 40
4.0
 40
4.0
 40
4.0
 10
39.030175781249994
 20
83.722021484374991
 10
39.030175781249994
 20
83.722021484374991
 10
38.899606662326384
 20
83.722021484374991
 10
38.899606662326384
 20
83.722021484374991
 10
38.899606662326384
 20
83.722021484374991
 10
38.899606662326384
 20
83.85293511284722
 10
38.899606662326384
 20
83.85293511284722
 10
38.899606662326384
 20
83.85293511284722
 10
39.030175781249994
 20
83.85293511284722
 10
39.030175781249994
 20
83.85293511284722
 10
39.030175781249994
 20
83.85293511284722
 10
39.030175781249994
 20
83.722021484374991
 10
39.030175781249994
 20
83.722021484374991
 97
        0
 92
        1
 93
        1
 72
     4
 94
        3
 73
     0
 74
     0
 95
       17
 96
       13
 40
0.0
 40
0.0
 40
0.0
 40
0.0
 40
1.0
 40
1.0
 40
1.0
 40
2.0
 40
2.0
 40
2.0
 40
3.0
 40
3.0
 40
3.0
 40
4.0
 40
4.0
 40
4.0
 40
4.0
 10
39.030175781249994
 20
84.243608940972209
 10
39.030175781249994
 20
84.243608940972209
 10
38.899606662326384
 20
84.243608940972209
 10
38.899606662326384
 20
84.243608940972209
 10
38.899606662326384
 20
84.243608940972209
 10
38.899606662326384
 20
84.895421006944431
 10
38.899606662326384
 20
84.895421006944431
 10
38.899606662326384
 20
84.895421006944431
 10
39.030175781249994
 20
84.895421006944431
 10
39.030175781249994
 20
84.895421006944431
 10
39.030175781249994
 20
84.895421006944431
 10
39.030175781249994
 20
84.243608940972209
 10
39.030175781249994
 20
84.243608940972209
 97
        0
 92
        1
 93
        1
 72
     4
 94
        3
 73
     0
 74
     0
 95
       17
 96
       13
 40
0.0
 40
0.0
 40
0.0
 40
0.0
 40
1.0
 40
1.0
 40
1.0
 40
2.0
 40
2.0
 40
2.0
 40
3.0
 40
3.0
 40
3.0
 40
4.0
 40
4.0
 40
4.0
 40
4.0
 10
39.030175781249994
 20
85.286783854166657
 10
39.030175781249994
 20
85.286783854166657
 10
38.899606662326384
 20
85.286783854166657
 10
38.899606662326384
 20
85.286783854166657
 10
38.899606662326384
 20
85.286783854166657
 10
38.899606662326384
 20
85.417697482638886
 10
38.899606662326384
 20
85.417697482638886
 10
38.899606662326384
 20
85.417697482638886
 10
39.030175781249994
 20
85.417697482638886
 10
39.030175781249994
 20
85.417697482638886
 10
39.030175781249994
 20
85.417697482638886
 10
39.030175781249994
 20
85.286783854166657
 10
39.030175781249994
 20
85.286783854166657
 97
        0
 92
        1
 93
        1
 72
     4
 94
        3
 73
     0
 74
     0
 95
       17
 96
       13
 40
0.0
 40
0.0
 40
0.0
 40
0.0
 40
1.0
 40
1.0
 40
1.0
 40
2.0
 40
2.0
 40
2.0
 40
3.0
 40
3.0
 40
3.0
 40
4.0
 40
4.0
 40
4.0
 40
4.0
 10
39.030175781249994
 20
85.808371310763874
 10
39.030175781249994
 20
85.808371310763874
 10
38.899606662326384
 20
85.808371310763874
 10
38.899606662326384
 20
85.808371310763874
 10
38.899606662326384
 20
85.808371310763874
 10
38.899606662326384
 20
86.460183376736097
 10
38.899606662326384
 20
86.460183376736097
 10
38.899606662326384
 20
86.460183376736097
 10
39.030175781249994
 20
86.460183376736097
 10
39.030175781249994
 20
86.460183376736097
 10
39.030175781249994
 20
86.460183376736097
 10
39.030175781249994
 20
85.808371310763874
 10
39.030175781249994
 20
85.808371310763874
 97
        0
 92
        1
 93
        1
 72
     4
 94
        3
 73
     0
 74
     0
 95
       17
 96
       13
 40
0.0
 40
0.0
 40
0.0
 40
0.0
 40
1.0
 40
1.0
 40
1.0
 40
2.0
 40
2.0
 40
2.0
 40
3.0
 40
3.0
 40
3.0
 40
4.0
 40
4.0
 40
4.0
 40
4.0
 10
39.030175781249994
 20
86.852235243055546
 10
39.030175781249994
 20
86.852235243055546
 10
38.899606662326384
 20
86.852235243055546
 10
38.899606662326384
 20
86.852235243055546
 10
38.899606662326384
 20
86.852235243055546
 10
38.899606662326384
 20
86.982459852430551
 10
38.899606662326384
 20
86.982459852430551
 10
38.899606662326384
 20
86.982459852430551
 10
39.030175781249994
 20
86.982459852430551
 10
39.030175781249994
 20
86.982459852430551
 10
39.030175781249994
 20
86.982459852430551
 10
39.030175781249994
 20
86.852235243055546
 10
39.030175781249994
 20
86.852235243055546
 97
        0
 92
        1
 93
        1
 72
     4
 94
        3
 73
     0
 74
     0
 95
       17
 96
       13
 40
0.0
 40
0.0
 40
0.0
 40
0.0
 40
1.0
 40
1.0
 40
1.0
 40
2.0
 40
2.0
 40
2.0
 40
3.0
 40
3.0
 40
3.0
 40
4.0
 40
4.0
 40
4.0
 40
4.0
 10
39.030175781249994
 20
87.373133680555554
 10
39.030175781249994
 20
87.373133680555554
 10
38.899606662326384
 20
87.373133680555554
 10
38.899606662326384
 20
87.373133680555554
 10
38.899606662326384
 20
87.373133680555554
 10
38.899606662326384
 20
88.025634765624986
 10
38.899606662326384
 20
88.025634765624986
 10
38.899606662326384
 20
88.025634765624986
 10
39.030175781249994
 20
88.025634765624986
 10
39.030175781249994
 20
88.025634765624986
 10
39.030175781249994
 20
88.025634765624986
 10
39.030175781249994
 20
87.373133680555554
 10
39.030175781249994
 20
87.373133680555554
 97
        0
 92
        1
 93
        1
 72
     4
 94
        3
 73
     0
 74
     0
 95
       17
 96
       13
 40
0.0
 40
0.0
 40
0.0
 40
0.0
 40
1.0
 40
1.0
 40
1.0
 40
2.0
 40
2.0
 40
2.0
 40
3.0
 40
3.0
 40
3.0
 40
4.0
 40
4.0
 40
4.0
 40
4.0
 10
39.030175781249994
 20
88.416308593749989
 10
39.030175781249994
 20
88.416308593749989
 10
38.899606662326384
 20
88.416308593749989
 10
38.899606662326384
 20
88.416308593749989
 10
38.899606662326384
 20
88.416308593749989
 10
38.899606662326384
 20
88.547222222222217
 10
38.899606662326384
 20
88.547222222222217
 10
38.899606662326384
 20
88.547222222222217
 10
39.030175781249994
 20
88.547222222222217
 10
39.030175781249994
 20
88.547222222222217
 10
39.030175781249994
 20
88.547222222222217
 10
39.030175781249994
 20
88.416308593749989
 10
39.030175781249994
 20
88.416308593749989
 97
        0
 92
        1
 93
        1
 72
     4
 94
        3
 73
     0
 74
     0
 95
       17
 96
       13
 40
0.0
 40
0.0
 40
0.0
 40
0.0
 40
1.0
 40
1.0
 40
1.0
 40
2.0
 40
2.0
 40
2.0
 40
3.0
 40
3.0
 40
3.0
 40
4.0
 40
4.0
 40
4.0
 40
4.0
 10
39.030175781249994
 20
88.938585069444443
 10
39.030175781249994
 20
88.938585069444443
 10
38.899606662326384
 20
88.938585069444443
 10
38.899606662326384
 20
88.938585069444443
 10
38.899606662326384
 20
88.938585069444443
 10
38.899606662326384
 20
89.590397135416652
 10
38.899606662326384
 20
89.590397135416652
 10
38.899606662326384
 20
89.590397135416652
 10
39.030175781249994
 20
89.590397135416652
 10
39.030175781249994
 20
89.590397135416652
 10
39.030175781249994
 20
89.590397135416652
 10
39.030175781249994
 20
88.938585069444443
 10
39.030175781249994
 20
88.938585069444443
 97
        0
 92
        1
 93
        1
 72
     4
 94
        3
 73
     0
 74
     0
 95
       17
 96
       13
 40
0.0
 40
0.0
 40
0.0
 40
0.0
 40
1.0
 40
1.0
 40
1.0
 40
2.0
 40
2.0
 40
2.0
 40
3.0
 40
3.0
 40
3.0
 40
4.0
 40
4.0
 40
4.0
 40
4.0
 10
39.030175781249994
 20
89.981759982638877
 10
39.030175781249994
 20
89.981759982638877
 10
38.899606662326384
 20
89.981759982638877
 10
38.899606662326384
 20
89.981759982638877
 10
38.899606662326384
 20
89.981759982638877
 10
38.899606662326384
 20
90.111984592013883
 10
38.899606662326384
 20
90.111984592013883
 10
38.899606662326384
 20
90.111984592013883
 10
39.030175781249994
 20
90.111984592013883
 10
39.030175781249994
 20
90.111984592013883
 10
39.030175781249994
 20
90.111984592013883
 10
39.030175781249994
 20
89.981759982638877
 10
39.030175781249994
 20
89.981759982638877
 97
        0
 92
        1
 93
        1
 72
     4
 94
        3
 73
     0
 74
     0
 95
       17
 96
       13
 40
0.0
 40
0.0
 40
0.0
 40
0.0
 40
1.0
 40
1.0
 40
1.0
 40
2.0
 40
2.0
 40
2.0
 40
3.0
 40
3.0
 40
3.0
 40
4.0
 40
4.0
 40
4.0
 40
4.0
 10
39.030175781249994
 20
90.503347439236109
 10
39.030175781249994
 20
90.503347439236109
 10
38.899606662326384
 20
90.503347439236109
 10
38.899606662326384
 20
90.503347439236109
 10
38.899606662326384
 20
90.503347439236109
 10
38.899606662326384
 20
91.155159505208331
 10
38.899606662326384
 20
91.155159505208331
 10
38.899606662326384
 20
91.155159505208331
 10
39.030175781249994
 20
91.155159505208331
 10
39.030175781249994
 20
91.155159505208331
 10
39.030175781249994
 20
91.155159505208331
 10
39.030175781249994
 20
90.503347439236109
 10
39.030175781249994
 20
90.503347439236109
 97
        0
 92
        1
 93
        1
 72
     4
 94
        3
 73
     0
 74
     0
 95
       17
 96
       13
 40
0.0
 40
0.0
 40
0.0
 40
0.0
 40
1.0
 40
1.0
 40
1.0
 40
2.0
 40
2.0
 40
2.0
 40
3.0
 40
3.0
 40
3.0
 40
4.0
 40
4.0
 40
4.0
 40
4.0
 10
39.030175781249994
 20
91.546522352430543
 10
39.030175781249994
 20
91.546522352430543
 10
38.899606662326384
 20
91.546522352430543
 10
38.899606662326384
 20
91.546522352430543
 10
38.899606662326384
 20
91.546522352430543
 10
38.899606662326384
 20
91.676746961805549
 10
38.899606662326384
 20
91.676746961805549
 10
38.899606662326384
 20
91.676746961805549
 10
39.030175781249994
 20
91.676746961805549
 10
39.030175781249994
 20
91.676746961805549
 10
39.030175781249994
 20
91.676746961805549
 10
39.030175781249994
 20
91.546522352430543
 10
39.030175781249994
 20
91.546522352430543
 97
        0
 92
        1
 93
        1
 72
     4
 94
        3
 73
     0
 74
     0
 95
       17
 96
       13
 40
0.0
 40
0.0
 40
0.0
 40
0.0
 40
1.0
 40
1.0
 40
1.0
 40
2.0
 40
2.0
 40
2.0
 40
3.0
 40
3.0
 40
3.0
 40
4.0
 40
4.0
 40
4.0
 40
4.0
 10
39.030175781249994
 20
92.068798828124997
 10
39.030175781249994
 20
92.068798828124997
 10
38.899606662326384
 20
92.068798828124997
 10
38.899606662326384
 20
92.068798828124997
 10
38.899606662326384
 20
92.068798828124997
 10
38.899606662326384
 20
92.72061089409722
 10
38.899606662326384
 20
92.72061089409722
 10
38.899606662326384
 20
92.72061089409722
 10
39.030175781249994
 20
92.72061089409722
 10
39.030175781249994
 20
92.72061089409722
 10
39.030175781249994
 20
92.72061089409722
 10
39.030175781249994
 20
92.068798828124997
 10
39.030175781249994
 20
92.068798828124997
 97
        0
 92
        1
 93
        1
 72
     4
 94
        3
 73
     0
 74
     0
 95
       17
 96
       13
 40
0.0
 40
0.0
 40
0.0
 40
0.0
 40
1.0
 40
1.0
 40
1.0
 40
2.0
 40
2.0
 40
2.0
 40
3.0
 40
3.0
 40
3.0
 40
4.0
 40
4.0
 40
4.0
 40
4.0
 10
39.030175781249994
 20
93.111284722222209
 10
39.030175781249994
 20
93.111284722222209
 10
38.899606662326384
 20
93.111284722222209
 10
38.899606662326384
 20
93.111284722222209
 10
38.899606662326384
 20
93.111284722222209
 10
38.899606662326384
 20
93.241509331597214
 10
38.899606662326384
 20
93.241509331597214
 10
38.899606662326384
 20
93.241509331597214
 10
39.030175781249994
 20
93.241509331597214
 10
39.030175781249994
 20
93.241509331597214
 10
39.030175781249994
 20
93.241509331597214
 10
39.030175781249994
 20
93.111284722222209
 10
39.030175781249994
 20
93.111284722222209
 97
        0
 92
        1
 93
        1
 72
     4
 94
        3
 73
     0
 74
     0
 95
       17
 96
       13
 40
0.0
 40
0.0
 40
0.0
 40
0.0
 40
1.0
 40
1.0
 40
1.0
 40
2.0
 40
2.0
 40
2.0
 40
3.0
 40
3.0
 40
3.0
 40
4.0
 40
4.0
 40
4.0
 40
4.0
 10
39.030175781249994
 20
93.63287217881944
 10
39.030175781249994
 20
93.63287217881944
 10
38.899606662326384
 20
93.63287217881944
 10
38.899606662326384
 20
93.63287217881944
 10
38.899606662326384
 20
93.63287217881944
 10
38.899606662326384
 20
94.285373263888886
 10
38.899606662326384
 20
94.285373263888886
 10
38.899606662326384
 20
94.285373263888886
 10
39.030175781249994
 20
94.285373263888886
 10
39.030175781249994
 20
94.285373263888886
 10
39.030175781249994
 20
94.285373263888886
 10
39.030175781249994
 20
93.63287217881944
 10
39.030175781249994
 20
93.63287217881944
 97
        0
 92
        1
 93
        1
 72
     4
 94
        3
 73
     0
 74
     0
 95
       17
 96
       13
 40
0.0
 40
0.0
 40
0.0
 40
0.0
 40
1.0
 40
1.0
 40
1.0
 40
2.0
 40
2.0
 40
2.0
 40
3.0
 40
3.0
 40
3.0
 40
4.0
 40
4.0
 40
4.0
 40
4.0
 10
39.030175781249994
 20
94.676736111111097
 10
39.030175781249994
 20
94.676736111111097
 10
38.899606662326384
 20
94.676736111111097
 10
38.899606662326384
 20
94.676736111111097
 10
38.899606662326384
 20
94.676736111111097
 10
38.899606662326384
 20
94.807649739583326
 10
38.899606662326384
 20
94.807649739583326
 10
38.899606662326384
 20
94.807649739583326
 10
39.030175781249994
 20
94.807649739583326
 10
39.030175781249994
 20
94.807649739583326
 10
39.030175781249994
 20
94.807649739583326
 10
39.030175781249994
 20
94.676736111111097
 10
39.030175781249994
 20
94.676736111111097
 97
        0
 92
        1
 93
        1
 72
     4
 94
        3
 73
     0
 74
     0
 95
       17
 96
       13
 40
0.0
 40
0.0
 40
0.0
 40
0.0
 40
1.0
 40
1.0
 40
1.0
 40
2.0
 40
2.0
 40
2.0
 40
3.0
 40
3.0
 40
3.0
 40
4.0
 40
4.0
 40
4.0
 40
4.0
 10
39.030175781249994
 20
95.198323567708329
 10
39.030175781249994
 20
95.198323567708329
 10
38.899606662326384
 20
95.198323567708329
 10
38.899606662326384
 20
95.198323567708329
 10
38.899606662326384
 20
95.198323567708329
 10
38.899606662326384
 20
95.850824652777774
 10
38.899606662326384
 20
95.850824652777774
 10
38.899606662326384
 20
95.850824652777774
 10
39.030175781249994
 20
95.850824652777774
 10
39.030175781249994
 20
95.850824652777774
 10
39.030175781249994
 20
95.850824652777774
 10
39.030175781249994
 20
95.198323567708329
 10
39.030175781249994
 20
95.198323567708329
 97
        0
 92
        1
 93
        1
 72
     4
 94
        3
 73
     0
 74
     0
 95
       17
 96
       13
 40
0.0
 40
0.0
 40
0.0
 40
0.0
 40
1.0
 40
1.0
 40
1.0
 40
2.0
 40
2.0
 40
2.0
 40
3.0
 40
3.0
 40
3.0
 40
4.0
 40
4.0
 40
4.0
 40
4.0
 10
39.030175781249994
 20
96.242187499999986
 10
39.030175781249994
 20
96.242187499999986
 10
38.899606662326384
 20
96.242187499999986
 10
38.899606662326384
 20
96.242187499999986
 10
38.899606662326384
 20
96.242187499999986
 10
38.899606662326384
 20
96.373101128472214
 10
38.899606662326384
 20
96.373101128472214
 10
38.899606662326384
 20
96.373101128472214
 10
39.030175781249994
 20
96.373101128472214
 10
39.030175781249994
 20
96.373101128472214
 10
39.030175781249994
 20
96.373101128472214
 10
39.030175781249994
 20
96.242187499999986
 10
39.030175781249994
 20
96.242187499999986
 97
        0
 92
        1
 93
        1
 72
     4
 94
        3
 73
     0
 74
     0
 95
       17
 96
       13
 40
0.0
 40
0.0
 40
0.0
 40
0.0
 40
1.0
 40
1.0
 40
1.0
 40
2.0
 40
2.0
 40
2.0
 40
3.0
 40
3.0
 40
3.0
 40
4.0
 40
4.0
 40
4.0
 40
4.0
 10
39.030175781249994
 20
96.763774956597217
 10
39.030175781249994
 20
96.763774956597217
 10
38.899606662326384
 20
96.763774956597217
 10
38.899606662326384
 20
96.763774956597217
 10
38.899606662326384
 20
96.763774956597217
 10
38.899606662326384
 20
97.416276041666663
 10
38.899606662326384
 20
97.416276041666663
 10
38.899606662326384
 20
97.416276041666663
 10
39.030175781249994
 20
97.416276041666663
 10
39.030175781249994
 20
97.416276041666663
 10
39.030175781249994
 20
97.416276041666663
 10
39.030175781249994
 20
96.763774956597217
 10
39.030175781249994
 20
96.763774956597217
 97
        0
 92
        1
 93
        1
 72
     4
 94
        3
 73
     0
 74
     0
 95
       17
 96
       13
 40
0.0
 40
0.0
 40
0.0
 40
0.0
 40
1.0
 40
1.0
 40
1.0
 40
2.0
 40
2.0
 40
2.0
 40
3.0
 40
3.0
 40
3.0
 40
4.0
 40
4.0
 40
4.0
 40
4.0
 10
39.030175781249994
 20
97.807638888888874
 10
39.030175781249994
 20
97.807638888888874
 10
38.899606662326384
 20
97.807638888888874
 10
38.899606662326384
 20
97.807638888888874
 10
38.899606662326384
 20
97.807638888888874
 10
38.899606662326384
 20
97.93786349826388
 10
38.899606662326384
 20
97.93786349826388
 10
38.899606662326384
 20
97.93786349826388
 10
39.030175781249994
 20
97.93786349826388
 10
39.030175781249994
 20
97.93786349826388
 10
39.030175781249994
 20
97.93786349826388
 10
39.030175781249994
 20
97.807638888888874
 10
39.030175781249994
 20
97.807638888888874
 97
        0
 92
        1
 93
        1
 72
     4
 94
        3
 73
     0
 74
     0
 95
       17
 96
       13
 40
0.0
 40
0.0
 40
0.0
 40
0.0
 40
1.0
 40
1.0
 40
1.0
 40
2.0
 40
2.0
 40
2.0
 40
3.0
 40
3.0
 40
3.0
 40
4.0
 40
4.0
 40
4.0
 40
4.0
 10
39.030175781249994
 20
98.329226345486106
 10
39.030175781249994
 20
98.329226345486106
 10
38.899606662326384
 20
98.329226345486106
 10
38.899606662326384
 20
98.329226345486106
 10
38.899606662326384
 20
98.329226345486106
 10
38.899606662326384
 20
98.981727430555551
 10
38.899606662326384
 20
98.981727430555551
 10
38.899606662326384
 20
98.981727430555551
 10
39.030175781249994
 20
98.981727430555551
 10
39.030175781249994
 20
98.981727430555551
 10
39.030175781249994
 20
98.981727430555551
 10
39.030175781249994
 20
98.329226345486106
 10
39.030175781249994
 20
98.329226345486106
 97
        0
 75
     0
 76
     1
 98
        1
 10
0.0
 20
0.0
  0
MTEXT
  5
BE
100
AcDbEntity
  8
LAYER_1
 62
   250
100
AcDbMText
 10
70.507841
 20
99.014544
 30
0.0
 40
1.197948
 41
0.0
 71
     1
 72
     2
  1
\fArial|b0|i0;76
  7
STD
210
0.0
220
0.0
230
1.0
 11
1.000001
 21
0.0
 31
0.0
 73
     1
 44
1.0
  0
MTEXT
  5
BD
100
AcDbEntity
  8
LAYER_1
 62
   250
100
AcDbMText
 10
75.741975
 20
79.586962
 30
0.0
 40
1.197948
 41
0.0
 71
     1
 72
     2
  1
\fArial|b0|i0;52
  7
STD
210
0.0
220
0.0
230
1.0
 11
1.000001
 21
0.0
 31
0.0
 73
     1
 44
1.0
  0
HATCH
  5
BC
100
AcDbEntity
  8
LAYER_1
 62
   250
100
AcDbHatch
 10
0.0
 20
0.0
 30
0.0
210
0.0
220
0.0
230
1.0
  2
SOLID
 70
     1
 71
     0
 91
        2
 92
        1
 93
        1
 72
     4
 94
        3
 73
     0
 74
     0
 95
       17
 96
       13
 40
0.0
 40
0.0
 40
0.0
 40
0.0
 40
1.0
 40
1.0
 40
1.0
 40
2.0
 40
2.0
 40
2.0
 40
3.0
 40
3.0
 40
3.0
 40
4.0
 40
4.0
 40
4.0
 40
4.0
 10
75.607960340711799
 20
79.64922960069444
 10
75.607960340711799
 20
79.64922960069444
 10
74.771491156684021
 20
78.201600477430546
 10
74.771491156684021
 20
78.201600477430546
 10
74.771491156684021
 20
78.201600477430546
 10
74.658664279513886
 20
78.266368272569437
 10
74.658664279513886
 20
78.266368272569437
 10
74.658664279513886
 20
78.266368272569437
 10
75.494788953993051
 20
79.714686414930554
 10
75.494788953993051
 20
79.714686414930554
 10
75.494788953993051
 20
79.714686414930554
 10
75.607960340711799
 20
79.64922960069444
 10
75.607960340711799
 20
79.64922960069444
 97
        0
 92
        1
 93
        1
 72
     4
 94
        3
 73
     0
 74
     0
 95
       38
 96
       34
 40
0.0
 40
0.0
 40
0.0
 40
0.0
 40
1.0
 40
1.0
 40
1.0
 40
2.0
 40
2.0
 40
2.0
 40
3.0
 40
3.0
 40
3.0
 40
4.0
 40
4.0
 40
4.0
 40
5.0
 40
5.0
 40
5.0
 40
6.0
 40
6.0
 40
6.0
 40
7.0
 40
7.0
 40
7.0
 40
8.0
 40
8.0
 40
8.0
 40
9.0
 40
9.0
 40
9.0
 40
10.0
 40
10.0
 40
10.0
 40
11.0
 40
11.0
 40
11.0
 40
11.0
 10
75.13305392795138
 20
79.448036024305551
 10
75.13305392795138
 20
79.448036024305551
 10
75.13305392795138
 20
79.513492838541666
 10
75.13305392795138
 20
79.513492838541666
 10
75.438978407118043
 20
79.512803819444443
 10
75.687714301215266
 20
79.26406792534722
 10
75.688058810763877
 20
78.958143446180543
 10
75.687714301215266
 20
78.651529947916657
 10
75.438978407118043
 20
78.403483072916657
 10
75.13305392795138
 20
78.403483072916657
 10
74.827301703559016
 20
78.403483072916657
 10
74.578565809461793
 20
78.651529947916657
 10
74.57787679036457
 20
78.958143446180543
 10
74.578565809461793
 20
79.26406792534722
 10
74.827301703559016
 20
79.512803819444443
 10
75.13305392795138
 20
79.513492838541666
 10
75.13305392795138
 20
79.513492838541666
 10
75.13305392795138
 20
79.382579210069437
 10
75.13305392795138
 20
79.382579210069437
 10
74.899648708767359
 20
79.382579210069437
 10
74.70913492838541
 20
79.191720920138877
 10
74.708790418836799
 20
78.958143446180543
 10
74.70913492838541
 20
78.724565972222209
 10
74.899648708767359
 20
78.533707682291663
 10
75.13305392795138
 20
78.533707682291663
 10
75.366631401909714
 20
78.533707682291663
 10
75.556800672743051
 20
78.724565972222209
 10
75.557489691840274
 20
78.958143446180543
 10
75.556800672743051
 20
79.191720920138877
 10
75.366631401909714
 20
79.382579210069437
 10
75.13305392795138
 20
79.382579210069437
 10
75.13305392795138
 20
79.382579210069437
 10
75.13305392795138
 20
79.448036024305551
 10
75.13305392795138
 20
79.448036024305551
 97
        0
 75
     0
 76
     1
 98
        1
 10
0.0
 20
0.0
  0
HATCH
  5
BB
100
AcDbEntity
  8
LAYER_1
 62
   250
100
AcDbHatch
 10
0.0
 20
0.0
 30
0.0
210
0.0
220
0.0
230
1.0
  2
SOLID
 70
     1
 71
     0
 91
        1
 92
        1
 93
        1
 72
     4
 94
        3
 73
     0
 74
     0
 95
       23
 96
       19
 40
0.0
 40
0.0
 40
0.0
 40
0.0
 40
1.0
 40
1.0
 40
1.0
 40
2.0
 40
2.0
 40
2.0
 40
3.0
 40
3.0
 40
3.0
 40
4.0
 40
4.0
 40
4.0
 40
5.0
 40
5.0
 40
5.0
 40
6.0
 40
6.0
 40
6.0
 40
6.0
 10
39.054635959201384
 20
95.908013237847214
 10
39.054635959201384
 20
95.908013237847214
 10
60.521714952256936
 20
95.908013237847214
 10
60.521714952256936
 20
95.908013237847214
 10
60.55737169053819
 20
95.908013237847214
 10
60.586999511718744
 20
95.87838541666666
 10
60.586999511718744
 20
95.8425564236111
 10
60.586999511718744
 20
95.806038411458331
 10
60.55737169053819
 20
95.777099609374986
 10
60.521714952256936
 20
95.777099609374986
 10
60.521714952256936
 20
95.777099609374986
 10
39.054635959201384
 20
95.777099609374986
 10
39.054635959201384
 20
95.777099609374986
 10
39.018634711371526
 20
95.777099609374986
 10
38.989351399739583
 20
95.806038411458331
 10
38.989351399739583
 20
95.8425564236111
 10
38.989351399739583
 20
95.87838541666666
 10
39.018634711371526
 20
95.908013237847214
 10
39.054635959201384
 20
95.908013237847214
 97
        0
 75
     0
 76
     1
 98
        1
 10
0.0
 20
0.0
  0
HATCH
  5
BA
100
AcDbEntity
  8
LAYER_1
 62
   250
100
AcDbHatch
 10
0.0
 20
0.0
 30
0.0
210
0.0
220
0.0
230
1.0
  2
SOLID
 70
     1
 71
     0
 91
        1
 92
        1
 93
        1
 72
     4
 94
        3
 73
     0
 74
     0
 95
       23
 96
       19
 40
0.0
 40
0.0
 40
0.0
 40
0.0
 40
1.0
 40
1.0
 40
1.0
 40
2.0
 40
2.0
 40
2.0
 40
3.0
 40
3.0
 40
3.0
 40
4.0
 40
4.0
 40
4.0
 40
5.0
 40
5.0
 40
5.0
 40
6.0
 40
6.0
 40
6.0
 40
6.0
 10
57.656945800781244
 20
77.191498480902766
 10
57.656945800781244
 20
77.191498480902766
 10
57.656945800781244
 20
98.428445095486097
 10
57.656945800781244
 20
98.428445095486097
 10
57.656945800781244
 20
98.46496310763888
 10
57.686229112413187
 20
98.493212890624989
 10
57.722230360243053
 20
98.493212890624989
 10
57.758059353298606
 20
98.493212890624989
 10
57.787342664930549
 20
98.46496310763888
 10
57.787342664930549
 20
98.428445095486097
 10
57.787342664930549
 20
98.428445095486097
 10
57.787342664930549
 20
77.191498480902766
 10
57.787342664930549
 20
77.191498480902766
 10
57.787342664930549
 20
77.15566948784722
 10
57.758059353298606
 20
77.126041666666666
 10
57.722230360243053
 20
77.126041666666666
 10
57.686229112413187
 20
77.126041666666666
 10
57.656945800781244
 20
77.15566948784722
 10
57.656945800781244
 20
77.191498480902766
 97
        0
 75
     0
 76
     1
 98
        1
 10
0.0
 20
0.0
  0
SPLINE
  5
B9
100
AcDbEntity
  8
LAYER_1
 62
   250
100
AcDbSpline
210
0.0
220
0.0
230
1.0
 70
     8
 71
     3
 72
    23
 73
    19
 74
     0
 42
0.00000001
 43
0.00000001
 40
0.0
 40
0.0
 40
0.0
 40
0.0
 40
1.0
 40
1.0
 40
1.0
 40
2.0
 40
2.0
 40
2.0
 40
3.0
 40
3.0
 40
3.0
 40
4.0
 40
4.0
 40
4.0
 40
5.0
 40
5.0
 40
5.0
 40
6.0
 40
6.0
 40
6.0
 40
6.0
 10
48.682644314236107
 20
69.198187934027771
 30
0.0
 10
48.682644314236107
 20
69.198187934027771
 30
0.0
 10
50.590365939670136
 20
69.198187934027771
 30
0.0
 10
50.590365939670136
 20
69.198187934027771
 30
0.0
 10
50.626367187499994
 20
69.198187934027771
 30
0.0
 10
50.655305989583326
 20
69.168560112847217
 30
0.0
 10
50.655305989583326
 20
69.132042100694434
 30
0.0
 10
50.655305989583326
 20
69.096213107638889
 30
0.0
 10
50.626367187499994
 20
69.067274305555543
 30
0.0
 10
50.590365939670136
 20
69.067274305555543
 30
0.0
 10
50.590365939670136
 20
69.067274305555543
 30
0.0
 10
48.682644314236107
 20
69.067274305555543
 30
0.0
 10
48.682644314236107
 20
69.067274305555543
 30
0.0
 10
48.646298556857637
 20
69.067274305555543
 30
0.0
 10
48.617359754774299
 20
69.096213107638889
 30
0.0
 10
48.617359754774299
 20
69.132042100694434
 30
0.0
 10
48.617359754774299
 20
69.168560112847217
 30
0.0
 10
48.646298556857637
 20
69.198187934027771
 30
0.0
 10
48.682644314236107
 20
69.198187934027771
 30
0.0
  0
SPLINE
  5
B8
100
AcDbEntity
  8
LAYER_1
 62
   250
100
AcDbSpline
210
0.0
220
0.0
230
1.0
 70
     8
 71
     3
 72
    23
 73
    19
 74
     0
 42
0.00000001
 43
0.00000001
 40
0.0
 40
0.0
 40
0.0
 40
0.0
 40
1.0
 40
1.0
 40
1.0
 40
2.0
 40
2.0
 40
2.0
 40
3.0
 40
3.0
 40
3.0
 40
4.0
 40
4.0
 40
4.0
 40
5.0
 40
5.0
 40
5.0
 40
6.0
 40
6.0
 40
6.0
 40
6.0
 10
52.587487792968744
 20
68.520882161458331
 30
0.0
 10
52.587487792968744
 20
68.520882161458331
 30
0.0
 10
53.10459662543402
 20
68.520882161458331
 30
0.0
 10
53.10459662543402
 20
68.520882161458331
 30
0.0
 10
53.140597873263886
 20
68.520882161458331
 30
0.0
 10
53.169536675347217
 20
68.491254340277777
 30
0.0
 10
53.169536675347217
 20
68.454736328124994
 30
0.0
 10
53.169536675347217
 20
68.418907335069434
 30
0.0
 10
53.140597873263886
 20
68.389968532986103
 30
0.0
 10
53.10459662543402
 20
68.389968532986103
 30
0.0
 10
53.10459662543402
 20
68.389968532986103
 30
0.0
 10
52.587487792968744
 20
68.389968532986103
 30
0.0
 10
52.587487792968744
 20
68.389968532986103
 30
0.0
 10
52.551142035590274
 20
68.389968532986103
 30
0.0
 10
52.521858723958331
 20
68.418907335069434
 30
0.0
 10
52.521858723958331
 20
68.454736328124994
 30
0.0
 10
52.521858723958331
 20
68.491254340277777
 30
0.0
 10
52.551142035590274
 20
68.520882161458331
 30
0.0
 10
52.587487792968744
 20
68.520882161458331
 30
0.0
  0
SPLINE
  5
B7
100
AcDbEntity
  8
LAYER_1
 62
   250
100
AcDbSpline
210
0.0
220
0.0
230
1.0
 70
     8
 71
     3
 72
    23
 73
    19
 74
     0
 42
0.00000001
 43
0.00000001
 40
0.0
 40
0.0
 40
0.0
 40
0.0
 40
1.0
 40
1.0
 40
1.0
 40
2.0
 40
2.0
 40
2.0
 40
3.0
 40
3.0
 40
3.0
 40
4.0
 40
4.0
 40
4.0
 40
5.0
 40
5.0
 40
5.0
 40
6.0
 40
6.0
 40
6.0
 40
6.0
 10
52.173731825086804
 20
86.92596028645832
 30
0.0
 10
52.173731825086804
 20
86.92596028645832
 30
0.0
 10
52.584214952256943
 20
87.229128689236106
 30
0.0
 10
52.584214952256943
 20
87.229128689236106
 30
0.0
 10
52.613153754340274
 20
87.250488281249986
 30
0.0
 10
52.654150390624999
 20
87.244287109374994
 30
0.0
 10
52.675682237413191
 20
87.215348307291663
 30
0.0
 10
52.696869574652773
 20
87.186409505208331
 30
0.0
 10
52.69084065755208
 20
87.145068359374989
 30
0.0
 10
52.661901855468749
 20
87.123708767361109
 30
0.0
 10
52.661901855468749
 20
87.123708767361109
 30
0.0
 10
52.251590983072909
 20
86.821229383680546
 30
0.0
 10
52.251590983072909
 20
86.821229383680546
 30
0.0
 10
52.222996690538189
 20
86.799180772569443
 30
0.0
 10
52.181827799479159
 20
86.805381944444434
 30
0.0
 10
52.160295952690966
 20
86.834320746527766
 30
0.0
 10
52.139108615451384
 20
86.863259548611097
 30
0.0
 10
52.145137532552077
 20
86.90460069444444
 30
0.0
 10
52.173731825086804
 20
86.92596028645832
 30
0.0
  0
SPLINE
  5
B6
100
AcDbEntity
  8
LAYER_1
 62
   250
100
AcDbSpline
210
0.0
220
0.0
230
1.0
 70
     8
 71
     3
 72
    23
 73
    19
 74
     0
 42
0.00000001
 43
0.00000001
 40
0.0
 40
0.0
 40
0.0
 40
0.0
 40
1.0
 40
1.0
 40
1.0
 40
2.0
 40
2.0
 40
2.0
 40
3.0
 40
3.0
 40
3.0
 40
4.0
 40
4.0
 40
4.0
 40
5.0
 40
5.0
 40
5.0
 40
6.0
 40
6.0
 40
6.0
 40
6.0
 10
53.038967556423607
 20
68.454736328124994
 30
0.0
 10
53.038967556423607
 20
68.454736328124994
 30
0.0
 10
53.038967556423607
 20
85.749804687499989
 30
0.0
 10
53.038967556423607
 20
85.749804687499989
 30
0.0
 10
53.038967556423607
 20
85.785633680555549
 30
0.0
 10
53.06825086805555
 20
85.815261501736103
 30
0.0
 10
53.10459662543402
 20
85.815261501736103
 30
0.0
 10
53.140597873263886
 20
85.815261501736103
 30
0.0
 10
53.169536675347217
 20
85.785633680555549
 30
0.0
 10
53.169536675347217
 20
85.749804687499989
 30
0.0
 10
53.169536675347217
 20
85.749804687499989
 30
0.0
 10
53.169536675347217
 20
68.454736328124994
 30
0.0
 10
53.169536675347217
 20
68.454736328124994
 30
0.0
 10
53.169536675347217
 20
68.418907335069434
 30
0.0
 10
53.140597873263886
 20
68.389968532986103
 30
0.0
 10
53.10459662543402
 20
68.389968532986103
 30
0.0
 10
53.06825086805555
 20
68.389968532986103
 30
0.0
 10
53.038967556423607
 20
68.418907335069434
 30
0.0
 10
53.038967556423607
 20
68.454736328124994
 30
0.0
  0
SPLINE
  5
B5
100
AcDbEntity
  8
LAYER_1
 62
   250
100
AcDbSpline
210
0.0
220
0.0
230
1.0
 70
     8
 71
     3
 72
    23
 73
    19
 74
     0
 42
0.00000001
 43
0.00000001
 40
0.0
 40
0.0
 40
0.0
 40
0.0
 40
1.0
 40
1.0
 40
1.0
 40
2.0
 40
2.0
 40
2.0
 40
3.0
 40
3.0
 40
3.0
 40
4.0
 40
4.0
 40
4.0
 40
5.0
 40
5.0
 40
5.0
 40
6.0
 40
6.0
 40
6.0
 40
6.0
 10
52.521858723958331
 20
68.454736328124994
 30
0.0
 10
52.521858723958331
 20
68.454736328124994
 30
0.0
 10
52.521858723958331
 20
85.749804687499989
 30
0.0
 10
52.521858723958331
 20
85.749804687499989
 30
0.0
 10
52.521858723958331
 20
85.785633680555549
 30
0.0
 10
52.551142035590274
 20
85.815261501736103
 30
0.0
 10
52.587487792968744
 20
85.815261501736103
 30
0.0
 10
52.623144531249999
 20
85.815261501736103
 30
0.0
 10
52.652427842881941
 20
85.785633680555549
 30
0.0
 10
52.652427842881941
 20
85.749804687499989
 30
0.0
 10
52.652427842881941
 20
85.749804687499989
 30
0.0
 10
52.652427842881941
 20
68.454736328124994
 30
0.0
 10
52.652427842881941
 20
68.454736328124994
 30
0.0
 10
52.652427842881941
 20
68.418907335069434
 30
0.0
 10
52.623144531249999
 20
68.389968532986103
 30
0.0
 10
52.587487792968744
 20
68.389968532986103
 30
0.0
 10
52.551142035590274
 20
68.389968532986103
 30
0.0
 10
52.521858723958331
 20
68.418907335069434
 30
0.0
 10
52.521858723958331
 20
68.454736328124994
 30
0.0
  0
SPLINE
  5
B4
100
AcDbEntity
  8
LAYER_1
 62
   250
100
AcDbSpline
210
0.0
220
0.0
230
1.0
 70
     8
 71
     3
 72
    23
 73
    19
 74
     0
 42
0.00000001
 43
0.00000001
 40
0.0
 40
0.0
 40
0.0
 40
0.0
 40
1.0
 40
1.0
 40
1.0
 40
2.0
 40
2.0
 40
2.0
 40
3.0
 40
3.0
 40
3.0
 40
4.0
 40
4.0
 40
4.0
 40
5.0
 40
5.0
 40
5.0
 40
6.0
 40
6.0
 40
6.0
 40
6.0
 10
50.655305989583326
 20
85.054584418402769
 30
0.0
 10
50.655305989583326
 20
85.054584418402769
 30
0.0
 10
50.655305989583326
 20
69.132042100694434
 30
0.0
 10
50.655305989583326
 20
69.132042100694434
 30
0.0
 10
50.655305989583326
 20
69.096213107638889
 30
0.0
 10
50.626367187499994
 20
69.067274305555543
 30
0.0
 10
50.590365939670136
 20
69.067274305555543
 30
0.0
 10
50.55436469184027
 20
69.067274305555543
 30
0.0
 10
50.525081380208327
 20
69.096213107638889
 30
0.0
 10
50.525081380208327
 20
69.132042100694434
 30
0.0
 10
50.525081380208327
 20
69.132042100694434
 30
0.0
 10
50.525081380208327
 20
85.054584418402769
 30
0.0
 10
50.525081380208327
 20
85.054584418402769
 30
0.0
 10
50.525081380208327
 20
85.091102430555551
 30
0.0
 10
50.55436469184027
 20
85.120041232638883
 30
0.0
 10
50.590365939670136
 20
85.120041232638883
 30
0.0
 10
50.626367187499994
 20
85.120041232638883
 30
0.0
 10
50.655305989583326
 20
85.091102430555551
 30
0.0
 10
50.655305989583326
 20
85.054584418402769
 30
0.0
  0
SPLINE
  5
B3
100
AcDbEntity
  8
LAYER_1
 62
   250
100
AcDbSpline
210
0.0
220
0.0
230
1.0
 70
     8
 71
     3
 72
    23
 73
    19
 74
     0
 42
0.00000001
 43
0.00000001
 40
0.0
 40
0.0
 40
0.0
 40
0.0
 40
1.0
 40
1.0
 40
1.0
 40
2.0
 40
2.0
 40
2.0
 40
3.0
 40
3.0
 40
3.0
 40
4.0
 40
4.0
 40
4.0
 40
5.0
 40
5.0
 40
5.0
 40
6.0
 40
6.0
 40
6.0
 40
6.0
 10
48.74775661892361
 20
85.054584418402769
 30
0.0
 10
48.74775661892361
 20
85.054584418402769
 30
0.0
 10
48.74775661892361
 20
69.132042100694434
 30
0.0
 10
48.74775661892361
 20
69.132042100694434
 30
0.0
 10
48.74775661892361
 20
69.096213107638889
 30
0.0
 10
48.71847330729166
 20
69.067274305555543
 30
0.0
 10
48.682644314236107
 20
69.067274305555543
 30
0.0
 10
48.646298556857637
 20
69.067274305555543
 30
0.0
 10
48.617359754774299
 20
69.096213107638889
 30
0.0
 10
48.617359754774299
 20
69.132042100694434
 30
0.0
 10
48.617359754774299
 20
69.132042100694434
 30
0.0
 10
48.617359754774299
 20
85.054584418402769
 30
0.0
 10
48.617359754774299
 20
85.054584418402769
 30
0.0
 10
48.617359754774299
 20
85.091102430555551
 30
0.0
 10
48.646298556857637
 20
85.120041232638883
 30
0.0
 10
48.682644314236107
 20
85.120041232638883
 30
0.0
 10
48.71847330729166
 20
85.120041232638883
 30
0.0
 10
48.74775661892361
 20
85.091102430555551
 30
0.0
 10
48.74775661892361
 20
85.054584418402769
 30
0.0
  0
SPLINE
  5
B2
100
AcDbEntity
  8
LAYER_1
 62
   250
100
AcDbSpline
210
0.0
220
0.0
230
1.0
 70
     8
 71
     3
 72
    23
 73
    19
 74
     0
 42
0.00000001
 43
0.00000001
 40
0.0
 40
0.0
 40
0.0
 40
0.0
 40
1.0
 40
1.0
 40
1.0
 40
2.0
 40
2.0
 40
2.0
 40
3.0
 40
3.0
 40
3.0
 40
4.0
 40
4.0
 40
4.0
 40
5.0
 40
5.0
 40
5.0
 40
6.0
 40
6.0
 40
6.0
 40
6.0
 10
52.587487792968744
 20
85.815261501736103
 30
0.0
 10
52.587487792968744
 20
85.815261501736103
 30
0.0
 10
53.10459662543402
 20
85.815261501736103
 30
0.0
 10
53.10459662543402
 20
85.815261501736103
 30
0.0
 10
53.140597873263886
 20
85.815261501736103
 30
0.0
 10
53.169536675347217
 20
85.785633680555549
 30
0.0
 10
53.169536675347217
 20
85.749804687499989
 30
0.0
 10
53.169536675347217
 20
85.713975694444443
 30
0.0
 10
53.140597873263886
 20
85.685036892361097
 30
0.0
 10
53.10459662543402
 20
85.685036892361097
 30
0.0
 10
53.10459662543402
 20
85.685036892361097
 30
0.0
 10
52.587487792968744
 20
85.685036892361097
 30
0.0
 10
52.587487792968744
 20
85.685036892361097
 30
0.0
 10
52.551142035590274
 20
85.685036892361097
 30
0.0
 10
52.521858723958331
 20
85.713975694444443
 30
0.0
 10
52.521858723958331
 20
85.749804687499989
 30
0.0
 10
52.521858723958331
 20
85.785633680555549
 30
0.0
 10
52.551142035590274
 20
85.815261501736103
 30
0.0
 10
52.587487792968744
 20
85.815261501736103
 30
0.0
  0
SPLINE
  5
B1
100
AcDbEntity
  8
LAYER_1
 62
   250
100
AcDbSpline
210
0.0
220
0.0
230
1.0
 70
     8
 71
     3
 72
    23
 73
    19
 74
     0
 42
0.00000001
 43
0.00000001
 40
0.0
 40
0.0
 40
0.0
 40
0.0
 40
1.0
 40
1.0
 40
1.0
 40
2.0
 40
2.0
 40
2.0
 40
3.0
 40
3.0
 40
3.0
 40
4.0
 40
4.0
 40
4.0
 40
5.0
 40
5.0
 40
5.0
 40
6.0
 40
6.0
 40
6.0
 40
6.0
 10
48.682644314236107
 20
85.120041232638883
 30
0.0
 10
48.682644314236107
 20
85.120041232638883
 30
0.0
 10
50.590365939670136
 20
85.120041232638883
 30
0.0
 10
50.590365939670136
 20
85.120041232638883
 30
0.0
 10
50.626367187499994
 20
85.120041232638883
 30
0.0
 10
50.655305989583326
 20
85.091102430555551
 30
0.0
 10
50.655305989583326
 20
85.054584418402769
 30
0.0
 10
50.655305989583326
 20
85.018755425347209
 30
0.0
 10
50.626367187499994
 20
84.989816623263877
 30
0.0
 10
50.590365939670136
 20
84.989816623263877
 30
0.0
 10
50.590365939670136
 20
84.989816623263877
 30
0.0
 10
48.682644314236107
 20
84.989816623263877
 30
0.0
 10
48.682644314236107
 20
84.989816623263877
 30
0.0
 10
48.646298556857637
 20
84.989816623263877
 30
0.0
 10
48.617359754774299
 20
85.018755425347209
 30
0.0
 10
48.617359754774299
 20
85.054584418402769
 30
0.0
 10
48.617359754774299
 20
85.091102430555551
 30
0.0
 10
48.646298556857637
 20
85.120041232638883
 30
0.0
 10
48.682644314236107
 20
85.120041232638883
 30
0.0
  0
SPLINE
  5
B0
100
AcDbEntity
  8
LAYER_1
 62
   250
100
AcDbSpline
210
0.0
220
0.0
230
1.0
 70
     8
 71
     3
 72
    23
 73
    19
 74
     0
 42
0.00000001
 43
0.00000001
 40
0.0
 40
0.0
 40
0.0
 40
0.0
 40
1.0
 40
1.0
 40
1.0
 40
2.0
 40
2.0
 40
2.0
 40
3.0
 40
3.0
 40
3.0
 40
4.0
 40
4.0
 40
4.0
 40
5.0
 40
5.0
 40
5.0
 40
6.0
 40
6.0
 40
6.0
 40
6.0
 10
52.25021294487847
 20
67.367464192708326
 30
0.0
 10
52.25021294487847
 20
67.367464192708326
 30
0.0
 10
52.660179307725691
 20
67.082210286458334
 30
0.0
 10
52.660179307725691
 20
67.082210286458334
 30
0.0
 10
52.689462619357634
 20
67.061539713541663
 30
0.0
 10
52.697214084201384
 20
67.020887586805543
 30
0.0
 10
52.676371256510414
 20
66.991259765624989
 30
0.0
 10
52.655528428819437
 20
66.961631944444434
 30
0.0
 10
52.615393066406249
 20
66.95474175347222
 30
0.0
 10
52.585765245225687
 20
66.975412326388877
 30
0.0
 10
52.585765245225687
 20
66.975412326388877
 30
0.0
 10
52.175454372829854
 20
67.260666232638883
 30
0.0
 10
52.175454372829854
 20
67.260666232638883
 30
0.0
 10
52.1458265516493
 20
67.280647786458331
 30
0.0
 10
52.138764105902773
 20
67.32198893229166
 30
0.0
 10
52.159262424045131
 20
67.351616753472214
 30
0.0
 10
52.179932996961803
 20
67.380555555555546
 30
0.0
 10
52.220585123697909
 20
67.388134765624997
 30
0.0
 10
52.25021294487847
 20
67.367464192708326
 30
0.0
  0
SPLINE
  5
AF
100
AcDbEntity
  8
LAYER_1
 62
   250
100
AcDbSpline
210
0.0
220
0.0
230
1.0
 70
     8
 71
     3
 72
    53
 73
    49
 74
     0
 42
0.00000001
 43
0.00000001
 40
0.0
 40
0.0
 40
0.0
 40
0.0
 40
1.0
 40
1.0
 40
1.0
 40
2.0
 40
2.0
 40
2.0
 40
3.0
 40
3.0
 40
3.0
 40
4.0
 40
4.0
 40
4.0
 40
5.0
 40
5.0
 40
5.0
 40
6.0
 40
6.0
 40
6.0
 40
7.0
 40
7.0
 40
7.0
 40
8.0
 40
8.0
 40
8.0
 40
9.0
 40
9.0
 40
9.0
 40
10.0
 40
10.0
 40
10.0
 40
11.0
 40
11.0
 40
11.0
 40
12.0
 40
12.0
 40
12.0
 40
13.0
 40
13.0
 40
13.0
 40
14.0
 40
14.0
 40
14.0
 40
15.0
 40
15.0
 40
15.0
 40
16.0
 40
16.0
 40
16.0
 40
16.0
 10
57.722574869791664
 20
77.102615017361103
 30
0.0
 10
57.722574869791664
 20
77.102615017361103
 30
0.0
 10
57.656945800781244
 20
77.102615017361103
 30
0.0
 10
57.656945800781244
 20
77.102615017361103
 30
0.0
 10
57.624045138888881
 20
87.41378580729166
 30
0.0
 10
49.310168457031246
 20
95.777099609374986
 30
0.0
 10
38.984700520833329
 20
95.777099609374986
 30
0.0
 10
38.984700520833329
 20
95.777099609374986
 30
0.0
 10
38.945598687065967
 20
95.777099609374986
 30
0.0
 10
38.945598687065967
 20
95.777099609374986
 30
0.0
 10
28.620475260416665
 20
95.777099609374986
 30
0.0
 10
20.306254069010414
 20
87.413096788194437
 30
0.0
 10
20.273697916666666
 20
77.102615017361103
 30
0.0
 10
20.312455240885416
 20
66.747347005208326
 30
0.0
 10
28.612034776475692
 20
58.446044921874993
 30
0.0
 10
38.965580240885416
 20
58.410904947916663
 30
0.0
 10
38.965580240885416
 20
58.410904947916663
 30
0.0
 10
38.965235731336804
 20
58.410904947916663
 30
0.0
 10
38.965235731336804
 20
58.410904947916663
 30
0.0
 10
49.319642469618053
 20
58.446044921874993
 30
0.0
 10
57.617671712239577
 20
66.747347005208326
 30
0.0
 10
57.656945800781244
 20
77.102615017361103
 30
0.0
 10
57.656945800781244
 20
77.102615017361103
 30
0.0
 10
57.722574869791664
 20
77.102615017361103
 30
0.0
 10
57.722574869791664
 20
77.102615017361103
 30
0.0
 10
57.722574869791664
 20
77.102615017361103
 30
0.0
 10
57.787342664930549
 20
77.10192599826388
 30
0.0
 10
57.787342664930549
 20
77.10192599826388
 30
0.0
 10
57.748240831163187
 20
66.67568901909722
 30
0.0
 10
49.391300455729166
 20
58.315820312499994
 30
0.0
 10
38.965580240885416
 20
58.279991319444441
 30
0.0
 10
38.965580240885416
 20
58.279991319444441
 30
0.0
 10
38.965235731336804
 20
58.279991319444441
 30
0.0
 10
38.965235731336804
 20
58.279991319444441
 30
0.0
 10
28.540721299913191
 20
58.315820312499994
 30
0.0
 10
20.181713867187497
 20
66.67568901909722
 30
0.0
 10
20.142784288194441
 20
77.10192599826388
 30
0.0
 10
20.176373969184027
 20
87.484754774305543
 30
0.0
 10
28.548128255208329
 20
95.908013237847214
 30
0.0
 10
38.945598687065967
 20
95.908013237847214
 30
0.0
 10
38.945598687065967
 20
95.908013237847214
 30
0.0
 10
38.984700520833329
 20
95.908013237847214
 30
0.0
 10
38.984700520833329
 20
95.908013237847214
 30
0.0
 10
49.382515462239581
 20
95.908013237847214
 30
0.0
 10
57.753925238715276
 20
87.485443793402766
 30
0.0
 10
57.787342664930549
 20
77.102615017361103
 30
0.0
 10
57.787342664930549
 20
77.102615017361103
 30
0.0
 10
57.722574869791664
 20
77.102615017361103
 30
0.0
 10
57.722574869791664
 20
77.102615017361103
 30
0.0
  0
SPLINE
  5
AE
100
AcDbEntity
  8
LAYER_1
 62
   250
100
AcDbSpline
210
0.0
220
0.0
230
1.0
 70
     8
 71
     3
 72
    50
 73
    46
 74
     0
 42
0.00000001
 43
0.00000001
 40
0.0
 40
0.0
 40
0.0
 40
0.0
 40
1.0
 40
1.0
 40
1.0
 40
2.0
 40
2.0
 40
2.0
 40
3.0
 40
3.0
 40
3.0
 40
4.0
 40
4.0
 40
4.0
 40
5.0
 40
5.0
 40
5.0
 40
6.0
 40
6.0
 40
6.0
 40
7.0
 40
7.0
 40
7.0
 40
8.0
 40
8.0
 40
8.0
 40
9.0
 40
9.0
 40
9.0
 40
10.0
 40
10.0
 40
10.0
 40
11.0
 40
11.0
 40
11.0
 40
12.0
 40
12.0
 40
12.0
 40
13.0
 40
13.0
 40
13.0
 40
14.0
 40
14.0
 40
14.0
 40
15.0
 40
15.0
 40
15.0
 40
15.0
 10
48.632518174913187
 20
85.012554253472217
 30
0.0
 10
45.979622395833331
 20
88.182731119791654
 30
0.0
 10
42.47854410807291
 20
89.601421440972217
 30
0.0
 10
39.041889105902776
 20
89.601421440972217
 30
0.0
 10
32.683793131510413
 20
89.600732421874994
 30
0.0
 10
26.55531277126736
 20
84.745214843749991
 30
0.0
 10
26.460744900173609
 20
77.10192599826388
 30
0.0
 10
26.460744900173609
 20
77.10192599826388
 30
0.0
 10
26.395460340711804
 20
77.102615017361103
 30
0.0
 10
26.395460340711804
 20
77.102615017361103
 30
0.0
 10
26.395460340711804
 20
77.102615017361103
 30
0.0
 10
26.460744900173609
 20
77.103304036458326
 30
0.0
 10
26.460744900173609
 20
77.103304036458326
 30
0.0
 10
26.568748643663191
 20
69.440722656249989
 30
0.0
 10
32.67242431640625
 20
64.59347330729166
 30
0.0
 10
39.023113335503467
 20
64.592095269097214
 30
0.0
 10
42.457529025607634
 20
64.592784288194437
 30
0.0
 10
45.96256917317708
 20
66.010785590277777
 30
0.0
 10
48.632862684461799
 20
69.174761284722223
 30
0.0
 10
48.655772569444437
 20
69.202322048611109
 30
0.0
 10
48.697113715277773
 20
69.205078125
 30
0.0
 10
48.724846733940964
 20
69.18234049479166
 30
0.0
 10
48.752062988281246
 20
69.15960286458332
 30
0.0
 10
48.755680338541666
 20
69.117572699652769
 30
0.0
 10
48.73225368923611
 20
69.090700954861106
 30
0.0
 10
46.038533528645829
 20
65.897097439236106
 30
0.0
 10
42.493874782986104
 20
64.461181640625
 30
0.0
 10
39.023113335503467
 20
64.461870659722223
 30
0.0
 10
32.607484266493053
 20
64.460492621527777
 30
0.0
 10
26.439213053385416
 20
69.364930555555546
 30
0.0
 10
26.329831271701387
 20
77.101236979166657
 30
0.0
 10
26.329831271701387
 20
77.101236979166657
 30
0.0
 10
26.329831271701387
 20
77.103304036458326
 30
0.0
 10
26.329831271701387
 20
77.103304036458326
 30
0.0
 10
26.425432671440969
 20
84.821695963541657
 30
0.0
 10
32.61988661024305
 20
89.733713107638877
 30
0.0
 10
39.041889105902776
 20
89.731646050347209
 30
0.0
 10
42.514200846354164
 20
89.732335069444431
 30
0.0
 10
46.055414496527774
 20
88.296419270833326
 30
0.0
 10
48.73225368923611
 20
85.09661458333332
 30
0.0
 10
48.75602484809027
 20
85.069053819444434
 30
0.0
 10
48.752062988281246
 20
85.027712673611106
 30
0.0
 10
48.724157714843749
 20
85.004286024305543
 30
0.0
 10
48.697113715277773
 20
84.981548394097217
 30
0.0
 10
48.655428059895826
 20
84.984993489583331
 30
0.0
 10
48.632518174913187
 20
85.012554253472217
 30
0.0
  0
SPLINE
  5
AD
100
AcDbEntity
  8
LAYER_1
 62
   250
100
AcDbSpline
210
0.0
220
0.0
230
1.0
 70
     8
 71
     3
 72
    59
 73
    55
 74
     0
 42
0.00000001
 43
0.00000001
 40
0.0
 40
0.0
 40
0.0
 40
0.0
 40
1.0
 40
1.0
 40
1.0
 40
2.0
 40
2.0
 40
2.0
 40
3.0
 40
3.0
 40
3.0
 40
4.0
 40
4.0
 40
4.0
 40
5.0
 40
5.0
 40
5.0
 40
6.0
 40
6.0
 40
6.0
 40
7.0
 40
7.0
 40
7.0
 40
8.0
 40
8.0
 40
8.0
 40
9.0
 40
9.0
 40
9.0
 40
10.0
 40
10.0
 40
10.0
 40
11.0
 40
11.0
 40
11.0
 40
12.0
 40
12.0
 40
12.0
 40
13.0
 40
13.0
 40
13.0
 40
14.0
 40
14.0
 40
14.0
 40
15.0
 40
15.0
 40
15.0
 40
16.0
 40
16.0
 40
16.0
 40
17.0
 40
17.0
 40
17.0
 40
18.0
 40
18.0
 40
18.0
 40
18.0
 10
52.160295952690966
 20
86.834320746527766
 30
0.0
 10
49.037144639756939
 20
91.10348307291666
 30
0.0
 10
44.066044108072916
 20
93.501958550347211
 30
0.0
 10
38.945943196614579
 20
93.501958550347211
 30
0.0
 10
37.32743733723958
 20
93.501958550347211
 30
0.0
 10
35.693945312499999
 20
93.262179904513886
 30
0.0
 10
34.099038357204861
 20
92.766086154513886
 30
0.0
 10
27.440357801649302
 20
90.6955837673611
 30
0.0
 10
22.791201443142359
 20
84.609478081597217
 30
0.0
 10
22.573815917968748
 20
77.635226779513886
 30
0.0
 10
22.567442491319444
 20
77.447124565972217
 30
0.0
 10
22.564341905381941
 20
77.259711371527771
 30
0.0
 10
22.564341905381941
 20
77.072298177083326
 30
0.0
 10
22.564341905381941
 20
70.318532986111109
 30
0.0
 10
26.746860080295136
 20
64.215201822916654
 30
0.0
 10
33.087041558159719
 20
61.79398871527777
 30
0.0
 10
35.00613199869791
 20
61.04984809027777
 30
0.0
 10
36.997569444444444
 20
60.692247178819436
 30
0.0
 10
38.966786024305549
 20
60.692247178819436
 30
0.0
 10
44.057603624131943
 20
60.692247178819436
 30
0.0
 10
48.999420844184023
 20
63.081765407986104
 30
0.0
 10
52.160295952690966
 20
67.35299479166666
 30
0.0
 10
52.181827799479159
 20
67.381933593749991
 30
0.0
 10
52.222996690538189
 20
67.388134765624997
 30
0.0
 10
52.25193549262152
 20
67.366775173611103
 30
0.0
 10
52.280874294704859
 20
67.3447265625
 30
0.0
 10
52.286903211805551
 20
67.304763454861103
 30
0.0
 10
52.265371365017359
 20
67.275135633680549
 30
0.0
 10
49.079519314236109
 20
62.970144314236109
 30
0.0
 10
44.097911241319437
 20
60.562022569444437
 30
0.0
 10
38.966786024305549
 20
60.562022569444437
 30
0.0
 10
36.982066514756944
 20
60.562022569444437
 30
0.0
 10
34.974264865451389
 20
60.922379557291663
 30
0.0
 10
33.040016004774301
 20
61.672721354166661
 30
0.0
 10
26.649191623263885
 20
64.112537977430549
 30
0.0
 10
22.433428276909719
 20
70.264100477430546
 30
0.0
 10
22.433428276909719
 20
77.072298177083326
 30
0.0
 10
22.433428276909719
 20
77.260400390624994
 30
0.0
 10
22.43687337239583
 20
77.449880642361109
 30
0.0
 10
22.443246799045138
 20
77.639360894097209
 30
0.0
 10
22.662354871961803
 20
84.670111762152771
 30
0.0
 10
27.348373752170136
 20
90.803070746527766
 30
0.0
 10
34.060625542534716
 20
92.890798611111109
 30
0.0
 10
35.668279351128469
 20
93.391026475694431
 30
0.0
 10
37.314690483940971
 20
93.632183159722217
 30
0.0
 10
38.945943196614579
 20
93.632183159722217
 30
0.0
 10
44.106696234809021
 20
93.632183159722217
 30
0.0
 10
49.116554090711801
 20
91.215104166666663
 30
0.0
 10
52.26571587456597
 20
86.911490885416654
 30
0.0
 10
52.286903211805551
 20
86.882552083333323
 30
0.0
 10
52.280874294704859
 20
86.841899956597217
 30
0.0
 10
52.251590983072909
 20
86.820540364583323
 30
0.0
 10
52.221963161892354
 20
86.799180772569443
 30
0.0
 10
52.181138780381943
 20
86.806070963541657
 30
0.0
 10
52.160295952690966
 20
86.834320746527766
 30
0.0
  0
SPLINE
  5
AC
100
AcDbEntity
  8
LAYER_1
 62
   250
100
AcDbSpline
210
0.0
220
0.0
230
1.0
 70
     8
 71
     3
 72
    50
 73
    46
 74
     0
 42
0.00000001
 43
0.00000001
 40
0.0
 40
0.0
 40
0.0
 40
0.0
 40
1.0
 40
1.0
 40
1.0
 40
2.0
 40
2.0
 40
2.0
 40
3.0
 40
3.0
 40
3.0
 40
4.0
 40
4.0
 40
4.0
 40
5.0
 40
5.0
 40
5.0
 40
6.0
 40
6.0
 40
6.0
 40
7.0
 40
7.0
 40
7.0
 40
8.0
 40
8.0
 40
8.0
 40
9.0
 40
9.0
 40
9.0
 40
10.0
 40
10.0
 40
10.0
 40
11.0
 40
11.0
 40
11.0
 40
12.0
 40
12.0
 40
12.0
 40
13.0
 40
13.0
 40
13.0
 40
14.0
 40
14.0
 40
14.0
 40
15.0
 40
15.0
 40
15.0
 40
15.0
 10
50.112703450520826
 20
86.225227864583331
 30
0.0
 10
47.019524468315971
 20
89.87151692708332
 30
0.0
 10
42.97704942491319
 20
91.505870225694437
 30
0.0
 10
39.020701768663194
 20
91.507248263888883
 30
0.0
 10
31.713998752170134
 20
91.505181206597214
 30
0.0
 10
24.708569335937497
 20
85.927571614583329
 30
0.0
 10
24.552506510416663
 20
77.101236979166657
 30
0.0
 10
24.552506510416663
 20
77.101236979166657
 30
0.0
 10
24.487221950954858
 20
77.102615017361103
 30
0.0
 10
24.487221950954858
 20
77.102615017361103
 30
0.0
 10
24.487221950954858
 20
77.102615017361103
 30
0.0
 10
24.552506510416663
 20
77.103304036458326
 30
0.0
 10
24.552506510416663
 20
77.103304036458326
 30
0.0
 10
24.70030110677083
 20
68.273524305555554
 30
0.0
 10
31.713654242621526
 20
62.692469618055547
 30
0.0
 10
39.022079806857633
 20
62.691091579861109
 30
0.0
 10
42.981011284722221
 20
62.691780598958324
 30
0.0
 10
47.02451985677083
 20
64.328889973958326
 30
0.0
 10
50.112703450520826
 20
67.980691189236111
 30
0.0
 10
50.135957845052076
 20
68.007562934027774
 30
0.0
 10
50.1769544813368
 20
68.011008029513889
 30
0.0
 10
50.204515245225693
 20
67.988270399305549
 30
0.0
 10
50.232248263888884
 20
67.96484375
 30
0.0
 10
50.235521104600693
 20
67.923502604166657
 30
0.0
 10
50.212266710069443
 20
67.895941840277771
 30
0.0
 10
47.100311957465273
 20
64.215890842013877
 30
0.0
 10
43.01701253255208
 20
62.560866970486103
 30
0.0
 10
39.022079806857633
 20
62.560866970486103
 30
0.0
 10
31.649058702256941
 20
62.559488932291664
 30
0.0
 10
24.570248752170137
 20
68.197043185763889
 30
0.0
 10
24.422109646267359
 20
77.101236979166657
 30
0.0
 10
24.422109646267359
 20
77.101236979166657
 30
0.0
 10
24.422109646267359
 20
77.103304036458326
 30
0.0
 10
24.422109646267359
 20
77.103304036458326
 30
0.0
 10
24.57868923611111
 20
86.004052734374994
 30
0.0
 10
31.649403211805552
 20
91.638161892361097
 30
0.0
 10
39.020701768663194
 20
91.636783854166652
 30
0.0
 10
43.013050672743049
 20
91.636783854166652
 30
0.0
 10
47.095144314236109
 20
89.984516059027769
 30
0.0
 10
50.212266710069443
 20
86.309288194444434
 30
0.0
 10
50.235521104600693
 20
86.281727430555549
 30
0.0
 10
50.232248263888884
 20
86.241075303819443
 30
0.0
 10
50.204515245225693
 20
86.21764865451388
 30
0.0
 10
50.1769544813368
 20
86.194222005208331
 30
0.0
 10
50.135957845052076
 20
86.197667100694431
 30
0.0
 10
50.112703450520826
 20
86.225227864583331
 30
0.0
  0
SPLINE
  5
AB
100
AcDbEntity
  8
LAYER_1
 62
   250
100
AcDbSpline
210
0.0
220
0.0
230
1.0
 70
     8
 71
     3
 72
   104
 73
   100
 74
     0
 42
0.00000001
 43
0.00000001
 40
0.0
 40
0.0
 40
0.0
 40
0.0
 40
1.0
 40
1.0
 40
1.0
 40
2.0
 40
2.0
 40
2.0
 40
3.0
 40
3.0
 40
3.0
 40
4.0
 40
4.0
 40
4.0
 40
5.0
 40
5.0
 40
5.0
 40
6.0
 40
6.0
 40
6.0
 40
7.0
 40
7.0
 40
7.0
 40
8.0
 40
8.0
 40
8.0
 40
9.0
 40
9.0
 40
9.0
 40
10.0
 40
10.0
 40
10.0
 40
11.0
 40
11.0
 40
11.0
 40
12.0
 40
12.0
 40
12.0
 40
13.0
 40
13.0
 40
13.0
 40
14.0
 40
14.0
 40
14.0
 40
15.0
 40
15.0
 40
15.0
 40
16.0
 40
16.0
 40
16.0
 40
17.0
 40
17.0
 40
17.0
 40
18.0
 40
18.0
 40
18.0
 40
19.0
 40
19.0
 40
19.0
 40
20.0
 40
20.0
 40
20.0
 40
21.0
 40
21.0
 40
21.0
 40
22.0
 40
22.0
 40
22.0
 40
23.0
 40
23.0
 40
23.0
 40
24.0
 40
24.0
 40
24.0
 40
25.0
 40
25.0
 40
25.0
 40
26.0
 40
26.0
 40
26.0
 40
27.0
 40
27.0
 40
27.0
 40
28.0
 40
28.0
 40
28.0
 40
29.0
 40
29.0
 40
29.0
 40
30.0
 40
30.0
 40
30.0
 40
31.0
 40
31.0
 40
31.0
 40
32.0
 40
32.0
 40
32.0
 40
33.0
 40
33.0
 40
33.0
 40
33.0
 10
52.570606825086799
 20
87.137489149305551
 30
0.0
 10
49.30586208767361
 20
91.556168619791663
 30
0.0
 10
44.211427137586803
 20
94.00838758680554
 30
0.0
 10
38.95403917100694
 20
94.00838758680554
 30
0.0
 10
36.931251356336801
 20
94.00838758680554
 30
0.0
 10
34.885036892361107
 20
93.64596354166666
 30
0.0
 10
32.908757866753469
 20
92.89217664930554
 30
0.0
 10
26.316739908854164
 20
90.349696180555554
 30
0.0
 10
22.047922092013888
 20
84.045860460069434
 30
0.0
 10
22.047922092013888
 20
77.098480902777766
 30
0.0
 10
22.047922092013888
 20
76.552777777777777
 30
0.0
 10
22.073932562934026
 20
76.002940538194437
 30
0.0
 10
22.127503797743053
 20
75.45034722222222
 30
0.0
 10
22.864237467447914
 20
67.907655164930546
 30
0.0
 10
28.606350368923607
 20
61.706483289930553
 30
0.0
 10
36.087719726562497
 20
60.442133246527774
 30
0.0
 10
36.087719726562497
 20
60.442133246527774
 30
0.0
 10
36.08840874565972
 20
60.442133246527774
 30
0.0
 10
36.08840874565972
 20
60.442133246527774
 30
0.0
 10
37.026852756076387
 20
60.275390624999993
 30
0.0
 10
37.985967339409719
 20
60.192708333333329
 30
0.0
 10
38.948010253906247
 20
60.192708333333329
 30
0.0
 10
41.655510796440971
 20
60.192708333333329
 30
0.0
 10
44.388160536024301
 20
60.845209418402774
 30
0.0
 10
46.762348090277776
 20
62.094401041666664
 30
0.0
 10
46.762348090277776
 20
62.094401041666664
 30
0.0
 10
46.763037109374999
 20
62.094401041666664
 30
0.0
 10
46.763037109374999
 20
62.094401041666664
 30
0.0
 10
48.416510687934021
 20
62.944650607638884
 30
0.0
 10
49.864312065972214
 20
64.036056857638883
 30
0.0
 10
51.14950493706597
 20
65.379644097222211
 30
0.0
 10
51.14950493706597
 20
65.379644097222211
 30
0.0
 10
51.196530490451387
 20
65.334857855902769
 30
0.0
 10
51.196530490451387
 20
65.334857855902769
 30
0.0
 10
51.196530490451387
 20
65.334857855902769
 30
0.0
 10
51.14709337022569
 20
65.376888020833334
 30
0.0
 10
51.14709337022569
 20
65.376888020833334
 30
0.0
 10
51.519680447048607
 20
65.814415147569434
 30
0.0
 10
51.995448133680554
 20
66.271234809027774
 30
0.0
 10
52.376131184895826
 20
66.772151692708334
 30
0.0
 10
52.756469726562493
 20
67.273757595486103
 30
0.0
 10
53.039312065972219
 20
67.815326605902769
 30
0.0
 10
53.039312065972219
 20
68.420974392361103
 30
0.0
 10
53.039312065972219
 20
68.420974392361103
 30
0.0
 10
53.038967556423607
 20
68.454047309027771
 30
0.0
 10
53.038967556423607
 20
68.454047309027771
 30
0.0
 10
53.038623046874996
 20
68.490565321180554
 30
0.0
 10
53.067217339409716
 20
68.519504123263886
 30
0.0
 10
53.103563096788193
 20
68.520882161458331
 30
0.0
 10
53.13921983506944
 20
68.520882161458331
 30
0.0
 10
53.168847656249994
 20
68.492632378472223
 30
0.0
 10
53.169536675347217
 20
68.45611436631944
 30
0.0
 10
53.169536675347217
 20
68.45611436631944
 30
0.0
 10
53.169881184895829
 20
68.420974392361103
 30
0.0
 10
53.169881184895829
 20
68.420974392361103
 30
0.0
 10
53.169881184895829
 20
67.772607421874994
 30
0.0
 10
52.86791856553819
 20
67.204855685763889
 30
0.0
 10
52.479484049479161
 20
66.693603515625
 30
0.0
 10
52.090705023871521
 20
66.182351345486111
 30
0.0
 10
51.612353515624996
 20
65.722086588541657
 30
0.0
 10
51.246828884548606
 20
65.292827690972217
 30
0.0
 10
51.246828884548606
 20
65.292827690972217
 30
0.0
 10
51.244072808159714
 20
65.290071614583326
 30
0.0
 10
51.244072808159714
 20
65.290071614583326
 30
0.0
 10
49.949061414930554
 20
63.936149088541661
 30
0.0
 10
48.488857693142357
 20
62.835785590277773
 30
0.0
 10
46.822637261284719
 20
61.978645833333324
 30
0.0
 10
46.822637261284719
 20
61.978645833333324
 30
0.0
 10
46.823154025607636
 20
61.978645833333324
 30
0.0
 10
46.823154025607636
 20
61.978645833333324
 30
0.0
 10
44.428468153211803
 20
60.719807942708329
 30
0.0
 10
41.676353624131941
 20
60.06248372395833
 30
0.0
 10
38.948010253906247
 20
60.06248372395833
 30
0.0
 10
37.97856038411458
 20
60.06248372395833
 30
0.0
 10
37.01203884548611
 20
60.145166015624994
 30
0.0
 10
36.065843370225693
 20
60.313975694444437
 30
0.0
 10
36.065843370225693
 20
60.313975694444437
 30
0.0
 10
36.066187879774304
 20
60.313975694444437
 30
0.0
 10
36.066187879774304
 20
60.313975694444437
 30
0.0
 10
28.525562879774302
 20
61.587972005208329
 30
0.0
 10
22.74038628472222
 20
67.835308159722217
 30
0.0
 10
21.998140462239583
 20
75.437944878472209
 30
0.0
 10
21.943707953559027
 20
75.994672309027777
 30
0.0
 10
21.917008463541666
 20
76.54864366319444
 30
0.0
 10
21.917008463541666
 20
77.098480902777766
 30
0.0
 10
21.917008463541666
 20
84.099603949652774
 30
0.0
 10
26.219415961371524
 20
90.45236002604166
 30
0.0
 10
32.861904568142357
 20
93.014133029513886
 30
0.0
 10
34.852997504340273
 20
93.773432074652774
 30
0.0
 10
36.915576171874996
 20
94.139301215277769
 30
0.0
 10
38.95403917100694
 20
94.139301215277769
 30
0.0
 10
44.252079264322916
 20
94.139301215277769
 30
0.0
 10
49.385960557725689
 20
91.668478732638874
 30
0.0
 10
52.675682237413191
 20
87.215348307291663
 30
0.0
 10
52.696869574652773
 20
87.186409505208331
 30
0.0
 10
52.69084065755208
 20
87.145068359374989
 30
0.0
 10
52.661901855468749
 20
87.123708767361109
 30
0.0
 10
52.63296305338541
 20
87.102349175347214
 30
0.0
 10
52.592138671874999
 20
87.10855034722222
 30
0.0
 10
52.570606825086799
 20
87.137489149305551
 30
0.0
  0
SPLINE
  5
AA
100
AcDbEntity
  8
LAYER_1
 62
   250
100
AcDbSpline
210
0.0
220
0.0
230
1.0
 70
     8
 71
     3
 72
    23
 73
    19
 74
     0
 42
0.00000001
 43
0.00000001
 40
0.0
 40
0.0
 40
0.0
 40
0.0
 40
1.0
 40
1.0
 40
1.0
 40
2.0
 40
2.0
 40
2.0
 40
3.0
 40
3.0
 40
3.0
 40
4.0
 40
4.0
 40
4.0
 40
5.0
 40
5.0
 40
5.0
 40
6.0
 40
6.0
 40
6.0
 40
6.0
 10
48.723468695746526
 20
69.183029513888883
 30
0.0
 10
48.723468695746526
 20
69.183029513888883
 30
0.0
 10
50.203309461805553
 20
67.988959418402771
 30
0.0
 10
50.203309461805553
 20
67.988959418402771
 30
0.0
 10
50.231559244791661
 20
67.966221788194431
 30
0.0
 10
50.235865614149304
 20
67.924880642361103
 30
0.0
 10
50.21330023871527
 20
67.896630859374994
 30
0.0
 10
50.190734863281243
 20
67.869070095486109
 30
0.0
 10
50.149393717447914
 20
67.864935980902771
 30
0.0
 10
50.12148844401041
 20
67.886984592013889
 30
0.0
 10
50.12148844401041
 20
67.886984592013889
 30
0.0
 10
48.641647677951383
 20
69.081743706597223
 30
0.0
 10
48.641647677951383
 20
69.081743706597223
 30
0.0
 10
48.613397894965274
 20
69.104481336805549
 30
0.0
 10
48.609263780381937
 20
69.145133463541654
 30
0.0
 10
48.63148464626736
 20
69.173383246527777
 30
0.0
 10
48.654394531249999
 20
69.201633029513886
 30
0.0
 10
48.695563422309021
 20
69.205767144097223
 30
0.0
 10
48.723468695746526
 20
69.183029513888883
 30
0.0
  0
SPLINE
  5
A9
100
AcDbEntity
  8
LAYER_1
 62
   250
100
AcDbSpline
210
0.0
220
0.0
230
1.0
 70
     8
 71
     3
 72
    32
 73
    28
 74
     0
 42
0.00000001
 43
0.00000001
 40
0.0
 40
0.0
 40
0.0
 40
0.0
 40
1.0
 40
1.0
 40
1.0
 40
2.0
 40
2.0
 40
2.0
 40
3.0
 40
3.0
 40
3.0
 40
4.0
 40
4.0
 40
4.0
 40
5.0
 40
5.0
 40
5.0
 40
6.0
 40
6.0
 40
6.0
 40
7.0
 40
7.0
 40
7.0
 40
8.0
 40
8.0
 40
8.0
 40
9.0
 40
9.0
 40
9.0
 40
9.0
 10
48.641303168402771
 20
85.105571831597217
 30
0.0
 10
48.641303168402771
 20
85.105571831597217
 30
0.0
 10
50.121143934461799
 20
86.317556423611109
 30
0.0
 10
50.121143934461799
 20
86.317556423611109
 30
0.0
 10
50.121143934461799
 20
86.317556423611109
 30
0.0
 10
50.144053819444437
 20
86.329958767361106
 30
0.0
 10
50.144053819444437
 20
86.329958767361106
 30
0.0
 10
50.144053819444437
 20
86.329958767361106
 30
0.0
 10
52.194402398003469
 20
86.93560655381944
 30
0.0
 10
52.194402398003469
 20
86.93560655381944
 30
0.0
 10
52.22868109809027
 20
86.945941840277769
 30
0.0
 10
52.265371365017359
 20
86.926649305555543
 30
0.0
 10
52.275878906249993
 20
86.89150933159722
 30
0.0
 10
52.285869683159717
 20
86.857058376736106
 30
0.0
 10
52.26571587456597
 20
86.821229383680546
 30
0.0
 10
52.231437174479161
 20
86.810894097222217
 30
0.0
 10
52.231437174479161
 20
86.810894097222217
 30
0.0
 10
50.193146430121523
 20
86.208002387152774
 30
0.0
 10
50.193146430121523
 20
86.208002387152774
 30
0.0
 10
50.193146430121523
 20
86.208002387152774
 30
0.0
 10
48.723813205295137
 20
85.004286024305543
 30
0.0
 10
48.723813205295137
 20
85.004286024305543
 30
0.0
 10
48.695907931857633
 20
84.981548394097217
 30
0.0
 10
48.65473904079861
 20
84.985682508680554
 30
0.0
 10
48.63148464626736
 20
85.013932291666663
 30
0.0
 10
48.609263780381937
 20
85.041493055555549
 30
0.0
 10
48.613397894965274
 20
85.082145182291654
 30
0.0
 10
48.641303168402771
 20
85.105571831597217
 30
0.0
  0
SPLINE
  5
A8
100
AcDbEntity
  8
LAYER_1
 62
   250
100
AcDbSpline
210
0.0
220
0.0
230
1.0
 70
     8
 71
     3
 72
    23
 73
    19
 74
     0
 42
0.00000001
 43
0.00000001
 40
0.0
 40
0.0
 40
0.0
 40
0.0
 40
1.0
 40
1.0
 40
1.0
 40
2.0
 40
2.0
 40
2.0
 40
3.0
 40
3.0
 40
3.0
 40
4.0
 40
4.0
 40
4.0
 40
5.0
 40
5.0
 40
5.0
 40
6.0
 40
6.0
 40
6.0
 40
6.0
 10
50.611553276909717
 20
69.194742838541657
 30
0.0
 10
50.611553276909717
 20
69.194742838541657
 30
0.0
 10
52.608330620659714
 20
68.516748046874994
 30
0.0
 10
52.608330620659714
 20
68.516748046874994
 30
0.0
 10
52.642092556423606
 20
68.505723741319443
 30
0.0
 10
52.660523817274303
 20
68.467827690972214
 30
0.0
 10
52.649155002170133
 20
68.434065755208323
 30
0.0
 10
52.637613932291664
 20
68.399614800347223
 30
0.0
 10
52.600579155815964
 20
68.381700303819443
 30
0.0
 10
52.566644965277774
 20
68.393413628472217
 30
0.0
 10
52.566644965277774
 20
68.393413628472217
 30
0.0
 10
50.569523111979159
 20
69.070719401041657
 30
0.0
 10
50.569523111979159
 20
69.070719401041657
 30
0.0
 10
50.535416666666663
 20
69.082432725694431
 30
0.0
 10
50.516985405815966
 20
69.118950737847214
 30
0.0
 10
50.528354220920136
 20
69.153401692708329
 30
0.0
 10
50.539895290798604
 20
69.18716362847222
 30
0.0
 10
50.576930067274304
 20
69.205078125
 30
0.0
 10
50.611553276909717
 20
69.194742838541657
 30
0.0
  0
SPLINE
  5
A7
100
AcDbEntity
  8
LAYER_1
 62
   250
100
AcDbSpline
210
0.0
220
0.0
230
1.0
 70
     8
 71
     3
 72
    23
 73
    19
 74
     0
 42
0.00000001
 43
0.00000001
 40
0.0
 40
0.0
 40
0.0
 40
0.0
 40
1.0
 40
1.0
 40
1.0
 40
2.0
 40
2.0
 40
2.0
 40
3.0
 40
3.0
 40
3.0
 40
4.0
 40
4.0
 40
4.0
 40
5.0
 40
5.0
 40
5.0
 40
6.0
 40
6.0
 40
6.0
 40
6.0
 10
50.181605360243054
 20
68.000672743055546
 30
0.0
 10
50.181605360243054
 20
68.000672743055546
 30
0.0
 10
52.231781684027773
 20
67.376421440972223
 30
0.0
 10
52.231781684027773
 20
67.376421440972223
 30
0.0
 10
52.266404893663193
 20
67.36608615451388
 30
0.0
 10
52.285869683159717
 20
67.329568142361111
 30
0.0
 10
52.27518988715277
 20
67.295117187499997
 30
0.0
 10
52.264682345920136
 20
67.260666232638883
 30
0.0
 10
52.228336588541659
 20
67.241373697916657
 30
0.0
 10
52.194057888454857
 20
67.251708984375
 30
0.0
 10
52.194057888454857
 20
67.251708984375
 30
0.0
 10
50.143709309895826
 20
67.875960286458323
 30
0.0
 10
50.143709309895826
 20
67.875960286458323
 30
0.0
 10
50.109258355034719
 20
67.886295572916666
 30
0.0
 10
50.089449055989576
 20
67.922813585069434
 30
0.0
 10
50.100301106770829
 20
67.957264539930549
 30
0.0
 10
50.110291883680553
 20
67.991715494791663
 30
0.0
 10
50.146982150607634
 20
68.011008029513889
 30
0.0
 10
50.181605360243054
 20
68.000672743055546
 30
0.0
  0
SPLINE
  5
A6
100
AcDbEntity
  8
LAYER_1
 62
   250
100
AcDbSpline
210
0.0
220
0.0
230
1.0
 70
     8
 71
     3
 72
    38
 73
    34
 74
     0
 42
0.00000001
 43
0.00000001
 40
0.0
 40
0.0
 40
0.0
 40
0.0
 40
1.0
 40
1.0
 40
1.0
 40
2.0
 40
2.0
 40
2.0
 40
3.0
 40
3.0
 40
3.0
 40
4.0
 40
4.0
 40
4.0
 40
5.0
 40
5.0
 40
5.0
 40
6.0
 40
6.0
 40
6.0
 40
7.0
 40
7.0
 40
7.0
 40
8.0
 40
8.0
 40
8.0
 40
9.0
 40
9.0
 40
9.0
 40
10.0
 40
10.0
 40
10.0
 40
11.0
 40
11.0
 40
11.0
 40
11.0
 10
52.522547743055554
 20
85.746359592013874
 30
0.0
 10
52.522547743055554
 20
85.746359592013874
 30
0.0
 10
52.504977756076386
 20
86.043326822916654
 30
0.0
 10
52.504977756076386
 20
86.043326822916654
 30
0.0
 10
52.504977756076386
 20
86.043326822916654
 30
0.0
 10
52.436075846354164
 20
86.317556423611109
 30
0.0
 10
52.436075846354164
 20
86.317556423611109
 30
0.0
 10
52.436075846354164
 20
86.317556423611109
 30
0.0
 10
52.315842013888883
 20
86.593164062499994
 30
0.0
 10
52.315842013888883
 20
86.593164062499994
 30
0.0
 10
52.315842013888883
 20
86.593164062499994
 30
0.0
 10
52.158056640624999
 20
86.83776584201388
 30
0.0
 10
52.158056640624999
 20
86.83776584201388
 30
0.0
 10
52.138419596354161
 20
86.86877170138888
 30
0.0
 10
52.147204589843746
 20
86.908734809027763
 30
0.0
 10
52.177521430121523
 20
86.928027343749989
 30
0.0
 10
52.2078382703993
 20
86.947319878472214
 30
0.0
 10
52.24780137803819
 20
86.938362630208331
 30
0.0
 10
52.267782931857631
 20
86.908734809027763
 30
0.0
 10
52.267782931857631
 20
86.908734809027763
 30
0.0
 10
52.428324381510414
 20
86.659309895833331
 30
0.0
 10
52.428324381510414
 20
86.659309895833331
 30
0.0
 10
52.529954698350693
 20
86.472585720486109
 30
0.0
 10
52.602646213107633
 20
86.267258029513883
 30
0.0
 10
52.634685601128467
 20
86.057107204861097
 30
0.0
 10
52.634685601128467
 20
86.057107204861097
 30
0.0
 10
52.652427842881941
 20
85.753938802083326
 30
0.0
 10
52.652427842881941
 20
85.753938802083326
 30
0.0
 10
52.654494900173603
 20
85.717420789930543
 30
0.0
 10
52.626934136284717
 20
85.687103949652766
 30
0.0
 10
52.59127739800347
 20
85.685036892361097
 30
0.0
 10
52.554931640624993
 20
85.682969835069443
 30
0.0
 10
52.524614800347216
 20
85.710530598958329
 30
0.0
 10
52.522547743055554
 20
85.746359592013874
 30
0.0
  0
SPLINE
  5
A5
100
AcDbEntity
  8
LAYER_1
 62
   250
100
AcDbSpline
210
0.0
220
0.0
230
1.0
 70
     8
 71
     3
 72
    38
 73
    34
 74
     0
 42
0.00000001
 43
0.00000001
 40
0.0
 40
0.0
 40
0.0
 40
0.0
 40
1.0
 40
1.0
 40
1.0
 40
2.0
 40
2.0
 40
2.0
 40
3.0
 40
3.0
 40
3.0
 40
4.0
 40
4.0
 40
4.0
 40
5.0
 40
5.0
 40
5.0
 40
6.0
 40
6.0
 40
6.0
 40
7.0
 40
7.0
 40
7.0
 40
8.0
 40
8.0
 40
8.0
 40
9.0
 40
9.0
 40
9.0
 40
10.0
 40
10.0
 40
10.0
 40
11.0
 40
11.0
 40
11.0
 40
11.0
 10
50.216745334201384
 20
86.303087022569443
 30
0.0
 10
50.216745334201384
 20
86.303087022569443
 30
0.0
 10
50.395029025607634
 20
86.035747612847217
 30
0.0
 10
50.395029025607634
 20
86.035747612847217
 30
0.0
 10
50.53111029730902
 20
85.790456814236109
 30
0.0
 10
50.573140462239579
 20
85.673323567708323
 30
0.0
 10
50.619649251302079
 20
85.399782986111106
 30
0.0
 10
50.619649251302079
 20
85.399782986111106
 30
0.0
 10
50.655305989583326
 20
85.061474609374997
 30
0.0
 10
50.655305989583326
 20
85.061474609374997
 30
0.0
 10
50.65875108506944
 20
85.025645616319437
 30
0.0
 10
50.632740614149299
 20
84.993261718749991
 30
0.0
 10
50.59673936631944
 20
84.989816623263877
 30
0.0
 10
50.561427137586804
 20
84.986371527777777
 30
0.0
 10
50.529043240017359
 20
85.011865234374994
 30
0.0
 10
50.525425889756939
 20
85.047694227430554
 30
0.0
 10
50.525425889756939
 20
85.047694227430554
 30
0.0
 10
50.49063042534722
 20
85.382557508680549
 30
0.0
 10
50.49063042534722
 20
85.382557508680549
 30
0.0
 10
50.49063042534722
 20
85.382557508680549
 30
0.0
 10
50.421728515624999
 20
85.675390624999991
 30
0.0
 10
50.421728515624999
 20
85.675390624999991
 30
0.0
 10
50.421728515624999
 20
85.675390624999991
 30
0.0
 10
50.283407931857631
 20
85.967534722222211
 30
0.0
 10
50.283407931857631
 20
85.967534722222211
 30
0.0
 10
50.283407931857631
 20
85.967534722222211
 30
0.0
 10
50.108224826388884
 20
86.2307400173611
 30
0.0
 10
50.108224826388884
 20
86.2307400173611
 30
0.0
 10
50.088415527343749
 20
86.261056857638877
 30
0.0
 10
50.09651150173611
 20
86.301708984374997
 30
0.0
 10
50.126139322916664
 20
86.321690538194431
 30
0.0
 10
50.15611165364583
 20
86.34167209201388
 30
0.0
 10
50.196763780381943
 20
86.33340386284722
 30
0.0
 10
50.216745334201384
 20
86.303087022569443
 30
0.0
  0
SPLINE
  5
A4
100
AcDbEntity
  8
LAYER_1
 62
   250
100
AcDbSpline
210
0.0
220
0.0
230
1.0
 70
     8
 71
     3
 72
    38
 73
    34
 74
     0
 42
0.00000001
 43
0.00000001
 40
0.0
 40
0.0
 40
0.0
 40
0.0
 40
1.0
 40
1.0
 40
1.0
 40
2.0
 40
2.0
 40
2.0
 40
3.0
 40
3.0
 40
3.0
 40
4.0
 40
4.0
 40
4.0
 40
5.0
 40
5.0
 40
5.0
 40
6.0
 40
6.0
 40
6.0
 40
7.0
 40
7.0
 40
7.0
 40
8.0
 40
8.0
 40
8.0
 40
9.0
 40
9.0
 40
9.0
 40
10.0
 40
10.0
 40
10.0
 40
11.0
 40
11.0
 40
11.0
 40
11.0
 10
50.108224826388884
 20
67.973800998263883
 30
0.0
 10
50.108224826388884
 20
67.973800998263883
 30
0.0
 10
50.284613715277771
 20
68.238384331597217
 30
0.0
 10
50.284613715277771
 20
68.238384331597217
 30
0.0
 10
50.284613715277771
 20
68.238384331597217
 30
0.0
 10
50.421728515624999
 20
68.512613932291657
 30
0.0
 10
50.421728515624999
 20
68.512613932291657
 30
0.0
 10
50.421728515624999
 20
68.512613932291657
 30
0.0
 10
50.49063042534722
 20
68.821983506944434
 30
0.0
 10
50.49063042534722
 20
68.821983506944434
 30
0.0
 10
50.49063042534722
 20
68.821983506944434
 30
0.0
 10
50.525425889756939
 20
69.140310329861109
 30
0.0
 10
50.525425889756939
 20
69.140310329861109
 30
0.0
 10
50.529732259114581
 20
69.175450303819431
 30
0.0
 10
50.561771647135409
 20
69.201633029513886
 30
0.0
 10
50.597428385416663
 20
69.197498914930549
 30
0.0
 10
50.633429633246521
 20
69.193364800347211
 30
0.0
 10
50.659095594618051
 20
69.160980902777766
 30
0.0
 10
50.655305989583326
 20
69.12515190972222
 30
0.0
 10
50.655305989583326
 20
69.12515190972222
 30
0.0
 10
50.619649251302079
 20
68.804758029513877
 30
0.0
 10
50.619649251302079
 20
68.804758029513877
 30
0.0
 10
50.552986653645831
 20
68.471961805555551
 30
0.0
 10
50.564010959201383
 20
68.463004557291654
 30
0.0
 10
50.395029025607634
 20
68.169482421874989
 30
0.0
 10
50.395029025607634
 20
68.169482421874989
 30
0.0
 10
50.216745334201384
 20
67.902143012152777
 30
0.0
 10
50.216745334201384
 20
67.902143012152777
 30
0.0
 10
50.196763780381943
 20
67.871826171875
 30
0.0
 10
50.15611165364583
 20
67.863557942708326
 30
0.0
 10
50.126139322916664
 20
67.883539496527774
 30
0.0
 10
50.09651150173611
 20
67.904210069444431
 30
0.0
 10
50.088415527343749
 20
67.944173177083329
 30
0.0
 10
50.108224826388884
 20
67.973800998263883
 30
0.0
  0
SPLINE
  5
A3
100
AcDbEntity
  8
LAYER_1
 62
   250
100
AcDbSpline
210
0.0
220
0.0
230
1.0
 70
     8
 71
     3
 72
    38
 73
    34
 74
     0
 42
0.00000001
 43
0.00000001
 40
0.0
 40
0.0
 40
0.0
 40
0.0
 40
1.0
 40
1.0
 40
1.0
 40
2.0
 40
2.0
 40
2.0
 40
3.0
 40
3.0
 40
3.0
 40
4.0
 40
4.0
 40
4.0
 40
5.0
 40
5.0
 40
5.0
 40
6.0
 40
6.0
 40
6.0
 40
7.0
 40
7.0
 40
7.0
 40
8.0
 40
8.0
 40
8.0
 40
9.0
 40
9.0
 40
9.0
 40
10.0
 40
10.0
 40
10.0
 40
11.0
 40
11.0
 40
11.0
 40
11.0
 10
52.156678602430553
 20
67.3481716579861
 30
0.0
 10
52.156678602430553
 20
67.3481716579861
 30
0.0
 10
52.315842013888883
 20
67.612065972222211
 30
0.0
 10
52.315842013888883
 20
67.612065972222211
 30
0.0
 10
52.315842013888883
 20
67.612065972222211
 30
0.0
 10
52.436075846354164
 20
67.870448133680554
 30
0.0
 10
52.436075846354164
 20
67.870448133680554
 30
0.0
 10
52.436075846354164
 20
67.870448133680554
 30
0.0
 10
52.504977756076386
 20
68.161214192708329
 30
0.0
 10
52.504977756076386
 20
68.161214192708329
 30
0.0
 10
52.504977756076386
 20
68.161214192708329
 30
0.0
 10
52.522547743055554
 20
68.458870442708331
 30
0.0
 10
52.522547743055554
 20
68.458870442708331
 30
0.0
 10
52.524614800347216
 20
68.494699435763877
 30
0.0
 10
52.554931640624993
 20
68.522260199652777
 30
0.0
 10
52.59127739800347
 20
68.520882161458331
 30
0.0
 10
52.626934136284717
 20
68.51812608506944
 30
0.0
 10
52.654494900173603
 20
68.48712022569444
 30
0.0
 10
52.652427842881941
 20
68.45129123263888
 30
0.0
 10
52.652427842881941
 20
68.45129123263888
 30
0.0
 10
52.634685601128467
 20
68.148122829861109
 30
0.0
 10
52.634685601128467
 20
68.148122829861109
 30
0.0
 10
52.608675130208326
 20
67.933148871527777
 30
0.0
 10
52.537706163194443
 20
67.734022352430543
 30
0.0
 10
52.429357910156249
 20
67.547987196180543
 30
0.0
 10
52.429357910156249
 20
67.547987196180543
 30
0.0
 10
52.268988715277771
 20
67.279958767361109
 30
0.0
 10
52.268988715277771
 20
67.279958767361109
 30
0.0
 10
52.25021294487847
 20
67.249641927083331
 30
0.0
 10
52.210422092013886
 20
67.239995659722211
 30
0.0
 10
52.17924397786458
 20
67.257910156249991
 30
0.0
 10
52.147893608940969
 20
67.276513671874994
 30
0.0
 10
52.138419596354161
 20
67.3171657986111
 30
0.0
 10
52.156678602430553
 20
67.3481716579861
 30
0.0
  0
SPLINE
  5
A2
100
AcDbEntity
  8
LAYER_1
 62
   250
100
AcDbSpline
210
0.0
220
0.0
230
1.0
 70
     8
 71
     3
 72
    23
 73
    19
 74
     0
 42
0.00000001
 43
0.00000001
 40
0.0
 40
0.0
 40
0.0
 40
0.0
 40
1.0
 40
1.0
 40
1.0
 40
2.0
 40
2.0
 40
2.0
 40
3.0
 40
3.0
 40
3.0
 40
4.0
 40
4.0
 40
4.0
 40
5.0
 40
5.0
 40
5.0
 40
6.0
 40
6.0
 40
6.0
 40
6.0
 10
52.608675130208326
 20
85.688481987847211
 30
0.0
 10
52.608675130208326
 20
85.688481987847211
 30
0.0
 10
50.611897786458329
 20
84.993261718749991
 30
0.0
 10
50.611897786458329
 20
84.993261718749991
 30
0.0
 10
50.57761908637152
 20
84.981548394097217
 30
0.0
 10
50.540928819444439
 20
84.998773871527774
 30
0.0
 10
50.528354220920136
 20
85.033224826388874
 30
0.0
 10
50.516985405815966
 20
85.066986762152766
 30
0.0
 10
50.53472764756944
 20
85.104882812499994
 30
0.0
 10
50.568834092881943
 20
85.115907118055546
 30
0.0
 10
50.568834092881943
 20
85.115907118055546
 30
0.0
 10
52.56561143663194
 20
85.811816406249989
 30
0.0
 10
52.56561143663194
 20
85.811816406249989
 30
0.0
 10
52.599890136718749
 20
85.823529730902763
 30
0.0
 10
52.63658040364583
 20
85.805615234374997
 30
0.0
 10
52.649155002170133
 20
85.771164279513883
 30
0.0
 10
52.660523817274303
 20
85.737402343749991
 30
0.0
 10
52.642781575520829
 20
85.699506293402763
 30
0.0
 10
52.608675130208326
 20
85.688481987847211
 30
0.0
  0
SPLINE
  5
A1
100
AcDbEntity
  8
LAYER_1
 62
   250
100
AcDbSpline
210
0.0
220
0.0
230
1.0
 70
     8
 71
     3
 72
    38
 73
    34
 74
     0
 42
0.00000001
 43
0.00000001
 40
0.0
 40
0.0
 40
0.0
 40
0.0
 40
1.0
 40
1.0
 40
1.0
 40
2.0
 40
2.0
 40
2.0
 40
3.0
 40
3.0
 40
3.0
 40
4.0
 40
4.0
 40
4.0
 40
5.0
 40
5.0
 40
5.0
 40
6.0
 40
6.0
 40
6.0
 40
7.0
 40
7.0
 40
7.0
 40
8.0
 40
8.0
 40
8.0
 40
9.0
 40
9.0
 40
9.0
 40
10.0
 40
10.0
 40
10.0
 40
11.0
 40
11.0
 40
11.0
 40
11.0
 10
53.039312065972219
 20
85.743603515624997
 30
0.0
 10
53.039312065972219
 20
85.743603515624997
 30
0.0
 10
53.004172092013881
 20
86.113606770833329
 30
0.0
 10
53.004172092013881
 20
86.113606770833329
 30
0.0
 10
53.004172092013881
 20
86.113606770833329
 30
0.0
 10
52.917011176215276
 20
86.4787868923611
 30
0.0
 10
52.917011176215276
 20
86.4787868923611
 30
0.0
 10
52.917011176215276
 20
86.4787868923611
 30
0.0
 10
52.77903510199652
 20
86.825363498263883
 30
0.0
 10
52.77903510199652
 20
86.825363498263883
 30
0.0
 10
52.77903510199652
 20
86.825363498263883
 30
0.0
 10
52.568712022569443
 20
87.140245225694443
 30
0.0
 10
52.568712022569443
 20
87.140245225694443
 30
0.0
 10
52.548730468749994
 20
87.169873046874997
 30
0.0
 10
52.556826443142356
 20
87.211214192708326
 30
0.0
 10
52.587143283420133
 20
87.230506727430551
 30
0.0
 10
52.616771104600687
 20
87.250488281249986
 30
0.0
 10
52.657250976562494
 20
87.242909071180549
 30
0.0
 10
52.677404785156249
 20
87.211903211805549
 30
0.0
 10
52.677404785156249
 20
87.211903211805549
 30
0.0
 10
52.89117296006944
 20
86.89150933159722
 30
0.0
 10
52.89117296006944
 20
86.89150933159722
 30
0.0
 10
53.0139906141493
 20
86.655864800347217
 30
0.0
 10
53.087026638454859
 20
86.39059244791666
 30
0.0
 10
53.13387993706597
 20
86.130143229166663
 30
0.0
 10
53.13387993706597
 20
86.130143229166663
 30
0.0
 10
53.169536675347217
 20
85.756005859374994
 30
0.0
 10
53.169536675347217
 20
85.756005859374994
 30
0.0
 10
53.173154025607637
 20
85.720865885416657
 30
0.0
 10
53.146282280815967
 20
85.688481987847211
 30
0.0
 10
53.110281032986109
 20
85.685036892361097
 30
0.0
 10
53.074968804253466
 20
85.681591796874997
 30
0.0
 10
53.043273925781243
 20
85.707774522569437
 30
0.0
 10
53.039312065972219
 20
85.743603515624997
 30
0.0
  0
SPLINE
  5
A0
100
AcDbEntity
  8
LAYER_1
 62
   250
100
AcDbSpline
210
0.0
220
0.0
230
1.0
 70
     8
 71
     3
 72
    83
 73
    79
 74
     0
 42
0.00000001
 43
0.00000001
 40
0.0
 40
0.0
 40
0.0
 40
0.0
 40
1.0
 40
1.0
 40
1.0
 40
2.0
 40
2.0
 40
2.0
 40
3.0
 40
3.0
 40
3.0
 40
4.0
 40
4.0
 40
4.0
 40
5.0
 40
5.0
 40
5.0
 40
6.0
 40
6.0
 40
6.0
 40
7.0
 40
7.0
 40
7.0
 40
8.0
 40
8.0
 40
8.0
 40
9.0
 40
9.0
 40
9.0
 40
10.0
 40
10.0
 40
10.0
 40
11.0
 40
11.0
 40
11.0
 40
12.0
 40
12.0
 40
12.0
 40
13.0
 40
13.0
 40
13.0
 40
14.0
 40
14.0
 40
14.0
 40
15.0
 40
15.0
 40
15.0
 40
16.0
 40
16.0
 40
16.0
 40
17.0
 40
17.0
 40
17.0
 40
18.0
 40
18.0
 40
18.0
 40
19.0
 40
19.0
 40
19.0
 40
20.0
 40
20.0
 40
20.0
 40
21.0
 40
21.0
 40
21.0
 40
22.0
 40
22.0
 40
22.0
 40
23.0
 40
23.0
 40
23.0
 40
24.0
 40
24.0
 40
24.0
 40
25.0
 40
25.0
 40
25.0
 40
26.0
 40
26.0
 40
26.0
 40
26.0
 10
39.607057020399303
 20
77.066786024305543
 30
0.0
 10
39.607057020399303
 20
77.066786024305543
 30
0.0
 10
39.542116970486106
 20
77.06265190972222
 30
0.0
 10
39.542116970486106
 20
77.06265190972222
 30
0.0
 10
39.528336588541663
 20
77.260400390624994
 30
0.0
 10
39.451855468749997
 20
77.401649305555551
 30
0.0
 10
39.346263292100694
 20
77.496044921874997
 30
0.0
 10
39.24084337022569
 20
77.591129557291666
 30
0.0
 10
39.103556315104164
 20
77.639360894097209
 30
0.0
 10
38.965580240885416
 20
77.639360894097209
 30
0.0
 10
38.82708740234375
 20
77.639360894097209
 30
0.0
 10
38.689800347222217
 20
77.591129557291666
 30
0.0
 10
38.58438042534722
 20
77.496044921874997
 30
0.0
 10
38.47878824869791
 20
77.401649305555551
 30
0.0
 10
38.402651638454856
 20
77.260400390624994
 30
0.0
 10
38.388526746961801
 20
77.06265190972222
 30
0.0
 10
38.388526746961801
 20
77.06265190972222
 30
0.0
 10
38.3232421875
 20
77.066786024305543
 30
0.0
 10
38.3232421875
 20
77.066786024305543
 30
0.0
 10
38.3232421875
 20
77.066786024305543
 30
0.0
 10
38.388526746961801
 20
77.069542100694434
 30
0.0
 10
38.388526746961801
 20
77.069542100694434
 30
0.0
 10
38.398000759548609
 20
76.875238715277774
 30
0.0
 10
38.472070312499994
 20
76.736745876736109
 30
0.0
 10
38.578006998697916
 20
76.643039279513886
 30
0.0
 10
38.684115939670136
 20
76.550021701388886
 30
0.0
 10
38.823814561631941
 20
76.501790364583329
 30
0.0
 10
38.965580240885416
 20
76.501790364583329
 30
0.0
 10
39.106140136718743
 20
76.501790364583329
 30
0.0
 10
39.246527777777771
 20
76.550021701388886
 30
0.0
 10
39.352292209201387
 20
76.643039279513886
 30
0.0
 10
39.458056640624996
 20
76.736745876736109
 30
0.0
 10
39.532642957899299
 20
76.875238715277774
 30
0.0
 10
39.542116970486106
 20
77.069542100694434
 30
0.0
 10
39.542116970486106
 20
77.069542100694434
 30
0.0
 10
39.607057020399303
 20
77.066786024305543
 30
0.0
 10
39.607057020399303
 20
77.066786024305543
 30
0.0
 10
39.607057020399303
 20
77.066786024305543
 30
0.0
 10
39.542116970486106
 20
77.06265190972222
 30
0.0
 10
39.542116970486106
 20
77.06265190972222
 30
0.0
 10
39.542116970486106
 20
77.06265190972222
 30
0.0
 10
39.607057020399303
 20
77.066786024305543
 30
0.0
 10
39.607057020399303
 20
77.066786024305543
 30
0.0
 10
39.607057020399303
 20
77.066786024305543
 30
0.0
 10
39.671997070312493
 20
77.063340928819443
 30
0.0
 10
39.671997070312493
 20
77.063340928819443
 30
0.0
 10
39.662006293402776
 20
76.838031684027769
 30
0.0
 10
39.571055772569444
 20
76.661642795138889
 30
0.0
 10
39.438764105902777
 20
76.545198567708326
 30
0.0
 10
39.306127929687499
 20
76.428754340277777
 30
0.0
 10
39.135767957899304
 20
76.371565755208323
 30
0.0
 10
38.965580240885416
 20
76.371565755208323
 30
0.0
 10
38.795564778645833
 20
76.371565755208323
 30
0.0
 10
38.624171278211804
 20
76.428754340277777
 30
0.0
 10
38.491535101996526
 20
76.545198567708326
 30
0.0
 10
38.359243435329859
 20
76.661642795138889
 30
0.0
 10
38.268637424045139
 20
76.838031684027769
 30
0.0
 10
38.258646647135414
 20
77.063340928819443
 30
0.0
 10
38.258646647135414
 20
77.063340928819443
 30
0.0
 10
38.258646647135414
 20
77.07092013888888
 30
0.0
 10
38.258646647135414
 20
77.07092013888888
 30
0.0
 10
38.273805067274303
 20
77.298985460069431
 30
0.0
 10
38.365272352430551
 20
77.476063368055549
 30
0.0
 10
38.496874999999996
 20
77.59319661458332
 30
0.0
 10
38.628822157118051
 20
77.711707899305551
 30
0.0
 10
38.796942816840271
 20
77.770274522569437
 30
0.0
 10
38.965580240885416
 20
77.770274522569437
 30
0.0
 10
39.133184136284719
 20
77.770274522569437
 30
0.0
 10
39.302166069878467
 20
77.711707899305551
 30
0.0
 10
39.4334242078993
 20
77.59319661458332
 30
0.0
 10
39.565026855468744
 20
77.476063368055549
 30
0.0
 10
39.656666395399299
 20
77.298985460069431
 30
0.0
 10
39.671997070312493
 20
77.07092013888888
 30
0.0
 10
39.671997070312493
 20
77.07092013888888
 30
0.0
 10
39.671997070312493
 20
77.063340928819443
 30
0.0
 10
39.671997070312493
 20
77.063340928819443
 30
0.0
 10
39.671997070312493
 20
77.063340928819443
 30
0.0
 10
39.607057020399303
 20
77.066786024305543
 30
0.0
 10
39.607057020399303
 20
77.066786024305543
 30
0.0
  0
SPLINE
  5
9F
100
AcDbEntity
  8
LAYER_1
 62
   250
100
AcDbSpline
210
0.0
220
0.0
230
1.0
 70
     8
 71
     3
 72
    86
 73
    82
 74
     0
 42
0.00000001
 43
0.00000001
 40
0.0
 40
0.0
 40
0.0
 40
0.0
 40
1.0
 40
1.0
 40
1.0
 40
2.0
 40
2.0
 40
2.0
 40
3.0
 40
3.0
 40
3.0
 40
4.0
 40
4.0
 40
4.0
 40
5.0
 40
5.0
 40
5.0
 40
6.0
 40
6.0
 40
6.0
 40
7.0
 40
7.0
 40
7.0
 40
8.0
 40
8.0
 40
8.0
 40
9.0
 40
9.0
 40
9.0
 40
10.0
 40
10.0
 40
10.0
 40
11.0
 40
11.0
 40
11.0
 40
12.0
 40
12.0
 40
12.0
 40
13.0
 40
13.0
 40
13.0
 40
14.0
 40
14.0
 40
14.0
 40
15.0
 40
15.0
 40
15.0
 40
16.0
 40
16.0
 40
16.0
 40
17.0
 40
17.0
 40
17.0
 40
18.0
 40
18.0
 40
18.0
 40
19.0
 40
19.0
 40
19.0
 40
20.0
 40
20.0
 40
20.0
 40
21.0
 40
21.0
 40
21.0
 40
22.0
 40
22.0
 40
22.0
 40
23.0
 40
23.0
 40
23.0
 40
24.0
 40
24.0
 40
24.0
 40
25.0
 40
25.0
 40
25.0
 40
26.0
 40
26.0
 40
26.0
 40
27.0
 40
27.0
 40
27.0
 40
27.0
 10
40.124165852864579
 20
77.066786024305543
 30
0.0
 10
40.124165852864579
 20
77.066786024305543
 30
0.0
 10
40.058881293402777
 20
77.063340928819443
 30
0.0
 10
40.058881293402777
 20
77.063340928819443
 30
0.0
 10
40.0380384657118
 20
77.435411241319443
 30
0.0
 10
39.895928276909721
 20
77.707573784722214
 30
0.0
 10
39.694217936197916
 20
77.889474826388877
 30
0.0
 10
39.492679850260416
 20
78.072064887152777
 30
0.0
 10
39.229474555121527
 20
78.163704427083331
 30
0.0
 10
38.965580240885416
 20
78.163704427083331
 30
0.0
 10
38.701341417100693
 20
78.163704427083331
 30
0.0
 10
38.437963867187499
 20
78.072064887152777
 30
0.0
 10
38.236425781249999
 20
77.889474826388877
 30
0.0
 10
38.034715440538193
 20
77.707573784722214
 30
0.0
 10
37.892432996961801
 20
77.435411241319443
 30
0.0
 10
37.871762424045137
 20
77.063340928819443
 30
0.0
 10
37.871762424045137
 20
77.063340928819443
 30
0.0
 10
37.806477864583329
 20
77.066786024305543
 30
0.0
 10
37.806477864583329
 20
77.066786024305543
 30
0.0
 10
37.806477864583329
 20
77.066786024305543
 30
0.0
 10
37.871762424045137
 20
77.07092013888888
 30
0.0
 10
37.871762424045137
 20
77.07092013888888
 30
0.0
 10
37.897083875868049
 20
76.705050998263886
 30
0.0
 10
38.040744357638886
 20
76.437022569444437
 30
0.0
 10
38.241421169704857
 20
76.257188585069443
 30
0.0
 10
38.44244249131944
 20
76.07873263888888
 30
0.0
 10
38.70358072916666
 20
75.988471137152771
 30
0.0
 10
38.965580240885416
 20
75.988471137152771
 30
0.0
 10
39.227062988281247
 20
75.988471137152771
 30
0.0
 10
39.488201226128467
 20
76.07873263888888
 30
0.0
 10
39.688533528645827
 20
76.257188585069443
 30
0.0
 10
39.889899359809021
 20
76.437022569444437
 30
0.0
 10
40.033559841579859
 20
76.705050998263886
 30
0.0
 10
40.058881293402777
 20
77.07092013888888
 30
0.0
 10
40.058881293402777
 20
77.07092013888888
 30
0.0
 10
40.124165852864579
 20
77.066786024305543
 30
0.0
 10
40.124165852864579
 20
77.066786024305543
 30
0.0
 10
40.124165852864579
 20
77.066786024305543
 30
0.0
 10
40.058881293402777
 20
77.063340928819443
 30
0.0
 10
40.058881293402777
 20
77.063340928819443
 30
0.0
 10
40.058881293402777
 20
77.063340928819443
 30
0.0
 10
40.124165852864579
 20
77.066786024305543
 30
0.0
 10
40.124165852864579
 20
77.066786024305543
 30
0.0
 10
40.124165852864579
 20
77.066786024305543
 30
0.0
 10
40.189450412326387
 20
77.06265190972222
 30
0.0
 10
40.189450412326387
 20
77.06265190972222
 30
0.0
 10
40.162234157986106
 20
76.665776909722211
 30
0.0
 10
40.00289849175347
 20
76.361919487847217
 30
0.0
 10
39.776038953993051
 20
76.160036892361106
 30
0.0
 10
39.549179416232633
 20
75.958154296874994
 30
0.0
 10
39.256690809461801
 20
75.857557508680543
 30
0.0
 10
38.965580240885416
 20
75.857557508680543
 30
0.0
 10
38.673952907986106
 20
75.857557508680543
 30
0.0
 10
38.381464301215274
 20
75.958154296874994
 30
0.0
 10
38.154604763454856
 20
76.160036892361106
 30
0.0
 10
37.928089735243049
 20
76.361919487847217
 30
0.0
 10
37.768409559461801
 20
76.665776909722211
 30
0.0
 10
37.741193305121527
 20
77.06265190972222
 30
0.0
 10
37.741193305121527
 20
77.06265190972222
 30
0.0
 10
37.741193305121527
 20
77.070231119791657
 30
0.0
 10
37.741193305121527
 20
77.070231119791657
 30
0.0
 10
37.763414171006943
 20
77.472618272569434
 30
0.0
 10
37.921371799045133
 20
77.781987847222211
 30
0.0
 10
38.148920355902774
 20
77.986626519097214
 30
0.0
 10
38.376468912760416
 20
78.19195421006944
 30
0.0
 10
38.671369086371527
 20
78.2932400173611
 30
0.0
 10
38.965580240885416
 20
78.2932400173611
 30
0.0
 10
39.259446885850693
 20
78.2932400173611
 30
0.0
 10
39.554174804687499
 20
78.19195421006944
 30
0.0
 10
39.781551106770827
 20
77.986626519097214
 30
0.0
 10
40.00944417317708
 20
77.781987847222211
 30
0.0
 10
40.167229546440971
 20
77.472618272569434
 30
0.0
 10
40.189450412326387
 20
77.070231119791657
 30
0.0
 10
40.189450412326387
 20
77.070231119791657
 30
0.0
 10
40.189450412326387
 20
77.06265190972222
 30
0.0
 10
40.189450412326387
 20
77.06265190972222
 30
0.0
 10
40.189450412326387
 20
77.06265190972222
 30
0.0
 10
40.124165852864579
 20
77.066786024305543
 30
0.0
 10
40.124165852864579
 20
77.066786024305543
 30
0.0
 10
40.124165852864579
 20
77.066786024305543
 30
0.0
 10
40.124165852864579
 20
77.066786024305543
 30
0.0
 10
40.124165852864579
 20
77.066786024305543
 30
0.0
  0
HATCH
  5
9E
100
AcDbEntity
  8
LAYER_1
 62
   250
100
AcDbHatch
 10
0.0
 20
0.0
 30
0.0
210
0.0
220
0.0
230
1.0
  2
SOLID
 70
     1
 71
     0
 91
       30
 92
        1
 93
        1
 72
     4
 94
        3
 73
     0
 74
     0
 95
       32
 96
       28
 40
0.0
 40
0.0
 40
0.0
 40
0.0
 40
1.0
 40
1.0
 40
1.0
 40
2.0
 40
2.0
 40
2.0
 40
3.0
 40
3.0
 40
3.0
 40
4.0
 40
4.0
 40
4.0
 40
5.0
 40
5.0
 40
5.0
 40
6.0
 40
6.0
 40
6.0
 40
7.0
 40
7.0
 40
7.0
 40
8.0
 40
8.0
 40
8.0
 40
9.0
 40
9.0
 40
9.0
 40
9.0
 10
74.30123562282985
 20
78.83825412326388
 10
74.30123562282985
 20
78.83825412326388
 10
73.69420979817707
 20
78.83825412326388
 10
73.69420979817707
 20
78.83825412326388
 10
73.69420979817707
 20
78.83825412326388
 10
73.250309244791666
 20
78.171972656249991
 10
73.250309244791666
 20
78.171972656249991
 10
73.230327690972217
 20
78.141655815972214
 10
73.189675564236111
 20
78.134076605902777
 10
73.159703233506931
 20
78.154058159722211
 10
73.129386393229154
 20
78.17403971354166
 10
73.121290418836793
 20
78.214691840277766
 10
73.141788736979166
 20
78.24431966145832
 10
73.141788736979166
 20
78.24431966145832
 10
73.605326334635407
 20
78.939539930555554
 10
73.605326334635407
 20
78.939539930555554
 10
73.617556423611106
 20
78.958143446180543
 10
73.637710232204853
 20
78.969167751736109
 10
73.659586588541657
 20
78.969167751736109
 10
73.659586588541657
 20
78.969167751736109
 10
74.30123562282985
 20
78.969167751736109
 10
74.30123562282985
 20
78.969167751736109
 10
74.337236870659709
 20
78.969167751736109
 10
74.366520182291666
 20
78.939539930555554
 10
74.366520182291666
 20
78.903710937499994
 10
74.366520182291666
 20
78.867881944444434
 10
74.337236870659709
 20
78.83825412326388
 10
74.30123562282985
 20
78.83825412326388
 97
        0
 92
        1
 93
        1
 72
     4
 94
        3
 73
     0
 74
     0
 95
       83
 96
       79
 40
0.0
 40
0.0
 40
0.0
 40
0.0
 40
1.0
 40
1.0
 40
1.0
 40
2.0
 40
2.0
 40
2.0
 40
3.0
 40
3.0
 40
3.0
 40
4.0
 40
4.0
 40
4.0
 40
5.0
 40
5.0
 40
5.0
 40
6.0
 40
6.0
 40
6.0
 40
7.0
 40
7.0
 40
7.0
 40
8.0
 40
8.0
 40
8.0
 40
9.0
 40
9.0
 40
9.0
 40
10.0
 40
10.0
 40
10.0
 40
11.0
 40
11.0
 40
11.0
 40
12.0
 40
12.0
 40
12.0
 40
13.0
 40
13.0
 40
13.0
 40
14.0
 40
14.0
 40
14.0
 40
15.0
 40
15.0
 40
15.0
 40
16.0
 40
16.0
 40
16.0
 40
17.0
 40
17.0
 40
17.0
 40
18.0
 40
18.0
 40
18.0
 40
19.0
 40
19.0
 40
19.0
 40
20.0
 40
20.0
 40
20.0
 40
21.0
 40
21.0
 40
21.0
 40
22.0
 40
22.0
 40
22.0
 40
23.0
 40
23.0
 40
23.0
 40
24.0
 40
24.0
 40
24.0
 40
25.0
 40
25.0
 40
25.0
 40
26.0
 40
26.0
 40
26.0
 40
26.0
 10
73.142133246527777
 20
77.102615017361103
 10
73.142133246527777
 20
77.102615017361103
 10
73.077193196614573
 20
77.099169921874989
 10
73.077193196614573
 20
77.099169921874989
 10
73.066168891059021
 20
77.306564670138883
 10
72.987965223524299
 20
77.454014756944431
 10
72.877549913194443
 20
77.55392252604166
 10
72.766617838541663
 20
77.653830295138889
 10
72.620373535156247
 20
77.7041286892361
 10
72.473956976996519
 20
77.7041286892361
 10
72.326851399739581
 20
77.7041286892361
 10
72.181123860677076
 20
77.653830295138889
 10
72.070019531249997
 20
77.55392252604166
 10
71.959259711371516
 20
77.454014756944431
 10
71.880883789062494
 20
77.306564670138883
 10
71.870376247829853
 20
77.099169921874989
 10
71.870376247829853
 20
77.099169921874989
 10
71.805091688368051
 20
77.102615017361103
 10
71.805091688368051
 20
77.102615017361103
 10
71.805091688368051
 20
77.102615017361103
 10
71.870376247829853
 20
77.105371093749994
 10
71.870376247829853
 20
77.105371093749994
 10
71.879505750868049
 20
76.895220269097209
 10
71.95736490885416
 20
76.745014105902769
 10
72.068641493055551
 20
76.644417317708331
 10
72.179401312934019
 20
76.543131510416657
 10
72.326162380642359
 20
76.492144097222209
 10
72.473267957899296
 20
76.492144097222209
 10
72.62106255425347
 20
76.492144097222209
 10
72.767823621961796
 20
76.543131510416657
 10
72.878927951388889
 20
76.644417317708331
 10
72.989343261718744
 20
76.745014105902769
 10
73.068063693576377
 20
76.895220269097209
 10
73.077193196614573
 20
77.105371093749994
 10
73.077193196614573
 20
77.105371093749994
 10
73.142133246527777
 20
77.102615017361103
 10
73.142133246527777
 20
77.102615017361103
 10
73.142133246527777
 20
77.102615017361103
 10
73.077193196614573
 20
77.099169921874989
 10
73.077193196614573
 20
77.099169921874989
 10
73.077193196614573
 20
77.099169921874989
 10
73.142133246527777
 20
77.102615017361103
 10
73.142133246527777
 20
77.102615017361103
 10
73.142133246527777
 20
77.102615017361103
 10
73.207590060763877
 20
77.099858940972211
 10
73.207590060763877
 20
77.099858940972211
 10
73.197771538628459
 20
76.859391276041663
 10
73.103892686631937
 20
76.671978081597217
 10
72.966433376736106
 20
76.547265624999994
 10
72.829146321614573
 20
76.422553168402771
 10
72.650690375434024
 20
76.361230468749994
 10
72.473267957899296
 20
76.361230468749994
 10
72.29601779513888
 20
76.361230468749994
 10
72.117906358506943
 20
76.422553168402771
 10
71.980791558159709
 20
76.547265624999994
 10
71.843159993489579
 20
76.671978081597217
 10
71.749625651041654
 20
76.859391276041663
 10
71.73980712890625
 20
77.099858940972211
 10
71.73980712890625
 20
77.099858940972211
 10
71.73980712890625
 20
77.106060112847217
 10
71.73980712890625
 20
77.106060112847217
 10
71.751348198784711
 20
77.343082682291666
 10
71.84591606987847
 20
77.528428819444443
 10
71.983203124999989
 20
77.650385199652774
 10
72.12014567057291
 20
77.773719618055551
 10
72.297568088107639
 20
77.834353298611106
 10
72.473956976996519
 20
77.834353298611106
 10
72.650001356336801
 20
77.834353298611106
 10
72.827079264322904
 20
77.773719618055551
 10
72.964194064670139
 20
77.651074218749997
 10
73.101481119791657
 20
77.528428819444443
 10
73.195704481336804
 20
77.343771701388889
 10
73.207590060763877
 20
77.106060112847217
 10
73.207590060763877
 20
77.106060112847217
 10
73.207590060763877
 20
77.099858940972211
 10
73.207590060763877
 20
77.099858940972211
 10
73.207590060763877
 20
77.099858940972211
 10
73.142133246527777
 20
77.102615017361103
 10
73.142133246527777
 20
77.102615017361103
 97
        0
 92
        1
 93
        1
 72
     4
 94
        3
 73
     0
 74
     0
 95
       23
 96
       19
 40
0.0
 40
0.0
 40
0.0
 40
0.0
 40
1.0
 40
1.0
 40
1.0
 40
2.0
 40
2.0
 40
2.0
 40
3.0
 40
3.0
 40
3.0
 40
4.0
 40
4.0
 40
4.0
 40
5.0
 40
5.0
 40
5.0
 40
6.0
 40
6.0
 40
6.0
 40
6.0
 10
81.220020887586799
 20
62.570513237847216
 10
81.220020887586799
 20
62.570513237847216
 10
81.184364149305551
 20
62.517458767361106
 10
81.184364149305551
 20
62.517458767361106
 10
81.164554850260416
 20
62.487141927083329
 10
81.124074978298609
 20
62.478873697916661
 10
81.094102647569443
 20
62.498855251736103
 10
81.063958062065964
 20
62.519525824652774
 10
81.056206597222214
 20
62.559488932291664
 10
81.075671386718739
 20
62.589116753472219
 10
81.075671386718739
 20
62.589116753472219
 10
81.111328124999986
 20
62.642860243055551
 10
81.111328124999986
 20
62.642860243055551
 10
81.131137424045136
 20
62.673177083333329
 10
81.171961805555554
 20
62.681445312499996
 10
81.20193413628472
 20
62.660774739583324
 10
81.231906467013886
 20
62.641482204861106
 10
81.240002441406247
 20
62.600830078124993
 10
81.220020887586799
 20
62.570513237847216
 97
        0
 92
        1
 93
        1
 72
     4
 94
        3
 73
     0
 74
     0
 95
       23
 96
       19
 40
0.0
 40
0.0
 40
0.0
 40
0.0
 40
1.0
 40
1.0
 40
1.0
 40
2.0
 40
2.0
 40
2.0
 40
3.0
 40
3.0
 40
3.0
 40
4.0
 40
4.0
 40
4.0
 40
5.0
 40
5.0
 40
5.0
 40
6.0
 40
6.0
 40
6.0
 40
6.0
 10
82.759117296006934
 20
85.518294270833323
 10
82.759117296006934
 20
85.518294270833323
 10
82.759117296006934
 20
87.390359157986097
 10
82.759117296006934
 20
87.390359157986097
 10
82.759117296006934
 20
87.426188151041657
 10
82.788056098090266
 20
87.455815972222211
 10
82.824057345920124
 20
87.455815972222211
 10
82.860058593749997
 20
87.455815972222211
 10
82.888997395833329
 20
87.426188151041657
 10
82.888997395833329
 20
87.390359157986097
 10
82.888997395833329
 20
87.390359157986097
 10
82.888997395833329
 20
85.518294270833323
 10
82.888997395833329
 20
85.518294270833323
 10
82.888997395833329
 20
85.482465277777763
 10
82.860058593749997
 20
85.453526475694431
 10
82.824057345920124
 20
85.453526475694431
 10
82.788056098090266
 20
85.453526475694431
 10
82.759117296006934
 20
85.482465277777763
 10
82.759117296006934
 20
85.518294270833323
 97
        0
 92
        1
 93
        1
 72
     4
 94
        3
 73
     0
 74
     0
 95
       32
 96
       28
 40
0.0
 40
0.0
 40
0.0
 40
0.0
 40
1.0
 40
1.0
 40
1.0
 40
2.0
 40
2.0
 40
2.0
 40
3.0
 40
3.0
 40
3.0
 40
4.0
 40
4.0
 40
4.0
 40
5.0
 40
5.0
 40
5.0
 40
6.0
 40
6.0
 40
6.0
 40
7.0
 40
7.0
 40
7.0
 40
8.0
 40
8.0
 40
8.0
 40
9.0
 40
9.0
 40
9.0
 40
9.0
 10
82.289206271701374
 20
66.612299262152774
 10
82.289206271701374
 20
66.612299262152774
 10
82.795118543836793
 20
66.612299262152774
 10
82.795118543836793
 20
66.612299262152774
 10
82.795118543836793
 20
66.612299262152774
 10
82.81234402126735
 20
68.42028537326388
 10
82.81234402126735
 20
68.42028537326388
 10
82.812688530815961
 20
68.45611436631944
 10
82.841971842447904
 20
68.485053168402771
 10
82.877628580729166
 20
68.485053168402771
 10
82.913974338107636
 20
68.484364149305549
 10
82.942913140190967
 20
68.454736328124994
 10
82.942568630642356
 20
68.418907335069434
 10
82.942568630642356
 20
68.418907335069434
 10
82.924654134114576
 20
66.547531467013883
 10
82.924654134114576
 20
66.547531467013883
 10
82.924309624565964
 20
66.5110134548611
 10
82.895370822482633
 20
66.482074652777769
 10
82.859714084201386
 20
66.482074652777769
 10
82.859714084201386
 20
66.482074652777769
 10
82.289206271701374
 20
66.482074652777769
 10
82.289206271701374
 20
66.482074652777769
 10
82.253205023871516
 20
66.482074652777769
 10
82.223921712239573
 20
66.511702473958323
 10
82.223921712239573
 20
66.547531467013883
 10
82.223921712239573
 20
66.583360460069443
 10
82.253205023871516
 20
66.612299262152774
 10
82.289206271701374
 20
66.612299262152774
 97
        0
 92
        1
 93
        1
 72
     4
 94
        3
 73
     0
 74
     0
 95
       23
 96
       19
 40
0.0
 40
0.0
 40
0.0
 40
0.0
 40
1.0
 40
1.0
 40
1.0
 40
2.0
 40
2.0
 40
2.0
 40
3.0
 40
3.0
 40
3.0
 40
4.0
 40
4.0
 40
4.0
 40
5.0
 40
5.0
 40
5.0
 40
6.0
 40
6.0
 40
6.0
 40
6.0
 10
81.985865614149304
 20
89.880474175347217
 10
81.985865614149304
 20
89.880474175347217
 10
82.235635036892347
 20
89.880474175347217
 10
82.235635036892347
 20
89.880474175347217
 10
82.271291775173609
 20
89.880474175347217
 10
82.300575086805551
 20
89.851535373263886
 10
82.300575086805551
 20
89.815706380208326
 10
82.300575086805551
 20
89.779188368055543
 10
82.271291775173609
 20
89.750249565972211
 10
82.235635036892347
 20
89.750249565972211
 10
82.235635036892347
 20
89.750249565972211
 10
81.985865614149304
 20
89.750249565972211
 10
81.985865614149304
 20
89.750249565972211
 10
81.949864366319431
 20
89.750249565972211
 10
81.9209255642361
 20
89.779188368055543
 10
81.9209255642361
 20
89.815706380208326
 10
81.9209255642361
 20
89.851535373263886
 10
81.949864366319431
 20
89.880474175347217
 10
81.985865614149304
 20
89.880474175347217
 97
        0
 92
        1
 93
        1
 72
     4
 94
        3
 73
     0
 74
     0
 95
       23
 96
       19
 40
0.0
 40
0.0
 40
0.0
 40
0.0
 40
1.0
 40
1.0
 40
1.0
 40
2.0
 40
2.0
 40
2.0
 40
3.0
 40
3.0
 40
3.0
 40
4.0
 40
4.0
 40
4.0
 40
5.0
 40
5.0
 40
5.0
 40
6.0
 40
6.0
 40
6.0
 40
6.0
 10
82.00378011067707
 20
64.187641059027769
 10
82.00378011067707
 20
64.187641059027769
 10
82.235635036892347
 20
64.187641059027769
 10
82.235635036892347
 20
64.187641059027769
 10
82.271291775173609
 20
64.187641059027769
 10
82.300575086805551
 20
64.158702256944437
 10
82.300575086805551
 20
64.122873263888877
 10
82.300575086805551
 20
64.086355251736109
 10
82.271291775173609
 20
64.057416449652777
 10
82.235635036892347
 20
64.057416449652777
 10
82.235635036892347
 20
64.057416449652777
 10
82.00378011067707
 20
64.057416449652777
 10
82.00378011067707
 20
64.057416449652777
 10
81.9674343532986
 20
64.057416449652777
 10
81.938495551215269
 20
64.086355251736109
 10
81.938495551215269
 20
64.122873263888877
 10
81.938495551215269
 20
64.158702256944437
 10
81.9674343532986
 20
64.187641059027769
 10
82.00378011067707
 20
64.187641059027769
 97
        0
 92
        1
 93
        1
 72
     4
 94
        3
 73
     0
 74
     0
 95
       23
 96
       19
 40
0.0
 40
0.0
 40
0.0
 40
0.0
 40
1.0
 40
1.0
 40
1.0
 40
2.0
 40
2.0
 40
2.0
 40
3.0
 40
3.0
 40
3.0
 40
4.0
 40
4.0
 40
4.0
 40
5.0
 40
5.0
 40
5.0
 40
6.0
 40
6.0
 40
6.0
 40
6.0
 10
82.81234402126735
 20
76.032568359374991
 10
82.81234402126735
 20
76.032568359374991
 10
82.81234402126735
 20
77.904633246527766
 10
82.81234402126735
 20
77.904633246527766
 10
82.81234402126735
 20
77.941151258680549
 10
82.841282823350681
 20
77.97009006076388
 10
82.877284071180554
 20
77.97009006076388
 10
82.913285319010413
 20
77.97009006076388
 10
82.942568630642356
 20
77.941151258680549
 10
82.942568630642356
 20
77.904633246527766
 10
82.942568630642356
 20
77.904633246527766
 10
82.942568630642356
 20
76.032568359374991
 10
82.942568630642356
 20
76.032568359374991
 10
82.942568630642356
 20
75.996739366319431
 10
82.913285319010413
 20
75.967111545138877
 10
82.877284071180554
 20
75.967111545138877
 10
82.841282823350681
 20
75.967111545138877
 10
82.81234402126735
 20
75.996739366319431
 10
82.81234402126735
 20
76.032568359374991
 97
        0
 92
        1
 93
        1
 72
     4
 94
        3
 73
     0
 74
     0
 95
       23
 96
       19
 40
0.0
 40
0.0
 40
0.0
 40
0.0
 40
1.0
 40
1.0
 40
1.0
 40
2.0
 40
2.0
 40
2.0
 40
3.0
 40
3.0
 40
3.0
 40
4.0
 40
4.0
 40
4.0
 40
5.0
 40
5.0
 40
5.0
 40
6.0
 40
6.0
 40
6.0
 40
6.0
 10
82.289206271701374
 20
87.455815972222211
 10
82.289206271701374
 20
87.455815972222211
 10
82.824057345920124
 20
87.455815972222211
 10
82.824057345920124
 20
87.455815972222211
 10
82.860058593749997
 20
87.455815972222211
 10
82.888997395833329
 20
87.426188151041657
 10
82.888997395833329
 20
87.390359157986097
 10
82.888997395833329
 20
87.354530164930551
 10
82.860058593749997
 20
87.324902343749997
 10
82.824057345920124
 20
87.324902343749997
 10
82.824057345920124
 20
87.324902343749997
 10
82.289206271701374
 20
87.324902343749997
 10
82.289206271701374
 20
87.324902343749997
 10
82.253205023871516
 20
87.324902343749997
 10
82.223921712239573
 20
87.354530164930551
 10
82.223921712239573
 20
87.390359157986097
 10
82.223921712239573
 20
87.426188151041657
 10
82.253205023871516
 20
87.455815972222211
 10
82.289206271701374
 20
87.455815972222211
 97
        0
 92
        1
 93
        1
 72
     4
 94
        3
 73
     0
 74
     0
 95
       23
 96
       19
 40
0.0
 40
0.0
 40
0.0
 40
0.0
 40
1.0
 40
1.0
 40
1.0
 40
2.0
 40
2.0
 40
2.0
 40
3.0
 40
3.0
 40
3.0
 40
4.0
 40
4.0
 40
4.0
 40
5.0
 40
5.0
 40
5.0
 40
6.0
 40
6.0
 40
6.0
 40
6.0
 10
82.342432996961804
 20
85.583062065972214
 10
82.342432996961804
 20
85.583062065972214
 10
82.824057345920124
 20
85.583062065972214
 10
82.824057345920124
 20
85.583062065972214
 10
82.860058593749997
 20
85.583062065972214
 10
82.888997395833329
 20
85.554123263888883
 10
82.888997395833329
 20
85.518294270833323
 10
82.888997395833329
 20
85.482465277777763
 10
82.860058593749997
 20
85.453526475694431
 10
82.824057345920124
 20
85.453526475694431
 10
82.824057345920124
 20
85.453526475694431
 10
82.342432996961804
 20
85.453526475694431
 10
82.342432996961804
 20
85.453526475694431
 10
82.306604003906244
 20
85.453526475694431
 10
82.277665201822913
 20
85.482465277777763
 10
82.277665201822913
 20
85.518294270833323
 10
82.277665201822913
 20
85.554123263888883
 10
82.306604003906244
 20
85.583062065972214
 10
82.342432996961804
 20
85.583062065972214
 97
        0
 92
        1
 93
        1
 72
     4
 94
        3
 73
     0
 74
     0
 95
       23
 96
       19
 40
0.0
 40
0.0
 40
0.0
 40
0.0
 40
1.0
 40
1.0
 40
1.0
 40
2.0
 40
2.0
 40
2.0
 40
3.0
 40
3.0
 40
3.0
 40
4.0
 40
4.0
 40
4.0
 40
5.0
 40
5.0
 40
5.0
 40
6.0
 40
6.0
 40
6.0
 40
6.0
 10
82.53863118489582
 20
77.97009006076388
 10
82.53863118489582
 20
77.97009006076388
 10
82.877284071180554
 20
77.97009006076388
 10
82.877284071180554
 20
77.97009006076388
 10
82.913285319010413
 20
77.97009006076388
 10
82.942568630642356
 20
77.941151258680549
 10
82.942568630642356
 20
77.904633246527766
 10
82.942568630642356
 20
77.86880425347222
 10
82.913285319010413
 20
77.839865451388889
 10
82.877284071180554
 20
77.839865451388889
 10
82.877284071180554
 20
77.839865451388889
 10
82.53863118489582
 20
77.839865451388889
 10
82.53863118489582
 20
77.839865451388889
 10
82.502974446614573
 20
77.839865451388889
 10
82.47369113498263
 20
77.86880425347222
 10
82.47369113498263
 20
77.904633246527766
 10
82.47369113498263
 20
77.941151258680549
 10
82.502974446614573
 20
77.97009006076388
 10
82.53863118489582
 20
77.97009006076388
 97
        0
 92
        1
 93
        1
 72
     4
 94
        3
 73
     0
 74
     0
 95
       23
 96
       19
 40
0.0
 40
0.0
 40
0.0
 40
0.0
 40
1.0
 40
1.0
 40
1.0
 40
2.0
 40
2.0
 40
2.0
 40
3.0
 40
3.0
 40
3.0
 40
4.0
 40
4.0
 40
4.0
 40
5.0
 40
5.0
 40
5.0
 40
6.0
 40
6.0
 40
6.0
 40
6.0
 10
82.53863118489582
 20
76.098025173611106
 10
82.53863118489582
 20
76.098025173611106
 10
82.877284071180554
 20
76.098025173611106
 10
82.877284071180554
 20
76.098025173611106
 10
82.913285319010413
 20
76.098025173611106
 10
82.942568630642356
 20
76.069086371527774
 10
82.942568630642356
 20
76.032568359374991
 10
82.942568630642356
 20
75.996739366319431
 10
82.913285319010413
 20
75.967111545138877
 10
82.877284071180554
 20
75.967111545138877
 10
82.877284071180554
 20
75.967111545138877
 10
82.53863118489582
 20
75.967111545138877
 10
82.53863118489582
 20
75.967111545138877
 10
82.502974446614573
 20
75.967111545138877
 10
82.47369113498263
 20
75.996739366319431
 10
82.47369113498263
 20
76.032568359374991
 10
82.47369113498263
 20
76.069086371527774
 10
82.502974446614573
 20
76.098025173611106
 10
82.53863118489582
 20
76.098025173611106
 97
        0
 92
        1
 93
        1
 72
     4
 94
        3
 73
     0
 74
     0
 95
       23
 96
       19
 40
0.0
 40
0.0
 40
0.0
 40
0.0
 40
1.0
 40
1.0
 40
1.0
 40
2.0
 40
2.0
 40
2.0
 40
3.0
 40
3.0
 40
3.0
 40
4.0
 40
4.0
 40
4.0
 40
5.0
 40
5.0
 40
5.0
 40
6.0
 40
6.0
 40
6.0
 40
6.0
 10
82.342432996961804
 20
68.485053168402771
 10
82.342432996961804
 20
68.485053168402771
 10
82.877284071180554
 20
68.485053168402771
 10
82.877284071180554
 20
68.485053168402771
 10
82.913285319010413
 20
68.485053168402771
 10
82.942568630642356
 20
68.455425347222217
 10
82.942568630642356
 20
68.419596354166657
 10
82.942568630642356
 20
68.383767361111111
 10
82.913285319010413
 20
68.354828559027766
 10
82.877284071180554
 20
68.354828559027766
 10
82.877284071180554
 20
68.354828559027766
 10
82.342432996961804
 20
68.354828559027766
 10
82.342432996961804
 20
68.354828559027766
 10
82.306604003906244
 20
68.354828559027766
 10
82.277665201822913
 20
68.383767361111111
 10
82.277665201822913
 20
68.419596354166657
 10
82.277665201822913
 20
68.455425347222217
 10
82.306604003906244
 20
68.485053168402771
 10
82.342432996961804
 20
68.485053168402771
 97
        0
 92
        1
 93
        1
 72
     4
 94
        3
 73
     0
 74
     0
 95
       53
 96
       49
 40
0.0
 40
0.0
 40
0.0
 40
0.0
 40
1.0
 40
1.0
 40
1.0
 40
2.0
 40
2.0
 40
2.0
 40
3.0
 40
3.0
 40
3.0
 40
4.0
 40
4.0
 40
4.0
 40
5.0
 40
5.0
 40
5.0
 40
6.0
 40
6.0
 40
6.0
 40
7.0
 40
7.0
 40
7.0
 40
8.0
 40
8.0
 40
8.0
 40
9.0
 40
9.0
 40
9.0
 40
10.0
 40
10.0
 40
10.0
 40
11.0
 40
11.0
 40
11.0
 40
12.0
 40
12.0
 40
12.0
 40
13.0
 40
13.0
 40
13.0
 40
14.0
 40
14.0
 40
14.0
 40
15.0
 40
15.0
 40
15.0
 40
16.0
 40
16.0
 40
16.0
 40
16.0
 10
82.550344509548609
 20
76.9599880642361
 10
82.550344509548609
 20
76.9599880642361
 10
82.550344509548609
 20
76.299907769097217
 10
82.550344509548609
 20
76.299907769097217
 10
82.550344509548609
 20
76.299907769097217
 10
82.531568739149293
 20
76.254432508680551
 10
82.531568739149293
 20
76.254432508680551
 10
82.531568739149293
 20
76.254432508680551
 10
82.485059950086793
 20
76.235139973958326
 10
82.485059950086793
 20
76.235139973958326
 10
82.485059950086793
 20
76.235139973958326
 10
82.438895670572904
 20
76.254432508680551
 10
82.438895670572904
 20
76.254432508680551
 10
82.438895670572904
 20
76.254432508680551
 10
82.419775390624991
 20
76.299907769097217
 10
82.419775390624991
 20
76.299907769097217
 10
82.419775390624991
 20
76.299907769097217
 10
82.419775390624991
 20
77.637293836805554
 10
82.419775390624991
 20
77.637293836805554
 10
82.419775390624991
 20
77.673811848958323
 10
82.449403211805546
 20
77.702750651041654
 10
82.485059950086793
 20
77.702750651041654
 10
82.521061197916666
 20
77.702750651041654
 10
82.550344509548609
 20
77.673811848958323
 10
82.550344509548609
 20
77.637293836805554
 10
82.550344509548609
 20
77.637293836805554
 10
82.550344509548609
 20
76.299907769097217
 10
82.550344509548609
 20
76.299907769097217
 10
82.550344509548609
 20
76.299907769097217
 10
82.531568739149293
 20
76.254432508680551
 10
82.531568739149293
 20
76.254432508680551
 10
82.531568739149293
 20
76.254432508680551
 10
82.485059950086793
 20
76.235139973958326
 10
82.485059950086793
 20
76.235139973958326
 10
82.485059950086793
 20
76.235139973958326
 10
82.438895670572904
 20
76.254432508680551
 10
82.438895670572904
 20
76.254432508680551
 10
82.438895670572904
 20
76.254432508680551
 10
82.419775390624991
 20
76.299907769097217
 10
82.419775390624991
 20
76.299907769097217
 10
82.419775390624991
 20
76.299907769097217
 10
82.419775390624991
 20
76.9599880642361
 10
82.419775390624991
 20
76.9599880642361
 10
82.419775390624991
 20
76.99581705729166
 10
82.449403211805546
 20
77.024755859374991
 10
82.485059950086793
 20
77.024755859374991
 10
82.521061197916666
 20
77.024755859374991
 10
82.550344509548609
 20
76.99581705729166
 10
82.550344509548609
 20
76.9599880642361
 97
        0
 92
        1
 93
        1
 72
     4
 94
        3
 73
     0
 74
     0
 95
       23
 96
       19
 40
0.0
 40
0.0
 40
0.0
 40
0.0
 40
1.0
 40
1.0
 40
1.0
 40
2.0
 40
2.0
 40
2.0
 40
3.0
 40
3.0
 40
3.0
 40
4.0
 40
4.0
 40
4.0
 40
5.0
 40
5.0
 40
5.0
 40
6.0
 40
6.0
 40
6.0
 40
6.0
 10
82.289206271701374
 20
75.670144314236097
 10
82.289206271701374
 20
75.670144314236097
 10
82.520716688368054
 20
75.670144314236097
 10
82.520716688368054
 20
75.670144314236097
 10
82.557062445746524
 20
75.670144314236097
 10
82.586345757378467
 20
75.641205512152766
 10
82.586345757378467
 20
75.604687499999997
 10
82.586345757378467
 20
75.568858506944437
 10
82.557062445746524
 20
75.539919704861106
 10
82.520716688368054
 20
75.539919704861106
 10
82.520716688368054
 20
75.539919704861106
 10
82.289206271701374
 20
75.539919704861106
 10
82.289206271701374
 20
75.539919704861106
 10
82.253205023871516
 20
75.539919704861106
 10
82.223921712239573
 20
75.568858506944437
 10
82.223921712239573
 20
75.604687499999997
 10
82.223921712239573
 20
75.641205512152766
 10
82.253205023871516
 20
75.670144314236097
 10
82.289206271701374
 20
75.670144314236097
 97
        0
 92
        1
 93
        1
 72
     4
 94
        3
 73
     0
 74
     0
 95
       23
 96
       19
 40
0.0
 40
0.0
 40
0.0
 40
0.0
 40
1.0
 40
1.0
 40
1.0
 40
2.0
 40
2.0
 40
2.0
 40
3.0
 40
3.0
 40
3.0
 40
4.0
 40
4.0
 40
4.0
 40
5.0
 40
5.0
 40
5.0
 40
6.0
 40
6.0
 40
6.0
 40
6.0
 10
82.47369113498263
 20
75.801057942708326
 10
82.47369113498263
 20
75.801057942708326
 10
82.47369113498263
 20
76.9599880642361
 10
82.47369113498263
 20
76.9599880642361
 10
82.47369113498263
 20
76.99581705729166
 10
82.502974446614573
 20
77.024755859374991
 10
82.53863118489582
 20
77.024755859374991
 10
82.574632432725693
 20
77.024755859374991
 10
82.603915744357636
 20
76.99581705729166
 10
82.603915744357636
 20
76.9599880642361
 10
82.603915744357636
 20
76.9599880642361
 10
82.603915744357636
 20
75.801057942708326
 10
82.603915744357636
 20
75.801057942708326
 10
82.603915744357636
 20
75.764539930555543
 10
82.574632432725693
 20
75.735601128472211
 10
82.53863118489582
 20
75.735601128472211
 10
82.502974446614573
 20
75.735601128472211
 10
82.47369113498263
 20
75.764539930555543
 10
82.47369113498263
 20
75.801057942708326
 97
        0
 92
        1
 93
        1
 72
     4
 94
        3
 73
     0
 74
     0
 95
       23
 96
       19
 40
0.0
 40
0.0
 40
0.0
 40
0.0
 40
1.0
 40
1.0
 40
1.0
 40
2.0
 40
2.0
 40
2.0
 40
3.0
 40
3.0
 40
3.0
 40
4.0
 40
4.0
 40
4.0
 40
5.0
 40
5.0
 40
5.0
 40
6.0
 40
6.0
 40
6.0
 40
6.0
 10
80.422998046874994
 20
62.332112630208329
 10
81.271180555555546
 20
62.486452907986106
 10
81.910418023003459
 20
63.26917860243055
 10
81.938495551215269
 20
64.124940321180546
 10
81.939701334635416
 20
64.160769314236106
 10
81.969673665364581
 20
64.189019097222214
 10
82.00567491319444
 20
64.187641059027769
 10
82.04202067057291
 20
64.186263020833323
 10
82.07009819878472
 20
64.156635199652769
 10
82.069064670138886
 20
64.120806206597223
 10
82.037369791666663
 20
63.20303276909722
 10
81.360064019097209
 20
62.372075737847219
 10
80.446596950954856
 20
62.203955078124991
 10
80.410767957899296
 20
62.19706488715277
 10
80.377178276909717
 20
62.220491536458326
 10
80.370804850260413
 20
62.256320529513886
 10
80.364086914062497
 20
62.292149522569439
 10
80.387685818142359
 20
62.32591145833333
 10
80.422998046874994
 20
62.332112630208329
 97
        0
 92
        1
 93
        1
 72
     4
 94
        3
 73
     0
 74
     0
 95
       44
 96
       40
 40
0.0
 40
0.0
 40
0.0
 40
0.0
 40
1.0
 40
1.0
 40
1.0
 40
2.0
 40
2.0
 40
2.0
 40
3.0
 40
3.0
 40
3.0
 40
4.0
 40
4.0
 40
4.0
 40
5.0
 40
5.0
 40
5.0
 40
6.0
 40
6.0
 40
6.0
 40
7.0
 40
7.0
 40
7.0
 40
8.0
 40
8.0
 40
8.0
 40
9.0
 40
9.0
 40
9.0
 40
10.0
 40
10.0
 40
10.0
 40
11.0
 40
11.0
 40
11.0
 40
12.0
 40
12.0
 40
12.0
 40
13.0
 40
13.0
 40
13.0
 40
13.0
 10
82.170350477430546
 20
64.124251302083323
 10
82.170350477430546
 20
64.124251302083323
 10
82.471624077690961
 20
75.735601128472211
 10
82.471624077690961
 20
75.735601128472211
 10
82.471624077690961
 20
75.735601128472211
 10
82.370682779947913
 20
75.735601128472211
 10
82.370682779947913
 20
75.735601128472211
 10
82.370682779947913
 20
75.735601128472211
 10
82.069064670138886
 20
64.121495225694446
 10
82.069064670138886
 20
64.121495225694446
 10
82.06768663194444
 20
64.084977213541663
 10
82.038058810763886
 20
64.056727430555554
 10
82.001713053385416
 20
64.057416449652777
 10
81.966056315104154
 20
64.05810546875
 10
81.937462022569434
 20
64.088422309027777
 10
81.938495551215269
 20
64.124251302083323
 10
81.938495551215269
 20
64.124251302083323
 10
82.241663953993054
 20
75.802435980902771
 10
82.241663953993054
 20
75.802435980902771
 10
82.242352973090277
 20
75.837575954861109
 10
82.271291775173609
 20
75.86651475694444
 10
82.306948513454856
 20
75.86651475694444
 10
82.306948513454856
 20
75.86651475694444
 10
82.53863118489582
 20
75.86651475694444
 10
82.53863118489582
 20
75.86651475694444
 10
82.53863118489582
 20
75.86651475694444
 10
82.585484483506931
 20
75.846533203124991
 10
82.585484483506931
 20
75.846533203124991
 10
82.585484483506931
 20
75.846533203124991
 10
82.603915744357636
 20
75.798990885416657
 10
82.603915744357636
 20
75.798990885416657
 10
82.603915744357636
 20
75.798990885416657
 10
82.300575086805551
 20
64.121495225694446
 10
82.300575086805551
 20
64.121495225694446
 10
82.299886067708329
 20
64.084977213541663
 10
82.269913736979163
 20
64.056727430555554
 10
82.233912489149304
 20
64.057416449652777
 10
82.197911241319431
 20
64.05810546875
 10
82.169316948784711
 20
64.088422309027777
 10
82.170350477430546
 20
64.124251302083323
 97
        0
 92
        1
 93
        1
 72
     4
 94
        3
 73
     0
 74
     0
 95
       23
 96
       19
 40
0.0
 40
0.0
 40
0.0
 40
0.0
 40
1.0
 40
1.0
 40
1.0
 40
2.0
 40
2.0
 40
2.0
 40
3.0
 40
3.0
 40
3.0
 40
4.0
 40
4.0
 40
4.0
 40
5.0
 40
5.0
 40
5.0
 40
6.0
 40
6.0
 40
6.0
 40
6.0
 10
82.54638264973957
 20
76.278548177083323
 10
82.54638264973957
 20
76.278548177083323
 10
82.368271213107633
 20
75.779009331597209
 10
82.368271213107633
 20
75.779009331597209
 10
82.356213378906247
 20
75.745247395833331
 10
82.318834092881943
 20
75.727332899305551
 10
82.285072157118051
 20
75.739735243055549
 10
82.251137966579847
 20
75.751448567708323
 10
82.233567979600693
 20
75.788655598958329
 10
82.245453559027766
 20
75.823106553819443
 10
82.245453559027766
 20
75.823106553819443
 10
82.423909505208329
 20
76.32195638020832
 10
82.423909505208329
 20
76.32195638020832
 10
82.435622829861103
 20
76.356407335069434
 10
82.473002115885407
 20
76.373632812499991
 10
82.506936306423597
 20
76.361230468749994
 10
82.5410427517361
 20
76.34951714409722
 10
82.558784993489581
 20
76.312310112847214
 10
82.54638264973957
 20
76.278548177083323
 97
        0
 92
        1
 93
        1
 72
     4
 94
        3
 73
     0
 74
     0
 95
       23
 96
       19
 40
0.0
 40
0.0
 40
0.0
 40
0.0
 40
1.0
 40
1.0
 40
1.0
 40
2.0
 40
2.0
 40
2.0
 40
3.0
 40
3.0
 40
3.0
 40
4.0
 40
4.0
 40
4.0
 40
5.0
 40
5.0
 40
5.0
 40
6.0
 40
6.0
 40
6.0
 40
6.0
 10
82.550344509548609
 20
77.637293836805554
 10
82.550344509548609
 20
77.637293836805554
 10
82.550344509548609
 20
76.97790256076388
 10
82.550344509548609
 20
76.97790256076388
 10
82.550344509548609
 20
76.941384548611097
 10
82.521061197916666
 20
76.912445746527766
 10
82.485059950086793
 20
76.912445746527766
 10
82.449403211805546
 20
76.912445746527766
 10
82.419775390624991
 20
76.941384548611097
 10
82.419775390624991
 20
76.97790256076388
 10
82.419775390624991
 20
76.97790256076388
 10
82.419775390624991
 20
77.637293836805554
 10
82.419775390624991
 20
77.637293836805554
 10
82.419775390624991
 20
77.673811848958323
 10
82.449403211805546
 20
77.702750651041654
 10
82.485059950086793
 20
77.702750651041654
 10
82.521061197916666
 20
77.702750651041654
 10
82.550344509548609
 20
77.673811848958323
 10
82.550344509548609
 20
77.637293836805554
 97
        0
 92
        1
 93
        1
 72
     4
 94
        3
 73
     0
 74
     0
 95
       23
 96
       19
 40
0.0
 40
0.0
 40
0.0
 40
0.0
 40
1.0
 40
1.0
 40
1.0
 40
2.0
 40
2.0
 40
2.0
 40
3.0
 40
3.0
 40
3.0
 40
4.0
 40
4.0
 40
4.0
 40
5.0
 40
5.0
 40
5.0
 40
6.0
 40
6.0
 40
6.0
 40
6.0
 10
82.289206271701374
 20
78.397970920138889
 10
82.289206271701374
 20
78.397970920138889
 10
82.520716688368054
 20
78.397970920138889
 10
82.520716688368054
 20
78.397970920138889
 10
82.557062445746524
 20
78.397970920138889
 10
82.586345757378467
 20
78.369032118055543
 10
82.586345757378467
 20
78.332514105902774
 10
82.586345757378467
 20
78.296685112847214
 10
82.557062445746524
 20
78.267746310763883
 10
82.520716688368054
 20
78.267746310763883
 10
82.520716688368054
 20
78.267746310763883
 10
82.289206271701374
 20
78.267746310763883
 10
82.289206271701374
 20
78.267746310763883
 10
82.253205023871516
 20
78.267746310763883
 10
82.223921712239573
 20
78.296685112847214
 10
82.223921712239573
 20
78.332514105902774
 10
82.223921712239573
 20
78.369032118055543
 10
82.253205023871516
 20
78.397970920138889
 10
82.289206271701374
 20
78.397970920138889
 97
        0
 92
        1
 93
        1
 72
     4
 94
        3
 73
     0
 74
     0
 95
       23
 96
       19
 40
0.0
 40
0.0
 40
0.0
 40
0.0
 40
1.0
 40
1.0
 40
1.0
 40
2.0
 40
2.0
 40
2.0
 40
3.0
 40
3.0
 40
3.0
 40
4.0
 40
4.0
 40
4.0
 40
5.0
 40
5.0
 40
5.0
 40
6.0
 40
6.0
 40
6.0
 40
6.0
 10
82.603915744357636
 20
78.136832682291654
 10
82.603915744357636
 20
78.136832682291654
 10
82.603915744357636
 20
76.9599880642361
 10
82.603915744357636
 20
76.9599880642361
 10
82.603915744357636
 20
76.924159071180554
 10
82.574632432725693
 20
76.895220269097209
 10
82.53863118489582
 20
76.895220269097209
 10
82.502974446614573
 20
76.895220269097209
 10
82.47369113498263
 20
76.924159071180554
 10
82.47369113498263
 20
76.9599880642361
 10
82.47369113498263
 20
76.9599880642361
 10
82.47369113498263
 20
78.136832682291654
 10
82.47369113498263
 20
78.136832682291654
 10
82.47369113498263
 20
78.173350694444437
 10
82.502974446614573
 20
78.202289496527769
 10
82.53863118489582
 20
78.202289496527769
 10
82.574632432725693
 20
78.202289496527769
 10
82.603915744357636
 20
78.173350694444437
 10
82.603915744357636
 20
78.136832682291654
 97
        0
 92
        1
 93
        1
 72
     4
 94
        3
 73
     0
 74
     0
 95
       56
 96
       52
 40
0.0
 40
0.0
 40
0.0
 40
0.0
 40
1.0
 40
1.0
 40
1.0
 40
2.0
 40
2.0
 40
2.0
 40
3.0
 40
3.0
 40
3.0
 40
4.0
 40
4.0
 40
4.0
 40
5.0
 40
5.0
 40
5.0
 40
6.0
 40
6.0
 40
6.0
 40
7.0
 40
7.0
 40
7.0
 40
8.0
 40
8.0
 40
8.0
 40
9.0
 40
9.0
 40
9.0
 40
10.0
 40
10.0
 40
10.0
 40
11.0
 40
11.0
 40
11.0
 40
12.0
 40
12.0
 40
12.0
 40
13.0
 40
13.0
 40
13.0
 40
14.0
 40
14.0
 40
14.0
 40
15.0
 40
15.0
 40
15.0
 40
16.0
 40
16.0
 40
16.0
 40
17.0
 40
17.0
 40
17.0
 40
17.0
 10
82.300575086805551
 20
89.817084418402771
 10
82.300575086805551
 20
89.817084418402771
 10
82.603915744357636
 20
78.138899739583323
 10
82.603915744357636
 20
78.138899739583323
 10
82.603915744357636
 20
78.138899739583323
 10
82.585484483506931
 20
78.091357421874989
 10
82.585484483506931
 20
78.091357421874989
 10
82.585484483506931
 20
78.091357421874989
 10
82.53863118489582
 20
78.072064887152777
 10
82.53863118489582
 20
78.072064887152777
 10
82.53863118489582
 20
78.072064887152777
 10
82.306948513454856
 20
78.072064887152777
 10
82.306948513454856
 20
78.072064887152777
 10
82.271291775173609
 20
78.072064887152777
 10
82.242352973090277
 20
78.100314670138886
 10
82.241663953993054
 20
78.134765625
 10
82.241663953993054
 20
78.134765625
 10
81.9209255642361
 20
89.811572265624989
 10
81.9209255642361
 20
89.811572265624989
 10
81.939701334635416
 20
90.503347439236109
 10
81.420353190104166
 20
91.261957465277774
 10
80.766301812065961
 20
91.5017361111111
 10
80.766301812065961
 20
91.5017361111111
 10
80.415935601128467
 20
91.607156032986097
 10
80.415935601128467
 20
91.607156032986097
 10
80.381484646267353
 20
91.61749131944444
 10
80.361675347222217
 20
91.654009331597209
 10
80.372182888454859
 20
91.688460286458323
 10
80.382518174913187
 20
91.722911241319437
 10
80.418863932291657
 20
91.742892795138886
 10
80.453659396701383
 20
91.73186848958332
 10
80.453659396701383
 20
91.73186848958332
 10
80.81005452473957
 20
91.625070529513877
 10
80.81005452473957
 20
91.625070529513877
 10
81.52508409288194
 20
91.35152994791666
 10
82.057868109809021
 20
90.583273654513874
 10
82.051150173611106
 20
89.817084418402771
 10
82.051150173611106
 20
89.817084418402771
 10
82.370682779947913
 20
78.202289496527769
 10
82.370682779947913
 20
78.202289496527769
 10
82.370682779947913
 20
78.202289496527769
 10
82.471624077690961
 20
78.202289496527769
 10
82.471624077690961
 20
78.202289496527769
 10
82.471624077690961
 20
78.202289496527769
 10
82.170350477430546
 20
89.813639322916657
 10
82.170350477430546
 20
89.813639322916657
 10
82.169316948784711
 20
89.849468315972217
 10
82.197911241319431
 20
89.879785156249994
 10
82.233912489149304
 20
89.880474175347217
 10
82.269913736979163
 20
89.881852213541663
 10
82.299886067708329
 20
89.852913411458331
 10
82.300575086805551
 20
89.817084418402771
 97
        0
 92
        1
 93
        1
 72
     4
 94
        3
 73
     0
 74
     0
 95
       23
 96
       19
 40
0.0
 40
0.0
 40
0.0
 40
0.0
 40
1.0
 40
1.0
 40
1.0
 40
2.0
 40
2.0
 40
2.0
 40
3.0
 40
3.0
 40
3.0
 40
4.0
 40
4.0
 40
4.0
 40
5.0
 40
5.0
 40
5.0
 40
6.0
 40
6.0
 40
6.0
 40
6.0
 10
71.698121473524296
 20
95.777099609374986
 10
71.698121473524296
 20
95.777099609374986
 10
70.503706868489573
 20
95.777099609374986
 10
70.503706868489573
 20
95.777099609374986
 10
70.467361111111103
 20
95.777099609374986
 10
70.43807779947916
 20
95.80672743055554
 10
70.43807779947916
 20
95.8425564236111
 10
70.43807779947916
 20
95.87838541666666
 10
70.467361111111103
 20
95.908013237847214
 10
70.503706868489573
 20
95.908013237847214
 10
70.503706868489573
 20
95.908013237847214
 10
71.698121473524296
 20
95.908013237847214
 10
71.698121473524296
 20
95.908013237847214
 10
71.734467230902766
 20
95.908013237847214
 10
71.763406032986111
 20
95.87838541666666
 10
71.763406032986111
 20
95.8425564236111
 10
71.763406032986111
 20
95.80672743055554
 10
71.734467230902766
 20
95.777099609374986
 10
71.698121473524296
 20
95.777099609374986
 97
        0
 92
        1
 93
        1
 72
     4
 94
        3
 73
     0
 74
     0
 95
       23
 96
       19
 40
0.0
 40
0.0
 40
0.0
 40
0.0
 40
1.0
 40
1.0
 40
1.0
 40
2.0
 40
2.0
 40
2.0
 40
3.0
 40
3.0
 40
3.0
 40
4.0
 40
4.0
 40
4.0
 40
5.0
 40
5.0
 40
5.0
 40
6.0
 40
6.0
 40
6.0
 40
6.0
 10
82.423909505208329
 20
77.61593424479166
 10
82.423909505208329
 20
77.61593424479166
 10
82.245453559027766
 20
78.115473090277774
 10
82.245453559027766
 20
78.115473090277774
 10
82.233567979600693
 20
78.149235026041666
 10
82.251137966579847
 20
78.186442057291657
 10
82.285072157118051
 20
78.198155381944431
 10
82.318834092881943
 20
78.210557725694443
 10
82.356213378906247
 20
78.192643229166663
 10
82.368271213107633
 20
78.159570312499994
 10
82.368271213107633
 20
78.159570312499994
 10
82.54638264973957
 20
77.659342447916657
 10
82.54638264973957
 20
77.659342447916657
 10
82.558784993489581
 20
77.624891493055543
 10
82.5410427517361
 20
77.588373480902774
 10
82.506936306423597
 20
77.575971137152777
 10
82.473002115885407
 20
77.564257812499989
 10
82.435622829861103
 20
77.581483289930546
 10
82.423909505208329
 20
77.61593424479166
 97
        0
 92
        1
 93
        1
 72
     4
 94
        3
 73
     0
 74
     0
 95
       23
 96
       19
 40
0.0
 40
0.0
 40
0.0
 40
0.0
 40
1.0
 40
1.0
 40
1.0
 40
2.0
 40
2.0
 40
2.0
 40
3.0
 40
3.0
 40
3.0
 40
4.0
 40
4.0
 40
4.0
 40
5.0
 40
5.0
 40
5.0
 40
6.0
 40
6.0
 40
6.0
 40
6.0
 10
80.421620008680549
 20
91.605777994791652
 10
80.421620008680549
 20
91.605777994791652
 10
71.685374620225687
 20
93.371044921874997
 10
71.685374620225687
 20
93.371044921874997
 10
71.65023464626735
 20
93.378624131944434
 10
71.627324761284711
 20
93.412386067708326
 10
71.63421495225694
 20
93.447526041666663
 10
71.640932888454856
 20
93.483355034722209
 10
71.67590060763888
 20
93.505403645833326
 10
71.711212836371516
 20
93.498513454861097
 10
71.711212836371516
 20
93.498513454861097
 10
80.447458224826377
 20
91.733935546874989
 10
80.447458224826377
 20
91.733935546874989
 10
80.482942708333326
 20
91.727045355902774
 10
80.506024848090277
 20
91.691905381944437
 10
80.498962402343736
 20
91.6567654079861
 10
80.491899956597209
 20
91.621625434027763
 10
80.456932237413184
 20
91.598887803819437
 10
80.421620008680549
 20
91.605777994791652
 97
        0
 92
        1
 93
        1
 72
     4
 94
        3
 73
     0
 74
     0
 95
       23
 96
       19
 40
0.0
 40
0.0
 40
0.0
 40
0.0
 40
1.0
 40
1.0
 40
1.0
 40
2.0
 40
2.0
 40
2.0
 40
3.0
 40
3.0
 40
3.0
 40
4.0
 40
4.0
 40
4.0
 40
5.0
 40
5.0
 40
5.0
 40
6.0
 40
6.0
 40
6.0
 40
6.0
 10
70.568991427951389
 20
95.8425564236111
 10
70.568991427951389
 20
95.8425564236111
 10
70.568991427951389
 20
58.096023220486103
 10
70.568991427951389
 20
58.096023220486103
 10
70.568991427951389
 20
58.06019422743055
 10
70.539708116319431
 20
58.031255425347219
 10
70.503706868489573
 20
58.031255425347219
 10
70.467361111111103
 20
58.031255425347219
 10
70.43807779947916
 20
58.06019422743055
 10
70.43807779947916
 20
58.096023220486103
 10
70.43807779947916
 20
58.096023220486103
 10
70.43807779947916
 20
95.8425564236111
 10
70.43807779947916
 20
95.8425564236111
 10
70.43807779947916
 20
95.87838541666666
 10
70.467361111111103
 20
95.908013237847214
 10
70.503706868489573
 20
95.908013237847214
 10
70.539708116319431
 20
95.908013237847214
 10
70.568991427951389
 20
95.87838541666666
 10
70.568991427951389
 20
95.8425564236111
 97
        0
 92
        1
 93
        1
 72
     4
 94
        3
 73
     0
 74
     0
 95
       23
 96
       19
 40
0.0
 40
0.0
 40
0.0
 40
0.0
 40
1.0
 40
1.0
 40
1.0
 40
2.0
 40
2.0
 40
2.0
 40
3.0
 40
3.0
 40
3.0
 40
4.0
 40
4.0
 40
4.0
 40
5.0
 40
5.0
 40
5.0
 40
6.0
 40
6.0
 40
6.0
 40
6.0
 10
71.632836914062494
 20
58.096023220486103
 10
71.632836914062494
 20
58.096023220486103
 10
71.632836914062494
 20
95.8425564236111
 10
71.632836914062494
 20
95.8425564236111
 10
71.632836914062494
 20
95.87838541666666
 10
71.662464735243049
 20
95.908013237847214
 10
71.698121473524296
 20
95.908013237847214
 10
71.734467230902766
 20
95.908013237847214
 10
71.763406032986111
 20
95.87838541666666
 10
71.763406032986111
 20
95.8425564236111
 10
71.763406032986111
 20
95.8425564236111
 10
71.763406032986111
 20
58.096023220486103
 10
71.763406032986111
 20
58.096023220486103
 10
71.763406032986111
 20
58.06019422743055
 10
71.734467230902766
 20
58.031255425347219
 10
71.698121473524296
 20
58.031255425347219
 10
71.662464735243049
 20
58.031255425347219
 10
71.632836914062494
 20
58.06019422743055
 10
71.632836914062494
 20
58.096023220486103
 97
        0
 92
        1
 93
        1
 72
     4
 94
        3
 73
     0
 74
     0
 95
       23
 96
       19
 40
0.0
 40
0.0
 40
0.0
 40
0.0
 40
1.0
 40
1.0
 40
1.0
 40
2.0
 40
2.0
 40
2.0
 40
3.0
 40
3.0
 40
3.0
 40
4.0
 40
4.0
 40
4.0
 40
5.0
 40
5.0
 40
5.0
 40
6.0
 40
6.0
 40
6.0
 40
6.0
 10
71.685374620225687
 20
60.566845703124997
 10
71.685374620225687
 20
60.566845703124997
 10
80.421620008680549
 20
62.332112630208329
 10
80.421620008680549
 20
62.332112630208329
 10
80.456932237413184
 20
62.33900282118055
 10
80.491899956597209
 20
62.316265190972217
 10
80.498962402343736
 20
62.28112521701388
 10
80.506024848090277
 20
62.245296223958327
 10
80.482942708333326
 20
62.211534288194436
 10
80.447458224826377
 20
62.204644097222214
 10
80.447458224826377
 20
62.204644097222214
 10
71.711212836371516
 20
60.439377170138883
 10
71.711212836371516
 20
60.439377170138883
 10
71.67590060763888
 20
60.432486979166661
 10
71.640932888454856
 20
60.454535590277771
 10
71.63421495225694
 20
60.490364583333324
 10
71.627324761284711
 20
60.525504557291661
 10
71.65023464626735
 20
60.559955512152776
 10
71.685374620225687
 20
60.566845703124997
 97
        0
 92
        1
 93
        1
 72
     4
 94
        3
 73
     0
 74
     0
 95
       23
 96
       19
 40
0.0
 40
0.0
 40
0.0
 40
0.0
 40
1.0
 40
1.0
 40
1.0
 40
2.0
 40
2.0
 40
2.0
 40
3.0
 40
3.0
 40
3.0
 40
4.0
 40
4.0
 40
4.0
 40
5.0
 40
5.0
 40
5.0
 40
6.0
 40
6.0
 40
6.0
 40
6.0
 10
70.503706868489573
 20
58.161480034722217
 10
70.503706868489573
 20
58.161480034722217
 10
71.698121473524296
 20
58.161480034722217
 10
71.698121473524296
 20
58.161480034722217
 10
71.734467230902766
 20
58.161480034722217
 10
71.763406032986111
 20
58.131852213541663
 10
71.763406032986111
 20
58.096023220486103
 10
71.763406032986111
 20
58.06019422743055
 10
71.734467230902766
 20
58.031255425347219
 10
71.698121473524296
 20
58.031255425347219
 10
71.698121473524296
 20
58.031255425347219
 10
70.503706868489573
 20
58.031255425347219
 10
70.503706868489573
 20
58.031255425347219
 10
70.467361111111103
 20
58.031255425347219
 10
70.43807779947916
 20
58.06019422743055
 10
70.43807779947916
 20
58.096023220486103
 10
70.43807779947916
 20
58.131852213541663
 10
70.467361111111103
 20
58.161480034722217
 10
70.503706868489573
 20
58.161480034722217
 97
        0
 75
     0
 76
     1
 98
        1
 10
0.0
 20
0.0
  0
HATCH
  5
9D
100
AcDbEntity
  8
LAYER_1
 62
   250
100
AcDbHatch
 10
0.0
 20
0.0
 30
0.0
210
0.0
220
0.0
230
1.0
  2
SOLID
 70
     1
 71
     0
 91
        1
 92
        3
 72
     0
 73
     0
 93
        4
 10
73.106476508246516
 20
78.261545138888877
 10
73.284932454427079
 20
78.136143663194431
 10
72.838964843749991
 20
77.654519314236097
 10
73.106476508246516
 20
78.261545138888877
 97
        0
 75
     0
 76
     1
 98
        1
 10
0.0
 20
0.0
  0
HATCH
  5
9C
100
AcDbEntity
  8
LAYER_1
 62
   250
100
AcDbHatch
 10
0.0
 20
0.0
 30
0.0
210
0.0
220
0.0
230
1.0
  2
SOLID
 70
     1
 71
     0
 91
        6
 92
        1
 93
        1
 72
     4
 94
        3
 73
     0
 74
     0
 95
       23
 96
       19
 40
0.0
 40
0.0
 40
0.0
 40
0.0
 40
1.0
 40
1.0
 40
1.0
 40
2.0
 40
2.0
 40
2.0
 40
3.0
 40
3.0
 40
3.0
 40
4.0
 40
4.0
 40
4.0
 40
5.0
 40
5.0
 40
5.0
 40
6.0
 40
6.0
 40
6.0
 40
6.0
 10
72.339081488715266
 20
77.167382812499994
 10
72.339081488715266
 20
77.167382812499994
 10
72.606937662760416
 20
77.167382812499994
 10
72.606937662760416
 20
77.167382812499994
 10
72.642938910590274
 20
77.167382812499994
 10
72.672222222222217
 20
77.138444010416663
 10
72.672222222222217
 20
77.103304036458326
 10
72.672222222222217
 20
77.066786024305543
 10
72.642938910590274
 20
77.037158203124989
 10
72.606937662760416
 20
77.037158203124989
 10
72.606937662760416
 20
77.037158203124989
 10
72.339081488715266
 20
77.037158203124989
 10
72.339081488715266
 20
77.037158203124989
 10
72.303597005208331
 20
77.037158203124989
 10
72.274658203125
 20
77.066786024305543
 10
72.274658203125
 20
77.103304036458326
 10
72.274658203125
 20
77.138444010416663
 10
72.303597005208331
 20
77.167382812499994
 10
72.339081488715266
 20
77.167382812499994
 97
        0
 92
        1
 93
        1
 72
     4
 94
        3
 73
     0
 74
     0
 95
       23
 96
       19
 40
0.0
 40
0.0
 40
0.0
 40
0.0
 40
1.0
 40
1.0
 40
1.0
 40
2.0
 40
2.0
 40
2.0
 40
3.0
 40
3.0
 40
3.0
 40
4.0
 40
4.0
 40
4.0
 40
5.0
 40
5.0
 40
5.0
 40
6.0
 40
6.0
 40
6.0
 40
6.0
 10
72.399542914496521
 20
76.9599880642361
 10
72.399542914496521
 20
76.9599880642361
 10
72.399542914496521
 20
77.244552951388883
 10
72.399542914496521
 20
77.244552951388883
 10
72.399542914496521
 20
77.281070963541666
 10
72.428309461805554
 20
77.31069878472222
 10
72.464655219184024
 20
77.31069878472222
 10
72.500311957465271
 20
77.31069878472222
 10
72.529939778645826
 20
77.281070963541666
 10
72.529939778645826
 20
77.244552951388883
 10
72.529939778645826
 20
77.244552951388883
 10
72.529939778645826
 20
76.9599880642361
 10
72.529939778645826
 20
76.9599880642361
 10
72.529939778645826
 20
76.924159071180554
 10
72.500311957465271
 20
76.895220269097209
 10
72.464655219184024
 20
76.895220269097209
 10
72.428309461805554
 20
76.895220269097209
 10
72.399542914496521
 20
76.924159071180554
 10
72.399542914496521
 20
76.9599880642361
 97
        0
 92
        1
 93
        1
 72
     4
 94
        3
 73
     0
 74
     0
 95
       23
 96
       19
 40
0.0
 40
0.0
 40
0.0
 40
0.0
 40
1.0
 40
1.0
 40
1.0
 40
2.0
 40
2.0
 40
2.0
 40
3.0
 40
3.0
 40
3.0
 40
4.0
 40
4.0
 40
4.0
 40
5.0
 40
5.0
 40
5.0
 40
6.0
 40
6.0
 40
6.0
 40
6.0
 10
72.399542914496521
 20
77.191498480902766
 10
72.399542914496521
 20
77.191498480902766
 10
72.399542914496521
 20
98.62481553819444
 10
72.399542914496521
 20
98.62481553819444
 10
72.399542914496521
 20
98.660644531249986
 10
72.428309461805554
 20
98.689583333333331
 10
72.464655219184024
 20
98.689583333333331
 10
72.500311957465271
 20
98.689583333333331
 10
72.529939778645826
 20
98.660644531249986
 10
72.529939778645826
 20
98.62481553819444
 10
72.529939778645826
 20
98.62481553819444
 10
72.529939778645826
 20
77.191498480902766
 10
72.529939778645826
 20
77.191498480902766
 10
72.529939778645826
 20
77.15566948784722
 10
72.500311957465271
 20
77.126730685763889
 10
72.464655219184024
 20
77.126730685763889
 10
72.428309461805554
 20
77.126730685763889
 10
72.399542914496521
 20
77.15566948784722
 10
72.399542914496521
 20
77.191498480902766
 97
        0
 92
        1
 93
        1
 72
     4
 94
        3
 73
     0
 74
     0
 95
       23
 96
       19
 40
0.0
 40
0.0
 40
0.0
 40
0.0
 40
1.0
 40
1.0
 40
1.0
 40
2.0
 40
2.0
 40
2.0
 40
3.0
 40
3.0
 40
3.0
 40
4.0
 40
4.0
 40
4.0
 40
5.0
 40
5.0
 40
5.0
 40
6.0
 40
6.0
 40
6.0
 40
6.0
 10
70.43807779947916
 20
77.191498480902766
 10
70.43807779947916
 20
77.191498480902766
 10
70.43807779947916
 20
98.62481553819444
 10
70.43807779947916
 20
98.62481553819444
 10
70.43807779947916
 20
98.660644531249986
 10
70.467361111111103
 20
98.689583333333331
 10
70.503362358940961
 20
98.689583333333331
 10
70.539191351996521
 20
98.689583333333331
 10
70.568474663628464
 20
98.660644531249986
 10
70.568474663628464
 20
98.62481553819444
 10
70.568474663628464
 20
98.62481553819444
 10
70.568474663628464
 20
77.191498480902766
 10
70.568474663628464
 20
77.191498480902766
 10
70.568474663628464
 20
77.15566948784722
 10
70.539191351996521
 20
77.126730685763889
 10
70.503362358940961
 20
77.126730685763889
 10
70.467361111111103
 20
77.126730685763889
 10
70.43807779947916
 20
77.15566948784722
 10
70.43807779947916
 20
77.191498480902766
 97
        0
 92
        1
 93
        1
 72
     4
 94
        3
 73
     0
 74
     0
 95
       23
 96
       19
 40
0.0
 40
0.0
 40
0.0
 40
0.0
 40
1.0
 40
1.0
 40
1.0
 40
2.0
 40
2.0
 40
2.0
 40
3.0
 40
3.0
 40
3.0
 40
4.0
 40
4.0
 40
4.0
 40
5.0
 40
5.0
 40
5.0
 40
6.0
 40
6.0
 40
6.0
 40
6.0
 10
73.124391004774296
 20
98.422243923611106
 10
73.124391004774296
 20
98.422243923611106
 10
73.766040039062489
 20
98.422243923611106
 10
73.766040039062489
 20
98.422243923611106
 10
73.80169677734375
 20
98.422243923611106
 10
73.830980088975693
 20
98.393305121527774
 10
73.830980088975693
 20
98.357476128472214
 10
73.830980088975693
 20
98.320958116319431
 10
73.80169677734375
 20
98.2920193142361
 10
73.766040039062489
 20
98.2920193142361
 10
73.766040039062489
 20
98.2920193142361
 10
73.124391004774296
 20
98.2920193142361
 10
73.124391004774296
 20
98.2920193142361
 10
73.088389756944437
 20
98.2920193142361
 10
73.059106445312494
 20
98.320958116319431
 10
73.059106445312494
 20
98.357476128472214
 10
73.059106445312494
 20
98.393305121527774
 10
73.088389756944437
 20
98.422243923611106
 10
73.124391004774296
 20
98.422243923611106
 97
        0
 92
        1
 93
        1
 72
     4
 94
        3
 73
     0
 74
     0
 95
       23
 96
       19
 40
0.0
 40
0.0
 40
0.0
 40
0.0
 40
1.0
 40
1.0
 40
1.0
 40
2.0
 40
2.0
 40
2.0
 40
3.0
 40
3.0
 40
3.0
 40
4.0
 40
4.0
 40
4.0
 40
5.0
 40
5.0
 40
5.0
 40
6.0
 40
6.0
 40
6.0
 40
6.0
 10
69.86154106987847
 20
98.2920193142361
 10
69.86154106987847
 20
98.2920193142361
 10
69.219547526041666
 20
98.2920193142361
 10
69.219547526041666
 20
98.2920193142361
 10
69.183201768663181
 20
98.2920193142361
 10
69.15426296657985
 20
98.320958116319431
 10
69.15426296657985
 20
98.357476128472214
 10
69.15426296657985
 20
98.393305121527774
 10
69.183201768663181
 20
98.422243923611106
 10
69.219547526041666
 20
98.422243923611106
 10
69.219547526041666
 20
98.422243923611106
 10
69.86154106987847
 20
98.422243923611106
 10
69.86154106987847
 20
98.422243923611106
 10
69.897542317708329
 20
98.422243923611106
 10
69.926825629340271
 20
98.393305121527774
 10
69.926825629340271
 20
98.357476128472214
 10
69.926825629340271
 20
98.320958116319431
 10
69.897542317708329
 20
98.2920193142361
 10
69.86154106987847
 20
98.2920193142361
 97
        0
 75
     0
 76
     1
 98
        1
 10
0.0
 20
0.0
  0
HATCH
  5
9B
100
AcDbEntity
  8
LAYER_1
 62
   250
100
AcDbHatch
 10
0.0
 20
0.0
 30
0.0
210
0.0
220
0.0
230
1.0
  2
SOLID
 70
     1
 71
     0
 91
        1
 92
        3
 72
     0
 73
     0
 93
        4
 10
73.124391004774296
 20
98.464274088541657
 10
73.124391004774296
 20
98.249989149305549
 10
72.464655219184024
 20
98.356787109374991
 10
73.124391004774296
 20
98.464274088541657
 97
        0
 75
     0
 76
     1
 98
        1
 10
0.0
 20
0.0
  0
HATCH
  5
9A
100
AcDbEntity
  8
LAYER_1
 62
   250
100
AcDbHatch
 10
0.0
 20
0.0
 30
0.0
210
0.0
220
0.0
230
1.0
  2
SOLID
 70
     1
 71
     0
 91
        1
 92
        3
 72
     0
 73
     0
 93
        4
 10
69.86154106987847
 20
98.464274088541657
 10
69.86154106987847
 20
98.249989149305549
 10
70.503362358940961
 20
98.356787109374991
 10
69.86154106987847
 20
98.464274088541657
 97
        0
 75
     0
 76
     1
 98
        1
 10
0.0
 20
0.0
  0
LINE
  5
99
100
AcDbEntity
  8
LAYER_1
 62
   250
100
AcDbLine
 10
25.373473
 20
45.709527
 30
0.0
 11
26.8385
 21
38.442442
 31
0.0
  0
POLYLINE
  5
94
100
AcDbEntity
  8
LAYER_1
 62
   250
100
AcDb2dPolyline
 66
     1
 10
0.0
 20
0.0
 30
0.0
  0
VERTEX
  5
95
100
AcDbEntity
  8
LAYER_1
 62
   250
100
AcDbVertex
100
AcDb2dVertex
 10
23.360848
 20
46.686556
 30
0.0
  0
VERTEX
  5
96
100
AcDbEntity
  8
LAYER_1
 62
   250
100
AcDbVertex
100
AcDb2dVertex
 10
23.360848
 20
45.709527
 30
0.0
  0
VERTEX
  5
97
100
AcDbEntity
  8
LAYER_1
 62
   250
100
AcDbVertex
100
AcDb2dVertex
 10
54.753592
 20
45.709527
 30
0.0
  0
SEQEND
  5
98
100
AcDbEntity
  8
LAYER_1
 62
   250
  0
LINE
  5
93
100
AcDbEntity
  8
LAYER_1
 62
   250
100
AcDbLine
 10
54.753936
 20
46.686556
 30
0.0
 11
23.361192
 21
46.686556
 31
0.0
  0
LINE
  5
92
100
AcDbEntity
  8
LAYER_1
 62
   250
100
AcDbLine
 10
50.373153
 20
45.709527
 30
0.0
 11
48.892795
 21
38.383876
 31
0.0
  0
SPLINE
  5
91
100
AcDbEntity
  8
LAYER_1
 62
   250
100
AcDbSpline
210
0.0
220
0.0
230
1.0
 70
     8
 71
     3
 72
    14
 73
    10
 74
     0
 42
0.00000001
 43
0.00000001
 40
0.0
 40
0.0
 40
0.0
 40
0.0
 40
1.0
 40
1.0
 40
1.0
 40
2.0
 40
2.0
 40
2.0
 40
3.0
 40
3.0
 40
3.0
 40
3.0
 10
47.35300971137152
 20
37.080940755208331
 30
0.0
 10
47.35300971137152
 20
37.080940755208331
 30
0.0
 10
47.663757324218743
 20
37.125037977430551
 30
0.0
 10
47.663757324218743
 20
37.125037977430551
 30
0.0
 10
48.174492730034714
 20
37.213232421874999
 30
0.0
 10
48.612019856770829
 20
37.616308593749999
 30
0.0
 10
48.803911675347216
 20
38.086908637152774
 30
0.0
 10
48.803911675347216
 20
38.086908637152774
 30
0.0
 10
48.892795138888886
 20
38.383186848958331
 30
0.0
 10
48.892795138888886
 20
38.383186848958331
 30
0.0
  0
LINE
  5
90
100
AcDbEntity
  8
LAYER_1
 62
   250
100
AcDbLine
 10
54.753936
 20
46.686556
 30
0.0
 11
54.753936
 21
45.709527
 31
0.0
  0
LINE
  5
8F
100
AcDbEntity
  8
LAYER_1
 62
   250
100
AcDbLine
 10
39.612225
 20
36.740565
 30
0.0
 11
40.026497
 21
36.888015
 31
0.0
  0
POLYLINE
  5
89
100
AcDbEntity
  8
LAYER_1
 62
   250
100
AcDb2dPolyline
 66
     1
 10
0.0
 20
0.0
 30
0.0
  0
VERTEX
  5
8A
100
AcDbEntity
  8
LAYER_1
 62
   250
100
AcDbVertex
100
AcDb2dVertex
 10
46.702403
 20
36.873546
 30
0.0
  0
VERTEX
  5
8B
100
AcDbEntity
  8
LAYER_1
 62
   250
100
AcDbVertex
100
AcDb2dVertex
 10
40.026497
 20
36.695779
 30
0.0
  0
VERTEX
  5
8C
100
AcDbEntity
  8
LAYER_1
 62
   250
100
AcDbVertex
100
AcDb2dVertex
 10
40.026497
 20
36.888015
 30
0.0
  0
VERTEX
  5
8D
100
AcDbEntity
  8
LAYER_1
 62
   250
100
AcDbVertex
100
AcDb2dVertex
 10
47.352665
 20
37.080941
 30
0.0
  0
SEQEND
  5
8E
100
AcDbEntity
  8
LAYER_1
 62
   250
  0
LINE
  5
88
100
AcDbEntity
  8
LAYER_1
 62
   250
100
AcDbLine
 10
40.189795
 20
36.903174
 30
0.0
 11
40.189795
 21
36.710938
 31
0.0
  0
LINE
  5
87
100
AcDbEntity
  8
LAYER_1
 62
   250
100
AcDbLine
 10
40.026497
 20
36.695779
 30
0.0
 11
39.049985
 21
36.695779
 31
0.0
  0
LINE
  5
86
100
AcDbEntity
  8
LAYER_1
 62
   250
100
AcDbLine
 10
39.612225
 20
36.740565
 30
0.0
 11
39.049985
 21
36.740565
 31
0.0
  0
LINE
  5
85
100
AcDbEntity
  8
LAYER_1
 62
   250
100
AcDbLine
 10
38.502043
 20
36.740565
 30
0.0
 11
38.087942
 21
36.888015
 31
0.0
  0
POLYLINE
  5
7F
100
AcDbEntity
  8
LAYER_1
 62
   250
100
AcDb2dPolyline
 66
     1
 10
0.0
 20
0.0
 30
0.0
  0
VERTEX
  5
80
100
AcDbEntity
  8
LAYER_1
 62
   250
100
AcDbVertex
100
AcDb2dVertex
 10
28.378457
 20
36.94796
 30
0.0
  0
VERTEX
  5
81
100
AcDbEntity
  8
LAYER_1
 62
   250
100
AcDbVertex
100
AcDb2dVertex
 10
38.087598
 20
36.695779
 30
0.0
  0
VERTEX
  5
82
100
AcDbEntity
  8
LAYER_1
 62
   250
100
AcDbVertex
100
AcDb2dVertex
 10
38.087598
 20
36.888015
 30
0.0
  0
VERTEX
  5
83
100
AcDbEntity
  8
LAYER_1
 62
   250
100
AcDbVertex
100
AcDb2dVertex
 10
28.378457
 20
37.139507
 30
0.0
  0
SEQEND
  5
84
100
AcDbEntity
  8
LAYER_1
 62
   250
  0
SPLINE
  5
7E
100
AcDbEntity
  8
LAYER_1
 62
   250
100
AcDbSpline
210
0.0
220
0.0
230
1.0
 70
     8
 71
     3
 72
    14
 73
    10
 74
     0
 42
0.00000001
 43
0.00000001
 40
0.0
 40
0.0
 40
0.0
 40
0.0
 40
1.0
 40
1.0
 40
1.0
 40
2.0
 40
2.0
 40
2.0
 40
3.0
 40
3.0
 40
3.0
 40
3.0
 10
26.838844129774301
 20
38.44244249131944
 30
0.0
 10
26.838844129774301
 20
38.44244249131944
 30
0.0
 10
26.92738308376736
 20
38.146164279513883
 30
0.0
 10
26.92738308376736
 20
38.146164279513883
 30
0.0
 10
27.100326877170136
 20
37.681076388888883
 30
0.0
 10
27.585740831163193
 20
37.282823350694443
 30
0.0
 10
28.067365180121524
 20
37.18429361979166
 30
0.0
 10
28.067365180121524
 20
37.18429361979166
 30
0.0
 10
28.378457302517358
 20
37.139507378472217
 30
0.0
 10
28.378457302517358
 20
37.139507378472217
 30
0.0
  0
LINE
  5
7D
100
AcDbEntity
  8
LAYER_1
 62
   250
100
AcDbLine
 10
37.924989
 20
36.903174
 30
0.0
 11
37.924989
 21
36.710938
 31
0.0
  0
LINE
  5
7C
100
AcDbEntity
  8
LAYER_1
 62
   250
100
AcDbLine
 10
38.087942
 20
36.695779
 30
0.0
 11
39.049985
 21
36.695779
 31
0.0
  0
POLYLINE
  5
77
100
AcDbEntity
  8
LAYER_1
 62
   250
100
AcDb2dPolyline
 66
     1
 10
0.0
 20
0.0
 30
0.0
  0
VERTEX
  5
78
100
AcDbEntity
  8
LAYER_1
 62
   250
100
AcDbVertex
100
AcDb2dVertex
 10
39.049985
 20
36.740565
 30
0.0
  0
VERTEX
  5
79
100
AcDbEntity
  8
LAYER_1
 62
   250
100
AcDbVertex
100
AcDb2dVertex
 10
38.502387
 20
36.740565
 30
0.0
  0
VERTEX
  5
7A
100
AcDbEntity
  8
LAYER_1
 62
   250
100
AcDbVertex
100
AcDb2dVertex
 10
39.612225
 20
36.740565
 30
0.0
  0
SEQEND
  5
7B
100
AcDbEntity
  8
LAYER_1
 62
   250
  0
LINE
  5
76
100
AcDbEntity
  8
LAYER_1
 62
   250
100
AcDbLine
 10
46.702403
 20
37.065782
 30
0.0
 11
46.702403
 21
36.873546
 31
0.0
  0
LINE
  5
75
100
AcDbEntity
  8
LAYER_1
 62
   250
100
AcDbLine
 10
28.378457
 20
37.139507
 30
0.0
 11
28.378457
 21
36.94796
 31
0.0
  0
LINE
  5
74
100
AcDbEntity
  8
LAYER_1
 62
   250
100
AcDbLine
 10
38.517201
 20
36.740565
 30
0.0
 11
39.597755
 21
36.740565
 31
0.0
  0
LINE
  5
73
100
AcDbEntity
  8
LAYER_1
 62
   250
100
AcDbLine
 10
23.360848
 20
45.783941
 30
0.0
 11
23.360848
 21
49.543229
 31
0.0
  0
LINE
  5
72
100
AcDbEntity
  8
LAYER_1
 62
   250
100
AcDbLine
 10
54.753936
 20
45.783941
 30
0.0
 11
54.753936
 21
49.543229
 31
0.0
  0
LINE
  5
71
100
AcDbEntity
  8
LAYER_1
 62
   250
100
AcDbLine
 10
54.67556
 20
49.306207
 30
0.0
 11
23.604933
 21
49.306207
 31
0.0
  0
LINE
  5
70
100
AcDbEntity
  8
LAYER_1
 62
   250
100
AcDbLine
 10
49.676727
 20
46.686556
 30
0.0
 11
63.763033
 21
46.686556
 31
0.0
  0
LINE
  5
6F
100
AcDbEntity
  8
LAYER_1
 62
   250
100
AcDbLine
 10
45.932252
 20
36.414659
 30
0.0
 11
63.763033
 21
36.414659
 31
0.0
  0
LINE
  5
6E
100
AcDbEntity
  8
LAYER_1
 62
   250
100
AcDbLine
 10
63.540824
 20
36.42086
 30
0.0
 11
63.540824
 21
46.672776
 31
0.0
  0
LINE
  5
6D
100
AcDbEntity
  8
LAYER_1
 62
   250
100
AcDbLine
 10
39.68595
 20
36.740565
 30
0.0
 11
59.946384
 21
36.740565
 31
0.0
  0
LINE
  5
6C
100
AcDbEntity
  8
LAYER_1
 62
   250
100
AcDbLine
 10
54.827317
 20
46.685867
 30
0.0
 11
59.946384
 21
46.685867
 31
0.0
  0
LINE
  5
6B
100
AcDbEntity
  8
LAYER_1
 62
   250
100
AcDbLine
 10
59.724864
 20
46.594227
 30
0.0
 11
59.724864
 21
36.834272
 31
0.0
  0
LINE
  5
6A
100
AcDbEntity
  8
LAYER_1
 62
   250
100
AcDbLine
 10
50.609486
 20
44.984679
 30
0.0
 11
49.898935
 21
45.132129
 31
0.0
  0
LINE
  5
69
100
AcDbEntity
  8
LAYER_1
 62
   250
100
AcDbLine
 10
50.328194
 20
45.058404
 30
0.0
 11
56.574497
 21
45.058404
 31
0.0
  0
LINE
  5
68
100
AcDbEntity
  8
LAYER_1
 62
   250
100
AcDbLine
 10
50.328194
 20
46.685867
 30
0.0
 11
56.574497
 21
46.685867
 31
0.0
  0
LINE
  5
67
100
AcDbEntity
  8
LAYER_1
 62
   250
100
AcDbLine
 10
56.352633
 20
46.554264
 30
0.0
 11
56.352633
 21
45.052203
 31
0.0
  0
POLYLINE
  5
62
100
AcDbEntity
  8
LAYER_1
 62
   250
100
AcDb2dPolyline
 66
     1
 10
0.0
 20
0.0
 30
0.0
  0
VERTEX
  5
63
100
AcDbEntity
  8
LAYER_1
 62
   250
100
AcDbVertex
100
AcDb2dVertex
 10
56.352288
 20
45.058404
 30
0.0
  0
VERTEX
  5
64
100
AcDbEntity
  8
LAYER_1
 62
   250
100
AcDbVertex
100
AcDb2dVertex
 10
56.352288
 20
43.060248
 30
0.0
  0
VERTEX
  5
65
100
AcDbEntity
  8
LAYER_1
 62
   250
100
AcDbVertex
100
AcDb2dVertex
 10
55.804173
 20
43.060248
 30
0.0
  0
SEQEND
  5
66
100
AcDbEntity
  8
LAYER_1
 62
   250
  0
LINE
  5
61
100
AcDbEntity
  8
LAYER_1
 62
   250
100
AcDbLine
 10
39.049985
 20
36.666151
 30
0.0
 11
39.049985
 21
34.535015
 31
0.0
  0
LINE
  5
60
100
AcDbEntity
  8
LAYER_1
 62
   250
100
AcDbLine
 10
50.25378
 20
44.984679
 30
0.0
 11
50.25378
 21
34.535015
 31
0.0
  0
LINE
  5
5F
100
AcDbEntity
  8
LAYER_1
 62
   250
100
AcDbLine
 10
50.285647
 20
34.756879
 30
0.0
 11
39.147654
 21
34.756879
 31
0.0
  0
LINE
  5
5E
100
AcDbEntity
  8
LAYER_1
 62
   250
100
AcDbLine
 10
23.286434
 20
45.709527
 30
0.0
 11
21.999174
 21
45.709527
 31
0.0
  0
LINE
  5
5D
100
AcDbEntity
  8
LAYER_1
 62
   250
100
AcDbLine
 10
23.286434
 20
46.686556
 30
0.0
 11
21.999174
 21
46.686556
 31
0.0
  0
LINE
  5
5C
100
AcDbEntity
  8
LAYER_1
 62
   250
100
AcDbLine
 10
22.220694
 20
45.693679
 30
0.0
 11
22.220694
 21
44.629145
 31
0.0
  0
LINE
  5
5B
100
AcDbEntity
  8
LAYER_1
 62
   250
100
AcDbLine
 10
22.220694
 20
46.642459
 30
0.0
 11
22.220694
 21
47.766938
 31
0.0
  0
LINE
  5
5A
100
AcDbEntity
  8
LAYER_1
 62
   250
100
AcDbLine
 10
31.960151
 20
36.858388
 30
0.0
 11
31.960151
 21
36.414659
 31
0.0
  0
LINE
  5
59
100
AcDbEntity
  8
LAYER_1
 62
   250
100
AcDbLine
 10
30.391082
 20
36.903174
 30
0.0
 11
30.391082
 21
36.414659
 31
0.0
  0
LINE
  5
58
100
AcDbEntity
  8
LAYER_1
 62
   250
100
AcDbLine
 10
33.721284
 20
36.81429
 30
0.0
 11
33.721284
 21
36.414659
 31
0.0
  0
LINE
  5
57
100
AcDbEntity
  8
LAYER_1
 62
   250
100
AcDbLine
 10
35.290008
 20
36.770193
 30
0.0
 11
35.290008
 21
36.414659
 31
0.0
  0
LINE
  5
56
100
AcDbEntity
  8
LAYER_1
 62
   250
100
AcDbLine
 10
42.82357
 20
36.770193
 30
0.0
 11
42.82357
 21
36.414659
 31
0.0
  0
LINE
  5
55
100
AcDbEntity
  8
LAYER_1
 62
   250
100
AcDbLine
 10
35.290008
 20
36.414659
 30
0.0
 11
33.721284
 21
36.414659
 31
0.0
  0
LINE
  5
54
100
AcDbEntity
  8
LAYER_1
 62
   250
100
AcDbLine
 10
31.960151
 20
36.414659
 30
0.0
 11
30.391082
 21
36.414659
 31
0.0
  0
POLYLINE
  5
4F
100
AcDbEntity
  8
LAYER_1
 62
   250
100
AcDb2dPolyline
 66
     1
 10
0.0
 20
0.0
 30
0.0
  0
VERTEX
  5
50
100
AcDbEntity
  8
LAYER_1
 62
   250
100
AcDbVertex
100
AcDb2dVertex
 10
42.823915
 20
36.414659
 30
0.0
  0
VERTEX
  5
51
100
AcDbEntity
  8
LAYER_1
 62
   250
100
AcDbVertex
100
AcDb2dVertex
 10
44.393156
 20
36.414659
 30
0.0
  0
VERTEX
  5
52
100
AcDbEntity
  8
LAYER_1
 62
   250
100
AcDbVertex
100
AcDb2dVertex
 10
44.393156
 20
36.81429
 30
0.0
  0
SEQEND
  5
53
100
AcDbEntity
  8
LAYER_1
 62
   250
  0
POLYLINE
  5
4A
100
AcDbEntity
  8
LAYER_1
 62
   250
100
AcDb2dPolyline
 66
     1
 10
0.0
 20
0.0
 30
0.0
  0
VERTEX
  5
4B
100
AcDbEntity
  8
LAYER_1
 62
   250
100
AcDbVertex
100
AcDb2dVertex
 10
45.843369
 20
36.858388
 30
0.0
  0
VERTEX
  5
4C
100
AcDbEntity
  8
LAYER_1
 62
   250
100
AcDbVertex
100
AcDb2dVertex
 10
45.843369
 20
36.414659
 30
0.0
  0
VERTEX
  5
4D
100
AcDbEntity
  8
LAYER_1
 62
   250
100
AcDbVertex
100
AcDb2dVertex
 10
44.392811
 20
36.414659
 30
0.0
  0
SEQEND
  5
4E
100
AcDbEntity
  8
LAYER_1
 62
   250
  0
POLYLINE
  5
45
100
AcDbEntity
  8
LAYER_1
 62
   250
100
AcDb2dPolyline
 66
     1
 10
0.0
 20
0.0
 30
0.0
  0
VERTEX
  5
46
100
AcDbEntity
  8
LAYER_1
 62
   250
100
AcDbVertex
100
AcDb2dVertex
 10
39.049985
 20
36.740565
 30
0.0
  0
VERTEX
  5
47
100
AcDbEntity
  8
LAYER_1
 62
   250
100
AcDbVertex
100
AcDb2dVertex
 10
34.283868
 20
33.336122
 30
0.0
  0
VERTEX
  5
48
100
AcDbEntity
  8
LAYER_1
 62
   250
100
AcDbVertex
100
AcDb2dVertex
 10
32.552535
 20
33.336122
 30
0.0
  0
SEQEND
  5
49
100
AcDbEntity
  8
LAYER_1
 62
   250
  0
MTEXT
  5
44
100
AcDbEntity
  8
LAYER_1
 62
     2
100
AcDbMText
 10
52.998832
 20
44.216049
 30
0.0
 40
1.469304
 41
0.0
 71
     1
 72
     2
  1
\fWLDBAA+HelveticaNeue Light|b0|i0;76
  7
STD
210
0.0
220
0.0
230
1.0
 11
1.000001
 21
0.0
 31
0.0
 73
     1
 44
1.0
  0
MTEXT
  5
43
100
AcDbEntity
  8
LAYER_1
 62
   250
100
AcDbMText
 10
56.193641
 20
42.419087
 30
0.0
 40
1.469304
 41
0.0
 71
     1
 72
     2
  1
\fWLDBAA+HelveticaNeue Light|b0|i0;470
  7
STD
210
0.0
220
0.0
230
1.0
 11
1.000001
 21
0.0
 31
0.0
 73
     1
 44
1.0
  0
MTEXT
  5
42
100
AcDbEntity
  8
LAYER_1
 62
   250
100
AcDbMText
 10
60.02855
 20
42.46594
 30
0.0
 40
1.469304
 41
0.0
 71
     1
 72
     2
  1
\fWLDBAA+HelveticaNeue Light|b0|i0;485
  7
STD
210
0.0
220
0.0
230
1.0
 11
1.000001
 21
0.0
 31
0.0
 73
     1
 44
1.0
  0
MTEXT
  5
41
100
AcDbEntity
  8
LAYER_1
 62
   250
100
AcDbMText
 10
42.914004
 20
34.451959
 30
0.0
 40
1.469304
 41
0.0
 71
     1
 72
     2
  1
\fWLDBAA+HelveticaNeue Light|b0|i0;509
  7
STD
210
0.0
220
0.0
230
1.0
 11
1.000001
 21
0.0
 31
0.0
 73
     1
 44
1.0
  0
MTEXT
  5
40
100
AcDbEntity
  8
LAYER_1
 62
     2
100
AcDbMText
 10
20.651797
 20
49.494624
 30
0.0
 40
1.469304
 41
0.0
 71
     1
 72
     2
  1
\fWLDBAA+HelveticaNeue Light|b0|i0;46
  7
STD
210
0.0
220
0.0
230
1.0
 11
1.000001
 21
0.0
 31
0.0
 73
     1
 44
1.0
  0
LINE
  5
3F
100
AcDbEntity
  8
LAYER_1
 62
   250
100
AcDbLine
 10
39.030176
 20
97.937863
 30
0.0
 11
57.630763
 21
97.937863
 31
0.0
  0
HATCH
  5
3E
100
AcDbEntity
  8
LAYER_1
 62
     2
100
AcDbHatch
 10
0.0
 20
0.0
 30
0.0
210
0.0
220
0.0
230
1.0
  2
SOLID
 70
     1
 71
     0
 91
        1
 92
        1
 93
        1
 72
     4
 94
        3
 73
     0
 74
     0
 95
       17
 96
       13
 40
0.0
 40
0.0
 40
0.0
 40
0.0
 40
1.0
 40
1.0
 40
1.0
 40
2.0
 40
2.0
 40
2.0
 40
3.0
 40
3.0
 40
3.0
 40
4.0
 40
4.0
 40
4.0
 40
4.0
 10
39.179003906249996
 20
97.844156901041657
 10
39.179003906249996
 20
97.720133463541657
 10
39.078579372829857
 20
97.620225694444429
 10
38.955417209201386
 20
97.620225694444429
 10
38.831566026475691
 20
97.620225694444429
 10
38.731141493055553
 20
97.720133463541657
 10
38.731141493055553
 20
97.844156901041657
 10
38.731141493055553
 20
97.967491319444434
 10
38.831566026475691
 20
98.067399088541663
 10
38.955417209201386
 20
98.067399088541663
 10
39.078579372829857
 20
98.067399088541663
 10
39.179003906249996
 20
97.967491319444434
 10
39.179003906249996
 20
97.844156901041657
 97
        0
 75
     0
 76
     1
 98
        1
 10
0.0
 20
0.0
  0
HATCH
  5
3D
100
AcDbEntity
  8
LAYER_1
 62
     2
100
AcDbHatch
 10
0.0
 20
0.0
 30
0.0
210
0.0
220
0.0
230
1.0
  2
SOLID
 70
     1
 71
     0
 91
        1
 92
        1
 93
        1
 72
     4
 94
        3
 73
     0
 74
     0
 95
       17
 96
       13
 40
0.0
 40
0.0
 40
0.0
 40
0.0
 40
1.0
 40
1.0
 40
1.0
 40
2.0
 40
2.0
 40
2.0
 40
3.0
 40
3.0
 40
3.0
 40
4.0
 40
4.0
 40
4.0
 40
4.0
 10
57.927902560763883
 20
97.844156901041657
 10
57.927902560763883
 20
97.720133463541657
 10
57.82765028211805
 20
97.620225694444429
 10
57.704143608940967
 20
97.620225694444429
 10
57.580292426215273
 20
97.620225694444429
 10
57.479867892795134
 20
97.720133463541657
 10
57.479867892795134
 20
97.844156901041657
 10
57.479867892795134
 20
97.967491319444434
 10
57.580292426215273
 20
98.067399088541663
 10
57.704143608940967
 20
98.067399088541663
 10
57.82765028211805
 20
98.067399088541663
 10
57.927902560763883
 20
97.967491319444434
 10
57.927902560763883
 20
97.844156901041657
 97
        0
 75
     0
 76
     1
 98
        1
 10
0.0
 20
0.0
  0
HATCH
  5
3C
100
AcDbEntity
  8
LAYER_1
 62
     2
100
AcDbHatch
 10
0.0
 20
0.0
 30
0.0
210
0.0
220
0.0
230
1.0
  2
SOLID
 70
     1
 71
     0
 91
        1
 92
        1
 93
        1
 72
     4
 94
        3
 73
     0
 74
     0
 95
       17
 96
       13
 40
0.0
 40
0.0
 40
0.0
 40
0.0
 40
1.0
 40
1.0
 40
1.0
 40
2.0
 40
2.0
 40
2.0
 40
3.0
 40
3.0
 40
3.0
 40
4.0
 40
4.0
 40
4.0
 40
4.0
 10
60.359106445312491
 20
95.766075303819434
 10
60.359106445312491
 20
95.642051866319434
 10
60.259026421440964
 20
95.541455078124997
 10
60.135519748263881
 20
95.541455078124997
 10
60.011668565538187
 20
95.541455078124997
 10
59.911416286892354
 20
95.642051866319434
 10
59.911416286892354
 20
95.766075303819434
 10
59.911416286892354
 20
95.889409722222211
 10
60.011668565538187
 20
95.990006510416663
 10
60.135519748263881
 20
95.990006510416663
 10
60.259026421440964
 20
95.990006510416663
 10
60.359106445312491
 20
95.889409722222211
 10
60.359106445312491
 20
95.766075303819434
 97
        0
 75
     0
 76
     1
 98
        1
 10
0.0
 20
0.0
  0
HATCH
  5
3B
100
AcDbEntity
  8
LAYER_1
 62
     2
100
AcDbHatch
 10
0.0
 20
0.0
 30
0.0
210
0.0
220
0.0
230
1.0
  2
SOLID
 70
     1
 71
     0
 91
        1
 92
        1
 93
        1
 72
     4
 94
        3
 73
     0
 74
     0
 95
       17
 96
       13
 40
0.0
 40
0.0
 40
0.0
 40
0.0
 40
1.0
 40
1.0
 40
1.0
 40
2.0
 40
2.0
 40
2.0
 40
3.0
 40
3.0
 40
3.0
 40
4.0
 40
4.0
 40
4.0
 40
4.0
 10
60.359106445312491
 20
77.066786024305543
 10
60.359106445312491
 20
76.943451605902766
 10
60.259026421440964
 20
76.842854817708329
 10
60.135519748263881
 20
76.842854817708329
 10
60.011668565538187
 20
76.842854817708329
 10
59.911416286892354
 20
76.943451605902766
 10
59.911416286892354
 20
77.066786024305543
 10
59.911416286892354
 20
77.191498480902766
 10
60.011668565538187
 20
77.291406249999994
 10
60.135519748263881
 20
77.291406249999994
 10
60.259026421440964
 20
77.291406249999994
 10
60.359106445312491
 20
77.191498480902766
 10
60.359106445312491
 20
77.066786024305543
 97
        0
 75
     0
 76
     1
 98
        1
 10
0.0
 20
0.0
  0
LINE
  5
3A
100
AcDbEntity
  8
LAYER_1
 62
   250
100
AcDbLine
 10
60.105892
 20
95.766075
 30
0.0
 11
60.105892
 21
77.159804
 31
0.0
  0
HATCH
  5
39
100
AcDbEntity
  8
LAYER_1
 62
     2
100
AcDbHatch
 10
0.0
 20
0.0
 30
0.0
210
0.0
220
0.0
230
1.0
  2
SOLID
 70
     1
 71
     0
 91
        1
 92
        1
 93
        1
 72
     4
 94
        3
 73
     0
 74
     0
 95
       17
 96
       13
 40
0.0
 40
0.0
 40
0.0
 40
0.0
 40
1.0
 40
1.0
 40
1.0
 40
2.0
 40
2.0
 40
2.0
 40
3.0
 40
3.0
 40
3.0
 40
4.0
 40
4.0
 40
4.0
 40
4.0
 10
22.432050238715277
 20
46.67690972222222
 10
22.432050238715277
 20
46.553575303819443
 10
22.331797960069441
 20
46.453667534722221
 10
22.208291286892358
 20
46.453667534722221
 10
22.084612358940969
 20
46.453667534722221
 10
21.984015570746525
 20
46.553575303819443
 10
21.984015570746525
 20
46.67690972222222
 10
21.984015570746525
 20
46.80093315972222
 10
22.084612358940969
 20
46.901529947916664
 10
22.208291286892358
 20
46.901529947916664
 10
22.331797960069441
 20
46.901529947916664
 10
22.432050238715277
 20
46.80093315972222
 10
22.432050238715277
 20
46.67690972222222
 97
        0
 75
     0
 76
     1
 98
        1
 10
0.0
 20
0.0
  0
HATCH
  5
38
100
AcDbEntity
  8
LAYER_1
 62
     2
100
AcDbHatch
 10
0.0
 20
0.0
 30
0.0
210
0.0
220
0.0
230
1.0
  2
SOLID
 70
     1
 71
     0
 91
        1
 92
        1
 93
        1
 72
     4
 94
        3
 73
     0
 74
     0
 95
       17
 96
       13
 40
0.0
 40
0.0
 40
0.0
 40
0.0
 40
1.0
 40
1.0
 40
1.0
 40
2.0
 40
2.0
 40
2.0
 40
3.0
 40
3.0
 40
3.0
 40
4.0
 40
4.0
 40
4.0
 40
4.0
 10
23.598387315538194
 20
49.286914062499996
 10
23.598387315538194
 20
49.163579644097219
 10
23.498135036892361
 20
49.062982855902774
 10
23.374628363715274
 20
49.062982855902774
 10
23.25077718098958
 20
49.062982855902774
 10
23.150697157118053
 20
49.163579644097219
 10
23.150697157118053
 20
49.286914062499996
 10
23.150697157118053
 20
49.410937499999996
 10
23.25077718098958
 20
49.51153428819444
 10
23.374628363715274
 20
49.51153428819444
 10
23.498135036892361
 20
49.51153428819444
 10
23.598387315538194
 20
49.410937499999996
 10
23.598387315538194
 20
49.286914062499996
 97
        0
 75
     0
 76
     1
 98
        1
 10
0.0
 20
0.0
  0
HATCH
  5
37
100
AcDbEntity
  8
LAYER_1
 62
     2
100
AcDbHatch
 10
0.0
 20
0.0
 30
0.0
210
0.0
220
0.0
230
1.0
  2
SOLID
 70
     1
 71
     0
 91
        1
 92
        1
 93
        1
 72
     4
 94
        3
 73
     0
 74
     0
 95
       17
 96
       13
 40
0.0
 40
0.0
 40
0.0
 40
0.0
 40
1.0
 40
1.0
 40
1.0
 40
2.0
 40
2.0
 40
2.0
 40
3.0
 40
3.0
 40
3.0
 40
4.0
 40
4.0
 40
4.0
 40
4.0
 10
54.997676595052077
 20
49.286914062499996
 10
54.997676595052077
 20
49.163579644097219
 10
54.897424316406244
 20
49.062982855902774
 10
54.773917643229161
 20
49.062982855902774
 10
54.650238715277773
 20
49.062982855902774
 10
54.54998643663194
 20
49.163579644097219
 10
54.54998643663194
 20
49.286914062499996
 10
54.54998643663194
 20
49.410937499999996
 10
54.650238715277773
 20
49.51153428819444
 10
54.773917643229161
 20
49.51153428819444
 10
54.897424316406244
 20
49.51153428819444
 10
54.997676595052077
 20
49.410937499999996
 10
54.997676595052077
 20
49.286914062499996
 97
        0
 75
     0
 76
     1
 98
        1
 10
0.0
 20
0.0
  0
HATCH
  5
36
100
AcDbEntity
  8
LAYER_1
 62
     2
100
AcDbHatch
 10
0.0
 20
0.0
 30
0.0
210
0.0
220
0.0
230
1.0
  2
SOLID
 70
     1
 71
     0
 91
        1
 92
        1
 93
        1
 72
     4
 94
        3
 73
     0
 74
     0
 95
       17
 96
       13
 40
0.0
 40
0.0
 40
0.0
 40
0.0
 40
1.0
 40
1.0
 40
1.0
 40
2.0
 40
2.0
 40
2.0
 40
3.0
 40
3.0
 40
3.0
 40
4.0
 40
4.0
 40
4.0
 40
4.0
 10
22.432050238715277
 20
45.670941840277777
 10
22.432050238715277
 20
45.547607421874993
 10
22.331797960069441
 20
45.447699652777771
 10
22.208291286892358
 20
45.447699652777771
 10
22.084612358940969
 20
45.447699652777771
 10
21.984015570746525
 20
45.547607421874993
 10
21.984015570746525
 20
45.670941840277777
 10
21.984015570746525
 20
45.795654296874993
 10
22.084612358940969
 20
45.895562065972221
 10
22.208291286892358
 20
45.895562065972221
 10
22.331797960069441
 20
45.895562065972221
 10
22.432050238715277
 20
45.795654296874993
 10
22.432050238715277
 20
45.670941840277777
 97
        0
 75
     0
 76
     1
 98
        1
 10
0.0
 20
0.0
  0
MTEXT
  5
35
100
AcDbEntity
  8
LAYER_1
 62
   250
100
AcDbMText
 10
35.519623
 20
51.414231
 30
0.0
 40
1.469304
 41
0.0
 71
     1
 72
     2
  1
\fWLDBAA+HelveticaNeue Light|b0|i0;ﾘ1450
  7
STD
210
0.0
220
0.0
230
1.0
 11
1.000001
 21
0.0
 31
0.0
 73
     1
 44
1.0
  0
MTEXT
  5
34
100
AcDbEntity
  8
LAYER_1
 62
   250
100
AcDbMText
 10
28.558464
 20
34.085401
 30
0.0
 40
1.469304
 41
0.0
 71
     1
 72
     2
  1
\fWLDBAA+HelveticaNeue Light|b0|i0;ﾘ50
  7
STD
210
0.0
220
0.0
230
1.0
 11
1.000001
 21
0.0
 31
0.0
 73
     1
 44
1.0
  0
HATCH
  5
33
100
AcDbEntity
  8
LAYER_1
 62
   250
100
AcDbHatch
 10
0.0
 20
0.0
 30
0.0
210
0.0
220
0.0
230
1.0
  2
SOLID
 70
     1
 71
     0
 91
        1
 92
        1
 93
        1
 72
     4
 94
        3
 73
     0
 74
     0
 95
       17
 96
       13
 40
0.0
 40
0.0
 40
0.0
 40
0.0
 40
1.0
 40
1.0
 40
1.0
 40
2.0
 40
2.0
 40
2.0
 40
3.0
 40
3.0
 40
3.0
 40
4.0
 40
4.0
 40
4.0
 40
4.0
 10
56.566056315104163
 20
46.705159505208329
 10
56.566056315104163
 20
46.581136067708329
 10
56.465976291232636
 20
46.480539279513884
 10
56.342469618055553
 20
46.480539279513884
 10
56.218618435329859
 20
46.480539279513884
 10
56.118021647135414
 20
46.581136067708329
 10
56.118021647135414
 20
46.705159505208329
 10
56.118021647135414
 20
46.828493923611106
 10
56.218618435329859
 20
46.92909071180555
 10
56.342469618055553
 20
46.92909071180555
 10
56.465976291232636
 20
46.92909071180555
 10
56.566056315104163
 20
46.828493923611106
 10
56.566056315104163
 20
46.705159505208329
 97
        0
 75
     0
 76
     1
 98
        1
 10
0.0
 20
0.0
  0
HATCH
  5
32
100
AcDbEntity
  8
LAYER_1
 62
   250
100
AcDbHatch
 10
0.0
 20
0.0
 30
0.0
210
0.0
220
0.0
230
1.0
  2
SOLID
 70
     1
 71
     0
 91
        1
 92
        1
 93
        1
 72
     4
 94
        3
 73
     0
 74
     0
 95
       17
 96
       13
 40
0.0
 40
0.0
 40
0.0
 40
0.0
 40
1.0
 40
1.0
 40
1.0
 40
2.0
 40
2.0
 40
2.0
 40
3.0
 40
3.0
 40
3.0
 40
4.0
 40
4.0
 40
4.0
 40
4.0
 10
59.948795572916659
 20
46.705159505208329
 10
59.948795572916659
 20
46.581136067708329
 10
59.848715549045131
 20
46.480539279513884
 10
59.725208875868049
 20
46.480539279513884
 10
59.601357693142354
 20
46.480539279513884
 10
59.500933159722216
 20
46.581136067708329
 10
59.500933159722216
 20
46.705159505208329
 10
59.500933159722216
 20
46.828493923611106
 10
59.601357693142354
 20
46.92909071180555
 10
59.725208875868049
 20
46.92909071180555
 10
59.848715549045131
 20
46.92909071180555
 10
59.948795572916659
 20
46.828493923611106
 10
59.948795572916659
 20
46.705159505208329
 97
        0
 75
     0
 76
     1
 98
        1
 10
0.0
 20
0.0
  0
HATCH
  5
31
100
AcDbEntity
  8
LAYER_1
 62
   250
100
AcDbHatch
 10
0.0
 20
0.0
 30
0.0
210
0.0
220
0.0
230
1.0
  2
SOLID
 70
     1
 71
     0
 91
        1
 92
        1
 93
        1
 72
     4
 94
        3
 73
     0
 74
     0
 95
       17
 96
       13
 40
0.0
 40
0.0
 40
0.0
 40
0.0
 40
1.0
 40
1.0
 40
1.0
 40
2.0
 40
2.0
 40
2.0
 40
3.0
 40
3.0
 40
3.0
 40
4.0
 40
4.0
 40
4.0
 40
4.0
 10
63.793177625868047
 20
46.705159505208329
 10
63.793177625868047
 20
46.581136067708329
 10
63.692580837673603
 20
46.480539279513884
 10
63.569418674045131
 20
46.480539279513884
 10
63.445567491319437
 20
46.480539279513884
 10
63.345142957899299
 20
46.581136067708329
 10
63.345142957899299
 20
46.705159505208329
 10
63.345142957899299
 20
46.828493923611106
 10
63.445567491319437
 20
46.92909071180555
 10
63.569418674045131
 20
46.92909071180555
 10
63.692580837673603
 20
46.92909071180555
 10
63.793177625868047
 20
46.828493923611106
 10
63.793177625868047
 20
46.705159505208329
 97
        0
 75
     0
 76
     1
 98
        1
 10
0.0
 20
0.0
  0
HATCH
  5
30
100
AcDbEntity
  8
LAYER_1
 62
   250
100
AcDbHatch
 10
0.0
 20
0.0
 30
0.0
210
0.0
220
0.0
230
1.0
  2
SOLID
 70
     1
 71
     0
 91
        1
 92
        1
 93
        1
 72
     4
 94
        3
 73
     0
 74
     0
 95
       17
 96
       13
 40
0.0
 40
0.0
 40
0.0
 40
0.0
 40
1.0
 40
1.0
 40
1.0
 40
2.0
 40
2.0
 40
2.0
 40
3.0
 40
3.0
 40
3.0
 40
4.0
 40
4.0
 40
4.0
 40
4.0
 10
63.793177625868047
 20
36.413281249999997
 10
63.793177625868047
 20
36.28994683159722
 10
63.692580837673603
 20
36.189350043402776
 10
63.569418674045131
 20
36.189350043402776
 10
63.445567491319437
 20
36.189350043402776
 10
63.345142957899299
 20
36.28994683159722
 10
63.345142957899299
 20
36.413281249999997
 10
63.345142957899299
 20
36.537304687499997
 10
63.445567491319437
 20
36.637901475694441
 10
63.569418674045131
 20
36.637901475694441
 10
63.692580837673603
 20
36.637901475694441
 10
63.793177625868047
 20
36.537304687499997
 10
63.793177625868047
 20
36.413281249999997
 97
        0
 75
     0
 76
     1
 98
        1
 10
0.0
 20
0.0
  0
HATCH
  5
2F
100
AcDbEntity
  8
LAYER_1
 62
   250
100
AcDbHatch
 10
0.0
 20
0.0
 30
0.0
210
0.0
220
0.0
230
1.0
  2
SOLID
 70
     1
 71
     0
 91
        1
 92
        1
 93
        1
 72
     4
 94
        3
 73
     0
 74
     0
 95
       17
 96
       13
 40
0.0
 40
0.0
 40
0.0
 40
0.0
 40
1.0
 40
1.0
 40
1.0
 40
2.0
 40
2.0
 40
2.0
 40
3.0
 40
3.0
 40
3.0
 40
4.0
 40
4.0
 40
4.0
 40
4.0
 10
59.948795572916659
 20
36.787418619791666
 10
59.948795572916659
 20
36.664084201388889
 10
59.848715549045131
 20
36.563487413194444
 10
59.725208875868049
 20
36.563487413194444
 10
59.601357693142354
 20
36.563487413194444
 10
59.500933159722216
 20
36.664084201388889
 10
59.500933159722216
 20
36.787418619791666
 10
59.500933159722216
 20
36.911442057291666
 10
59.601357693142354
 20
37.011349826388887
 10
59.725208875868049
 20
37.011349826388887
 10
59.848715549045131
 20
37.011349826388887
 10
59.948795572916659
 20
36.911442057291666
 10
59.948795572916659
 20
36.787418619791666
 97
        0
 75
     0
 76
     1
 98
        1
 10
0.0
 20
0.0
  0
HATCH
  5
2E
100
AcDbEntity
  8
LAYER_1
 62
   250
100
AcDbHatch
 10
0.0
 20
0.0
 30
0.0
210
0.0
220
0.0
230
1.0
  2
SOLID
 70
     1
 71
     0
 91
        1
 92
        1
 93
        1
 72
     4
 94
        3
 73
     0
 74
     0
 95
       17
 96
       13
 40
0.0
 40
0.0
 40
0.0
 40
0.0
 40
1.0
 40
1.0
 40
1.0
 40
2.0
 40
2.0
 40
2.0
 40
3.0
 40
3.0
 40
3.0
 40
4.0
 40
4.0
 40
4.0
 40
4.0
 10
56.566056315104163
 20
45.052202690972216
 10
56.566056315104163
 20
44.928868272569439
 10
56.465976291232636
 20
44.828271484374994
 10
56.342469618055553
 20
44.828271484374994
 10
56.218618435329859
 20
44.828271484374994
 10
56.118021647135414
 20
44.928868272569439
 10
56.118021647135414
 20
45.052202690972216
 10
56.118021647135414
 20
45.176226128472216
 10
56.218618435329859
 20
45.27682291666666
 10
56.342469618055553
 20
45.27682291666666
 10
56.465976291232636
 20
45.27682291666666
 10
56.566056315104163
 20
45.176226128472216
 10
56.566056315104163
 20
45.052202690972216
 97
        0
 75
     0
 76
     1
 98
        1
 10
0.0
 20
0.0
  0
HATCH
  5
2D
100
AcDbEntity
  8
LAYER_1
 62
   250
100
AcDbHatch
 10
0.0
 20
0.0
 30
0.0
210
0.0
220
0.0
230
1.0
  2
SOLID
 70
     1
 71
     0
 91
        1
 92
        1
 93
        1
 72
     4
 94
        3
 73
     0
 74
     0
 95
       17
 96
       13
 40
0.0
 40
0.0
 40
0.0
 40
0.0
 40
1.0
 40
1.0
 40
1.0
 40
2.0
 40
2.0
 40
2.0
 40
3.0
 40
3.0
 40
3.0
 40
4.0
 40
4.0
 40
4.0
 40
4.0
 10
39.29510362413194
 20
34.73483072916666
 10
39.29510362413194
 20
34.611496310763883
 10
39.194679090711801
 20
34.510899522569439
 10
39.07151692708333
 20
34.510899522569439
 10
38.947665744357636
 20
34.510899522569439
 10
38.847068956163191
 20
34.611496310763883
 10
38.847068956163191
 20
34.73483072916666
 10
38.847068956163191
 20
34.85885416666666
 10
38.947665744357636
 20
34.958761935763889
 10
39.07151692708333
 20
34.958761935763889
 10
39.194679090711801
 20
34.958761935763889
 10
39.29510362413194
 20
34.85885416666666
 10
39.29510362413194
 20
34.73483072916666
 97
        0
 75
     0
 76
     1
 98
        1
 10
0.0
 20
0.0
  0
HATCH
  5
2C
100
AcDbEntity
  8
LAYER_1
 62
   250
100
AcDbHatch
 10
0.0
 20
0.0
 30
0.0
210
0.0
220
0.0
230
1.0
  2
SOLID
 70
     1
 71
     0
 91
        1
 92
        1
 93
        1
 72
     4
 94
        3
 73
     0
 74
     0
 95
       17
 96
       13
 40
0.0
 40
0.0
 40
0.0
 40
0.0
 40
1.0
 40
1.0
 40
1.0
 40
2.0
 40
2.0
 40
2.0
 40
3.0
 40
3.0
 40
3.0
 40
4.0
 40
4.0
 40
4.0
 40
4.0
 10
50.508889431423604
 20
34.73483072916666
 10
50.508889431423604
 20
34.611496310763883
 10
50.408637152777771
 20
34.510899522569439
 10
50.285302734374994
 20
34.510899522569439
 10
50.1614515516493
 20
34.510899522569439
 10
50.061199273003467
 20
34.611496310763883
 10
50.061199273003467
 20
34.73483072916666
 10
50.061199273003467
 20
34.85885416666666
 10
50.1614515516493
 20
34.958761935763889
 10
50.285302734374994
 20
34.958761935763889
 10
50.408637152777771
 20
34.958761935763889
 10
50.508889431423604
 20
34.85885416666666
 10
50.508889431423604
 20
34.73483072916666
 97
        0
 75
     0
 76
     1
 98
        1
 10
0.0
 20
0.0
  0
LINE
  5
2B
100
AcDbEntity
  8
LAYER_1
 62
     7
100
AcDbLine
 10
45.899868
 20
218.684498
 30
0.0
 11
45.899868
 21
212.119869
 31
0.0
  0
LINE
  5
2A
100
AcDbEntity
  8
LAYER_1
 62
     7
100
AcDbLine
 10
141.042209
 20
218.684498
 30
0.0
 11
141.042209
 21
212.119869
 31
0.0
  0
MTEXT
  5
29
100
AcDbEntity
  8
LAYER_1
 62
   250
100
AcDbMText
 10
74.507597
 20
195.063331
 30
0.0
 40
2.887292
 41
0.0
 71
     1
 72
     2
  1
\fArial|b0|i0;345.6
  7
STD
210
0.0
220
0.0
230
1.0
 11
1.000001
 21
0.0
 31
0.0
 73
     1
 44
1.0
  0
ENDSEC
  0
SECTION
  2
OBJECTS
  0
DICTIONARY
  5
19
100
AcDbDictionary
280
     0
281
     1
  3
ACAD_GROUP
350
1A
  3
ACAD_MLINESTYLE
350
1B
  3
ACAD_LAYOUT
350
1E
  3
ACAD_PLOTSETTINGS
350
22
  3
ACAD_PLOTSTYLENAME
350
1F
  3
ACAD_WIPEOUT_VARS
350
23
  0
DICTIONARY
  5
1A
102
{ACAD_REACTORS
330
19
102
}
100
AcDbDictionary
280
     0
281
     1
  0
DICTIONARY
  5
1B
102
{ACAD_REACTORS
330
19
102
}
100
AcDbDictionary
280
     0
281
     1
  3
Standard
350
1C
  0
MLINESTYLE
  5
1C
102
{ACAD_REACTORS
330
1B
102
}
100
AcDbMlineStyle
  2
Standard
 70
     0
  3

 62
     0
 51
90.0
 52
90.0
 71
     2
 49
0.5
 62
   256
  6
BYLAYER
 49
-0.5
 62
   256
  6
BYLAYER
  0
ACDBDICTIONARYWDFLT
  5
1F
102
{ACAD_REACTORS
330
19
102
}
100
AcDbDictionary
281
     1
  3
Normal
350
1D
100
AcDbDictionaryWithDefault
340
1D
  0
ACDBPLACEHOLDER
  5
1D
102
{ACAD_REACTORS
330
1F
102
}
  0
LAYOUT
  5
20
102
{ACAD_REACTORS
330
1E
102
}
100
AcDbPlotSettings
  1

  2

  4

  6

 40
0.0
 41
0.0
 42
0.0
 43
0.0
 44
0.0
 45
0.0
 46
0.0
 47
0.0
 48
0.0
 49
0.0
140
0.0
141
0.0
142
1.0
143
1.0
 70
  1024
 72
     0
 73
     0
 74
     0
  7

 75
     0
147
1.0
148
0.0
149
0.0
100
AcDbLayout
  1
Model
 70
     0
 71
     0
 10
0.0
 20
0.0
 11
0.0
 21
0.0
 12
0.0
 22
0.0
 32
0.0
 14
0.0
 24
0.0
 34
0.0
 15
0.0
 25
0.0
 35
0.0
146
0.0
 13
0.0
 23
0.0
 33
0.0
 16
0.0
 26
0.0
 36
0.0
 17
0.0
 27
0.0
 37
0.0
 76
     0
330
A
331
0
345
0
346
0
  0
LAYOUT
  5
21
102
{ACAD_REACTORS
330
1E
102
}
100
AcDbPlotSettings
  1

  2

  4

  6

 40
0.0
 41
0.0
 42
0.0
 43
0.0
 44
0.0
 45
0.0
 46
0.0
 47
0.0
 48
0.0
 49
0.0
140
0.0
141
0.0
142
1.0
143
1.0
 70
     0
 72
     0
 73
     0
 74
     0
  7

 75
     0
147
1.0
148
0.0
149
0.0
100
AcDbLayout
  1
Layout1
 70
     0
 71
     0
 10
0.0
 20
0.0
 11
0.0
 21
0.0
 12
0.0
 22
0.0
 32
0.0
 14
0.0
 24
0.0
 34
0.0
 15
0.0
 25
0.0
 35
0.0
146
0.0
 13
0.0
 23
0.0
 33
0.0
 16
0.0
 26
0.0
 36
0.0
 17
0.0
 27
0.0
 37
0.0
 76
     0
330
B
331
0
345
0
346
0
  0
DICTIONARY
  5
1E
102
{ACAD_REACTORS
330
19
102
}
100
AcDbDictionary
280
     0
281
     1
  3
Layout1
350
21
  3
Model
350
20
  0
DICTIONARY
  5
22
102
{ACAD_REACTORS
330
19
102
}
100
AcDbDictionary
280
     0
281
     1
  0
WIPEOUTVARIABLES
  5
23
100
AcDbWipeoutVariables
 70
     1
  0
IMAGEDEF_REACTOR
  5
FE
100
AcDbRasterImageDefReactor
 90
        2
330
FD
  0
IMAGEDEF
  5
FF
100
AcDbRasterImageDef
 90
        0
  1
C:\Documents and Settings\ko68414\Desktop\jason\k_18744t_1.bmp
 10
434.0
 20
51.0
 11
0.352778
 21
0.352778
280
     1
281
     0
  0
ENDSEC
  0
EOF
