  0
SECTION
  2
HEADER
  9
$ACADVER
  1
AC1009
  9
$INSBASE
 10
4351.2395780049200766
 20
31.0373248873466387
 30
0.0
  9
$EXTMIN
 10
4345.0764406879061426
 20
31.0366616519124605
 30
-0.0015258207003583
  9
$EXTMAX
 10
4352.3798662010740372
 20
36.0813092329940091
 30
0.0000000349246037
  9
$LIMMIN
 10
0.0
 20
0.0
  9
$LIMMAX
 10
11.6929133858000007
 20
8.2677165353999982
  9
$ORTHOMODE
 70
     0
  9
$REGENMODE
 70
     1
  9
$FILLMODE
 70
     1
  9
$QTEXTMODE
 70
     0
  9
$MIRRTEXT
 70
     0
  9
$DRAGMODE
 70
     2
  9
$LTSCALE
 40
0.6431102362
  9
$OSMODE
 70
  4095
  9
$ATTMODE
 70
     1
  9
$TEXTSIZE
 40
0.2
  9
$TRACEWID
 40
0.05
  9
$TEXTSTYLE
  7
STANDARD
  9
$CLAYER
  8
0
  9
$CELTYPE
  6
BYLAYER
  9
$CECOLOR
 62
   256
  9
$DIMSCALE
 40
1.0
  9
$DIMASZ
 40
0.1875
  9
$DIMEXO
 40
0.0625
  9
$DIMDLI
 40
0.4443307087
  9
$DIMRND
 40
0.0
  9
$DIMDLE
 40
0.0
  9
$DIMEXE
 40
0.125
  9
$DIMTP
 40
0.01
  9
$DIMTM
 40
0.01
  9
$DIMTXT
 40
2.0
  9
$DIMCEN
 40
0.1052362205
  9
$DIMTSZ
 40
0.0
  9
$DIMTOL
 70
     1
  9
$DIMLIM
 70
     0
  9
$DIMTIH
 70
     1
  9
$DIMTOH
 70
     1
  9
$DIMSE1
 70
     0
  9
$DIMSE2
 70
     0
  9
$DIMTAD
 70
     0
  9
$DIMZIN
 70
     0
  9
$DIMBLK
  1

  9
$DIMASO
 70
     1
  9
$DIMSHO
 70
     1
  9
$DIMPOST
  1
\X
  9
$DIMAPOST
  1

  9
$DIMALT
 70
     1
  9
$DIMALTD
 70
     2
  9
$DIMALTF
 40
25.3999999999999986
  9
$DIMLFAC
 40
1.0
  9
$DIMTOFL
 70
     0
  9
$DIMTVP
 40
0.0
  9
$DIMTIX
 70
     0
  9
$DIMSOXD
 70
     0
  9
$DIMSAH
 70
     0
  9
$DIMBLK1
  1

  9
$DIMBLK2
  1

  9
$DIMSTYLE
  2
STANDARD
  9
$DIMCLRD
 70
     0
  9
$DIMCLRE
 70
     0
  9
$DIMCLRT
 70
     0
  9
$DIMTFAC
 40
1.0
  9
$DIMGAP
 40
0.09
  9
$LUNITS
 70
     2
  9
$LUPREC
 70
     4
  9
$SKETCHINC
 40
0.1
  9
$FILLETRAD
 40
0.0
  9
$AUNITS
 70
     0
  9
$AUPREC
 70
     0
  9
$MENU
  1
.
  9
$ELEVATION
 40
0.0
  9
$PELEVATION
 40
0.0
  9
$THICKNESS
 40
0.0
  9
$LIMCHECK
 70
     0
  9
$BLIPMODE
 70
     0
  9
$CHAMFERA
 40
0.0
  9
$CHAMFERB
 40
0.0
  9
$SKPOLY
 70
     0
  9
$TDCREATE
 40
2458060.468368056230247
  9
$TDUPDATE
 40
2459563.3723148149438202
  9
$TDINDWG
 40
0.4477616898
  9
$TDUSRTIMER
 40
0.4477616898
  9
$USRTIMER
 70
     1
  9
$ANGBASE
 50
0.0
  9
$ANGDIR
 70
     0
  9
$PDMODE
 70
     0
  9
$PDSIZE
 40
0.3125
  9
$PLINEWID
 40
0.0
  9
$COORDS
 70
     1
  9
$SPLFRAME
 70
     0
  9
$SPLINETYPE
 70
     6
  9
$SPLINESEGS
 70
     8
  9
$ATTDIA
 70
     1
  9
$ATTREQ
 70
     1
  9
$HANDLING
 70
     1
  9
$HANDSEED
  5
12E55
  9
$SURFTAB1
 70
     6
  9
$SURFTAB2
 70
     6
  9
$SURFTYPE
 70
     6
  9
$SURFU
 70
     6
  9
$SURFV
 70
     6
  9
$UCSNAME
  2

  9
$UCSORG
 10
0.0
 20
0.0
 30
0.0
  9
$UCSXDIR
 10
1.0
 20
0.0
 30
0.0
  9
$UCSYDIR
 10
0.0
 20
1.0
 30
0.0
  9
$PUCSNAME
  2

  9
$PUCSORG
 10
0.0
 20
0.0
 30
0.0
  9
$PUCSXDIR
 10
1.0
 20
0.0
 30
0.0
  9
$PUCSYDIR
 10
0.0
 20
1.0
 30
0.0
  9
$USERI1
 70
     0
  9
$USERI2
 70
     0
  9
$USERI3
 70
     0
  9
$USERI4
 70
     0
  9
$USERI5
 70
     0
  9
$USERR1
 40
0.0
  9
$USERR2
 40
0.0
  9
$USERR3
 40
0.0
  9
$USERR4
 40
0.0
  9
$USERR5
 40
0.0
  9
$WORLDVIEW
 70
     1
  9
$SHADEDGE
 70
     3
  9
$SHADEDIF
 70
    70
  9
$TILEMODE
 70
     1
  9
$MAXACTVP
 70
    64
  9
$PLIMCHECK
 70
     0
  9
$PEXTMIN
 10
1.0000000000000000E+20
 20
1.0000000000000000E+20
 30
1.0000000000000000E+20
  9
$PEXTMAX
 10
-1.0000000000000000E+20
 20
-1.0000000000000000E+20
 30
-1.0000000000000000E+20
  9
$PLIMMIN
 10
0.0
 20
0.0
  9
$PLIMMAX
 10
12.0
 20
9.0
  9
$UNITMODE
 70
     0
  9
$VISRETAIN
 70
     1
  9
$PLINEGEN
 70
     0
  9
$PSLTSCALE
 70
     1
  0
ENDSEC
  0
SECTION
  2
TABLES
  0
TABLE
  2
VPORT
 70
     1
  0
VPORT
  2
*ACTIVE
 70
     0
 10
0.0
 20
0.0
 11
1.0
 21
1.0
 12
556.3702432882400899
 22
-86.621670990652234
 13
0.0
 23
0.0
 14
1.0
 24
1.0
 15
0.0
 25
0.0
 16
0.0
 26
0.0
 36
5.1040778033513332
 17
3792.35791015625
 27
120.1806564331053977
 37
0.0
 40
5.0817405780012734
 41
2.344785276073619
 42
50.0
 43
0.0
 44
0.0
 50
0.0
 51
0.0
 71
     0
 72
   100
 73
     1
 74
     1
 75
     0
 76
     0
 77
     0
 78
     0
  0
ENDTAB
  0
TABLE
  2
LTYPE
 70
     2
  0
LTYPE
  2
CONTINUOUS
 70
     0
  3
Solid line
 72
    65
 73
     0
 40
0.0
  0
LTYPE
  2
PHANTOM2
 70
     0
  3
___ _ _ ___ _ _ ___ _ _ ___ _ _
 72
    65
 73
     6
 40
1.25
 49
0.625
 49
-0.125
 49
0.125
 49
-0.125
 49
0.125
 49
-0.125
  0
ENDTAB
  0
TABLE
  2
LAYER
 70
     2
  0
LAYER
  2
0
 70
     0
 62
   255
  6
CONTINUOUS
  0
LAYER
  2
DEFPOINTS
 70
     0
 62
     7
  6
CONTINUOUS
  0
ENDTAB
  0
TABLE
  2
STYLE
 70
     1
  0
STYLE
  2
STANDARD
 70
     0
 40
0.0
 41
0.8
 50
0.0
 71
     0
 42
0.2
  3
txt
  4

  0
ENDTAB
  0
TABLE
  2
VIEW
 70
     0
  0
ENDTAB
  0
TABLE
  2
UCS
 70
     0
  0
ENDTAB
  0
TABLE
  2
APPID
 70
     9
  0
APPID
  2
ACAD
 70
     0
  0
APPID
  2
ACAD_MLEADERVER
 70
     0
  0
APPID
  2
ACAD_EXEMPT_FROM_CAD_STANDARDS
 70
     0
  0
APPID
  2
ACAD_NAV_VCDISPLAY
 70
     0
  0
APPID
  2
ACAECLAYERSTANDARD
 70
     0
  0
APPID
  2
ACCMTRANSPARENCY
 70
     0
  0
APPID
  2
ACAD_DSTYLE_DIMJAG
 70
     0
  0
APPID
  2
ACAD_DSTYLE_DIMTALN
 70
     0
  0
APPID
  2
ACDBATTR
 70
     0
  0
ENDTAB
  0
TABLE
  2
DIMSTYLE
 70
     1
  0
DIMSTYLE
  2
STANDARD
 70
     0
  3

  4

  5

  6

  7

 40
1.0
 41
0.1875
 42
0.0625
 43
0.38
 44
0.125
 45
0.0
 46
0.0
 47
0.01
 48
0.01
140
0.15625
141
0.09
142
0.0
143
25.3999999999999986
144
1.0
145
0.0
146
1.0
147
0.09
 71
     1
 72
     0
 73
     1
 74
     1
 75
     0
 76
     0
 77
     0
 78
     4
170
     0
171
     2
172
     0
173
     0
174
     0
175
     0
176
     0
177
     0
178
     0
  0
ENDTAB
  0
ENDSEC
  0
SECTION
  2
BLOCKS
  0
BLOCK
  8
0
  2
$MODEL_SPACE
 70
     0
 10
0.0
 20
0.0
 30
0.0
  3
$MODEL_SPACE
  1

  0
ENDBLK
  5
21
  8
0
  0
BLOCK
 67
     1
  8
0
  2
$PAPER_SPACE
 70
     0
 10
0.0
 20
0.0
 30
0.0
  3
$PAPER_SPACE
  1

  0
ENDBLK
  5
1D
 67
     1
  8
0
  0
ENDSEC
  0
SECTION
  2
ENTITIES
  0
ATTDEF
  5
3930
  8
DEFPOINTS
 10
4351.2404774048327454
 20
31.0418193293205
 30
0.0
 40
0.001
  1
K-18655T-B
  3

  2
MODELNUMBER
 70
     0
1001
ACDBATTR
1070
     0
1070
     1
  0
ATTDEF
  5
3931
  8
DEFPOINTS
 10
4351.2404774048327454
 20
31.0401526626538384
 30
0.0
 40
0.001
  1
KUMIN
  3

  2
TRADENAME
 70
     0
1001
ACDBATTR
1070
     0
1070
     1
  0
ATTDEF
  5
3932
  8
DEFPOINTS
 10
4351.2404774048327454
 20
31.0384859959871697
 30
0.0
 40
0.001
  1
BATHROOM SINK FAUCET
  3

  2
PRODUCT
 70
     0
1001
ACDBATTR
1070
     0
1070
     1
  0
LINE
  5
12D1B
  8
0
 10
4346.721202158187225
 20
36.0794878199130267
 30
0.0
 11
4350.6885768411866593
 21
36.0794878199130267
 31
0.0
  0
ARC
  5
12D1C
  8
0
 10
4350.6357775188589585
 20
-22.9765466187097616
 30
0.0
 40
59.056058041357943
 50
89.7219979791371998
 51
89.9487744554278237
  0
ARC
  5
12D1D
  8
0
 10
4350.9226836645812
 20
32.9878358520793427
 30
0.0
 40
3.0909804328783381
 50
84.2252647199988473
 51
90.0067526164710756
  0
ARC
  5
12D1E
  8
0
 10
4351.0674211333998755
 20
34.4673798183250426
 30
0.0
 40
1.604389137195255
 50
75.2473136281378743
 51
84.0515189257886419
  0
ARC
  5
12D1F
  8
0
 10
4346.7517337331983072
 20
30.5208925069701102
 30
0.0
 40
5.5586791623679419
 50
90.3147041113272167
 51
98.4614250809588185
  0
ARC
  5
12D20
  8
0
 10
4346.2474263943968253
 20
34.8482750755714576
 30
0.0
 40
1.212067339831264
 50
104.9956020309993932
 51
119.8707386029031028
  0
ARC
  5
12D21
  8
0
 10
4346.2011432478866482
 20
34.8756160123831407
 30
0.0
 40
1.1624918816922161
 50
133.2858798867794121
 51
144.6895643123982893
  0
ARC
  5
12D22
  8
0
 10
4346.2695762873263448
 20
34.8036491854636125
 30
0.0
 40
1.2617999871500609
 50
119.7336793959675987
 51
133.3073126707259917
  0
ARC
  5
12D23
  8
0
 10
4345.2932791426856056
 20
35.5181260107046199
 30
0.0
 40
0.0502725645106862
 50
144.1855695997329008
 51
157.9576948985360048
  0
ARC
  5
12D24
  8
0
 10
4345.2621694954341365
 20
35.5305333984688474
 30
0.0
 40
0.0167813415900064
 50
157.3612862494537126
 51
211.300936472689898
  0
ARC
  5
12D25
  8
0
 10
4345.3015612803956174
 20
35.554188897423721
 30
0.0
 40
0.0627299895040809
 50
211.0699568412534859
 51
222.4018732407745915
  0
ARC
  5
12D26
  8
0
 10
4346.4194712761445771
 20
36.4957826383610495
 30
0.0
 40
1.5242978077573781
 50
220.2012056537415106
 51
226.0645555944066132
  0
ARC
  5
12D27
  8
0
 10
4346.231639360707959
 20
36.2907285794323329
 30
0.0
 40
1.246326908618818
 50
225.7420928598735088
 51
229.5654547616045988
  0
ARC
  5
12D28
  8
0
 10
4345.8358967850672343
 20
36.4342508959955822
 30
0.0
 40
1.167498604225967
 50
249.3043323878079889
 51
255.6692174090638048
  0
ARC
  5
12D29
  8
0
 10
4345.5647517650540976
 20
35.2305850124303319
 30
0.0
 40
0.0393700786641465
 50
161.9940999965689059
 51
251.9941000354060066
  0
LINE
  5
12D2A
  8
0
 10
4345.5273098481793568
 20
35.2427548914592208
 30
0.0
 11
4345.5469180114632763
 21
35.3030814748759809
 31
0.0
  0
LINE
  5
12D2B
  8
0
 10
4345.5525818860860454
 20
35.1931430955466311
 30
0.0
 11
4346.3036265779101086
 21
34.9490989659105509
 31
0.0
  0
ARC
  5
12D2C
  8
0
 10
4346.3135901039695455
 20
34.9871874321068788
 30
0.0
 40
0.039370078850654
 50
255.3405354623506014
 51
341.9940997618016922
  0
LINE
  5
12D2D
  8
0
 10
4345.5900238030726541
 20
35.1809732165068567
 30
0.0
 11
4345.5717732800849262
 21
35.1248089448466274
 31
0.0
  0
LINE
  5
12D2E
  8
0
 10
4345.5717732800849262
 20
35.1248089448466274
 30
0.0
 11
4346.2457191939856784
 21
34.9057539148466276
 31
0.0
  0
LINE
  5
12D2F
  8
0
 10
4346.2457191939856784
 20
34.9057539148466276
 30
0.0
 11
4346.2639740125177923
 21
34.9619167902401031
 31
0.0
  0
LINE
  5
12D30
  8
0
 10
4346.3510320209861675
 20
34.9750175529466318
 30
0.0
 11
4346.3659860414682043
 21
35.0210251747908572
 31
0.0
  0
ARC
  5
12D31
  8
0
 10
4349.9122483344790453
 20
41.8636141164723981
 30
0.0
 40
7.7069448989635561
 50
242.6039530791665868
 51
243.5726723333027905
  0
ARC
  5
12D32
  8
0
 10
4345.3039808224420995
 20
32.9643887963330116
 30
0.0
 40
2.3146507897380779
 50
62.6890891366447107
 51
66.0241682149116684
  0
ARC
  5
12D33
  8
0
 10
4345.3707165758487463
 20
33.1043626228084094
 30
0.0
 40
2.1596400653556742
 50
66.1329170250299825
 51
69.0930383301691933
  0
LINE
  5
12D34
  8
0
 10
4346.1413873862247783
 20
35.1218144100661718
 30
0.0
 11
4345.7509881644291454
 21
35.2477054928740188
 31
0.0
  0
LINE
  5
12D35
  8
0
 10
4345.5469180114632763
 20
35.3030814748759809
 30
0.0
 11
4345.7509881644291454
 21
35.2477054928740188
 31
0.0
  0
ARC
  5
12D36
  8
0
 10
4346.9260178933445786
 20
40.7932110606359828
 30
0.0
 40
5.8480300375687477
 50
265.6473092343118765
 51
268.9130856555423748
  0
ARC
  5
12D37
  8
0
 10
4347.1327001300605843
 20
33.4977618559337529
 30
0.0
 40
1.4828850602101999
 50
89.4303699185125538
 51
102.3678101900682975
  0
ARC
  5
12D38
  8
0
 10
4347.3898822013934478
 20
33.5975625408229917
 30
0.0
 40
1.377827645638326
 50
74.419061047549917
 51
88.6213129322225939
  0
LINE
  5
12D39
  8
0
 10
4346.8206709529849832
 20
34.9474466128547832
 30
0.0
 11
4346.8206709529849832
 21
34.9417969230511716
 31
0.0
  0
LINE
  5
12D3A
  8
0
 10
4346.8206709529849832
 20
34.9417969230511716
 30
0.0
 11
4347.749804811285685
 21
34.9207119258466321
 31
0.0
  0
LINE
  5
12D3B
  8
0
 10
4347.749804811285685
 20
34.9275492836038097
 30
0.0
 11
4347.749804811285685
 21
34.9207119258466321
 31
0.0
  0
LINE
  5
12D3C
  8
0
 10
4347.1474426124859747
 20
34.980573631246628
 30
0.0
 11
4347.4230331570870476
 21
34.9749913176466265
 31
0.0
  0
LINE
  5
12D3D
  8
0
 10
4347.1474426155873516
 20
34.974601408446631
 30
0.0
 11
4347.423033125087386
 21
34.9689904736466275
 31
0.0
  0
ARC
  5
12D3E
  8
0
 10
4347.1303200247493805
 20
33.5012434530143679
 30
0.0
 40
1.4734574468037931
 50
89.3341690420452892
 51
102.1312218839131987
  0
ARC
  5
12D3F
  8
0
 10
4347.3857345193855508
 20
33.5865254166561726
 30
0.0
 40
1.382968119209586
 50
74.7368376262172518
 51
88.4545455472194391
  0
LINE
  5
12D40
  8
0
 10
4347.759965856486815
 20
34.9247577447466284
 30
0.0
 11
4349.5062840433893143
 21
34.8850665358396412
 31
0.0
  0
ARC
  5
12D41
  8
0
 10
4349.4233404511005574
 20
32.6866176930911934
 30
0.0
 40
2.2000129439809228
 50
80.0679769756972064
 51
87.8393562043722369
  0
ARC
  5
12D42
  8
0
 10
4349.6670929005213111
 20
34.302306828242962
 30
0.0
 40
0.5678074621147881
 50
47.5288499187025195
 51
76.1725718999008308
  0
ARC
  5
12D43
  8
0
 10
4349.4069679525418906
 20
34.084934030062108
 30
0.0
 40
0.9049111971899568
 50
355.4136261830120134
 51
44.6721904517445125
  0
LINE
  5
12D44
  8
0
 10
4350.3089815546863974
 20
34.012575641846631
 30
0.0
 11
4350.2653834347865995
 21
31.037324887346621
 31
0.0
  0
LINE
  5
12D45
  8
0
 10
4350.2653834347865995
 20
31.037324887346621
 30
0.0
 11
4352.2137725750535537
 21
31.0373248873466707
 31
0.0
  0
LINE
  5
12D46
  8
0
 10
4352.2137725750535537
 20
31.0373248873466707
 30
0.0
 11
4352.1694567003078191
 21
35.5118710530780319
 31
0.0
  0
ARC
  5
12D47
  8
0
 10
4351.9712462403040263
 20
35.4126226763393532
 30
0.0
 40
0.2296239647626621
 50
31.5132056934312992
 51
35.9048050467194386
  0
ARC
  5
12D48
  8
0
 10
4352.1537916698016488
 20
35.5242394314961416
 30
0.0
 40
0.015661019883406
 50
359.6703888436338161
 51
32.464867210712292
  0
ARC
  5
12D49
  8
0
 10
4352.6498508797722025
 20
35.5181772529522775
 30
0.0
 40
0.4804355688530423
 50
179.2877628932940013
 51
180.7520863091274919
  0
ARC
  5
12D4A
  8
0
 10
4351.2263077862726277
 20
34.8898569389247228
 30
0.0
 40
1.1396684945460971
 50
35.2307209401900465
 51
43.5416441639191589
  0
ARC
  5
12D4B
  8
0
 10
4351.1568596215156504
 20
34.83210393650252
 30
0.0
 40
1.2289298374907931
 50
68.5916909265150849
 51
74.9495833946401859
  0
ARC
  5
12D4C
  8
0
 10
4351.1458393848588457
 20
34.8136936968029005
 30
0.0
 40
1.2500973523585659
 50
56.3520597653973994
 51
68.4294454837805546
  0
ARC
  5
12D4D
  8
0
 10
4351.1509770256516276
 20
34.8172549444333015
 30
0.0
 40
1.2442881894747331
 50
43.5754110161791175
 51
56.4581348862979766
  0
LINE
  5
12D4E
  8
0
 10
4345.2553571270300381
 20
35.5117490746219531
 30
0.0
 11
4352.1694579083841745
 21
35.5117490746219531
 31
0.0
  0
ENDSEC
  0
EOF
