  0
SECTION
  2
HEADER
  9
$ACADVER
  1
AC1021
  9
$ACADMAINTVER
 70
    50
  9
$DWGCODEPAGE
  3
ANSI_936
  9
$LASTSAVEDBY
  1
kocb568
  9
$INSBASE
 10
0.0
 20
0.0
 30
0.0
  9
$EXTMIN
 10
9.855041606112891
 20
5.674828302352615
 30
-0.0015258207003583
  9
$EXTMAX
 10
21.66907911765477
 20
17.48715887926519
 30
0.0000000349246037
  9
$LIMMIN
 10
0.0
 20
0.0
  9
$LIMMAX
 10
22.0
 20
17.0
  9
$ORTHOMODE
 70
     0
  9
$REGENMODE
 70
     1
  9
$FILLMODE
 70
     1
  9
$QTEXTMODE
 70
     0
  9
$MIRRTEXT
 70
     0
  9
$LTSCALE
 40
1.209999999999997
  9
$ATTMODE
 70
     1
  9
$TEXTSIZE
 40
0.2
  9
$TRACEWID
 40
0.05
  9
$TEXTSTYLE
  7
STANDARD
  9
$CLAYER
  8
0
  9
$CELTYPE
  6
BYLAYER
  9
$CECOLOR
 62
   256
  9
$CELTSCALE
 40
1.0
  9
$DISPSILH
 70
     0
  9
$DIMSCALE
 40
1.0
  9
$DIMASZ
 40
0.12
  9
$DIMEXO
 40
0.05
  9
$DIMDLI
 40
0.5
  9
$DIMRND
 40
0.0
  9
$DIMDLE
 40
0.0
  9
$DIMEXE
 40
0.1
  9
$DIMTP
 40
0.1
  9
$DIMTM
 40
0.1
  9
$DIMTXT
 40
0.12
  9
$DIMCEN
 40
0.0
  9
$DIMTSZ
 40
0.0
  9
$DIMTOL
 70
     0
  9
$DIMLIM
 70
     0
  9
$DIMTIH
 70
     1
  9
$DIMTOH
 70
     1
  9
$DIMSE1
 70
     0
  9
$DIMSE2
 70
     0
  9
$DIMTAD
 70
     0
  9
$DIMZIN
 70
     7
  9
$DIMBLK
  1

  9
$DIMASO
 70
     1
  9
$DIMSHO
 70
     1
  9
$DIMPOST
  1

  9
$DIMAPOST
  1
mm
  9
$DIMALT
 70
     0
  9
$DIMALTD
 70
     2
  9
$DIMALTF
 40
25.4
  9
$DIMLFAC
 40
1.0
  9
$DIMTOFL
 70
     0
  9
$DIMTVP
 40
0.0
  9
$DIMTIX
 70
     0
  9
$DIMSOXD
 70
     0
  9
$DIMSAH
 70
     0
  9
$DIMBLK1
  1

  9
$DIMBLK2
  1

  9
$DIMSTYLE
  2
AM_ANSI
  9
$DIMCLRD
 70
   256
  9
$DIMCLRE
 70
   256
  9
$DIMCLRT
 70
   140
  9
$DIMTFAC
 40
0.71
  9
$DIMGAP
 40
0.06
  9
$DIMJUST
 70
     0
  9
$DIMSD1
 70
     0
  9
$DIMSD2
 70
     0
  9
$DIMTOLJ
 70
     1
  9
$DIMTZIN
 70
     7
  9
$DIMALTZ
 70
     0
  9
$DIMALTTZ
 70
     0
  9
$DIMUPT
 70
     0
  9
$DIMDEC
 70
     4
  9
$DIMTDEC
 70
     4
  9
$DIMALTU
 70
     2
  9
$DIMALTTD
 70
     4
  9
$DIMTXSTY
  7
STANDARD
  9
$DIMAUNIT
 70
     0
  9
$DIMADEC
 70
     0
  9
$DIMALTRND
 40
0.0
  9
$DIMAZIN
 70
     2
  9
$DIMDSEP
 70
    46
  9
$DIMATFIT
 70
     3
  9
$DIMFRAC
 70
     0
  9
$DIMLDRBLK
  1

  9
$DIMLUNIT
 70
     2
  9
$DIMLWD
 70
    -1
  9
$DIMLWE
 70
    -1
  9
$DIMTMOVE
 70
     0
  9
$DIMFXL
 40
1.0
  9
$DIMFXLON
 70
     0
  9
$DIMJOGANG
 40
0.7853981633974483
  9
$DIMTFILL
 70
     0
  9
$DIMTFILLCLR
 70
     0
  9
$DIMARCSYM
 70
     1
  9
$DIMLTYPE
  6
BYBLOCK
  9
$DIMLTEX1
  6
BYBLOCK
  9
$DIMLTEX2
  6
BYBLOCK
  9
$LUNITS
 70
     2
  9
$LUPREC
 70
     4
  9
$SKETCHINC
 40
0.1
  9
$FILLETRAD
 40
0.0
  9
$AUNITS
 70
     0
  9
$AUPREC
 70
     0
  9
$MENU
  1
.
  9
$ELEVATION
 40
0.0
  9
$PELEVATION
 40
0.0
  9
$THICKNESS
 40
0.0
  9
$LIMCHECK
 70
     0
  9
$CHAMFERA
 40
0.0
  9
$CHAMFERB
 40
0.0
  9
$CHAMFERC
 40
0.0
  9
$CHAMFERD
 40
0.0
  9
$SKPOLY
 70
     0
  9
$TDCREATE
 40
2455875.460383820
  9
$TDUCREATE
 40
2455875.127050486
  9
$TDUPDATE
 40
2455875.714617199
  9
$TDUUPDATE
 40
2455875.381283866
  9
$TDINDWG
 40
0.0037768287
  9
$TDUSRTIMER
 40
0.0037752083
  9
$USRTIMER
 70
     1
  9
$ANGBASE
 50
0.0
  9
$ANGDIR
 70
     0
  9
$PDMODE
 70
     3
  9
$PDSIZE
 40
0.3125
  9
$PLINEWID
 40
0.0
  9
$SPLFRAME
 70
     0
  9
$SPLINETYPE
 70
     6
  9
$SPLINESEGS
 70
     8
  9
$HANDSEED
  5
6D5
  9
$SURFTAB1
 70
     6
  9
$SURFTAB2
 70
     6
  9
$SURFTYPE
 70
     6
  9
$SURFU
 70
     6
  9
$SURFV
 70
     6
  9
$UCSBASE
  2

  9
$UCSNAME
  2

  9
$UCSORG
 10
0.0
 20
0.0
 30
0.0
  9
$UCSXDIR
 10
1.0
 20
0.0
 30
0.0
  9
$UCSYDIR
 10
0.0
 20
1.0
 30
0.0
  9
$UCSORTHOREF
  2

  9
$UCSORTHOVIEW
 70
     0
  9
$UCSORGTOP
 10
0.0
 20
0.0
 30
0.0
  9
$UCSORGBOTTOM
 10
0.0
 20
0.0
 30
0.0
  9
$UCSORGLEFT
 10
0.0
 20
0.0
 30
0.0
  9
$UCSORGRIGHT
 10
0.0
 20
0.0
 30
0.0
  9
$UCSORGFRONT
 10
0.0
 20
0.0
 30
0.0
  9
$UCSORGBACK
 10
0.0
 20
0.0
 30
0.0
  9
$PUCSBASE
  2

  9
$PUCSNAME
  2

  9
$PUCSORG
 10
0.0
 20
0.0
 30
0.0
  9
$PUCSXDIR
 10
1.0
 20
0.0
 30
0.0
  9
$PUCSYDIR
 10
0.0
 20
1.0
 30
0.0
  9
$PUCSORTHOREF
  2

  9
$PUCSORTHOVIEW
 70
     0
  9
$PUCSORGTOP
 10
0.0
 20
0.0
 30
0.0
  9
$PUCSORGBOTTOM
 10
0.0
 20
0.0
 30
0.0
  9
$PUCSORGLEFT
 10
0.0
 20
0.0
 30
0.0
  9
$PUCSORGRIGHT
 10
0.0
 20
0.0
 30
0.0
  9
$PUCSORGFRONT
 10
0.0
 20
0.0
 30
0.0
  9
$PUCSORGBACK
 10
0.0
 20
0.0
 30
0.0
  9
$USERI1
 70
     0
  9
$USERI2
 70
     0
  9
$USERI3
 70
     0
  9
$USERI4
 70
     0
  9
$USERI5
 70
     0
  9
$USERR1
 40
0.0
  9
$USERR2
 40
0.0
  9
$USERR3
 40
0.0
  9
$USERR4
 40
0.0
  9
$USERR5
 40
0.0
  9
$WORLDVIEW
 70
     1
  9
$SHADEDGE
 70
     3
  9
$SHADEDIF
 70
    70
  9
$TILEMODE
 70
     1
  9
$MAXACTVP
 70
    64
  9
$PINSBASE
 10
0.0
 20
0.0
 30
0.0
  9
$PLIMCHECK
 70
     0
  9
$PEXTMIN
 10
1.000000000000000E+20
 20
1.000000000000000E+20
 30
1.000000000000000E+20
  9
$PEXTMAX
 10
-1.000000000000000E+20
 20
-1.000000000000000E+20
 30
-1.000000000000000E+20
  9
$PLIMMIN
 10
0.0
 20
0.0
  9
$PLIMMAX
 10
12.0
 20
9.0
  9
$UNITMODE
 70
     0
  9
$VISRETAIN
 70
     1
  9
$PLINEGEN
 70
     0
  9
$PSLTSCALE
 70
     1
  9
$TREEDEPTH
 70
  3020
  9
$CMLSTYLE
  2
Standard
  9
$CMLJUST
 70
     0
  9
$CMLSCALE
 40
1.0
  9
$PROXYGRAPHICS
 70
     1
  9
$MEASUREMENT
 70
     0
  9
$CELWEIGHT
370
    -1
  9
$ENDCAPS
280
     0
  9
$JOINSTYLE
280
     0
  9
$LWDISPLAY
290
     0
  9
$INSUNITS
 70
     1
  9
$HYPERLINKBASE
  1

  9
$STYLESHEET
  1

  9
$XEDIT
290
     1
  9
$CEPSNTYPE
380
     0
  9
$PSTYLEMODE
290
     1
  9
$FINGERPRINTGUID
  2
{ED968EAC-3F46-49AC-8587-931932A05A83}
  9
$VERSIONGUID
  2
{8DF66800-1965-4B80-88A9-B9E6EE919A03}
  9
$EXTNAMES
290
     1
  9
$PSVPSCALE
 40
0.0
  9
$OLESTARTUP
290
     0
  9
$SORTENTS
280
   127
  9
$INDEXCTL
280
     0
  9
$HIDETEXT
280
     1
  9
$XCLIPFRAME
290
     0
  9
$HALOGAP
280
     0
  9
$OBSCOLOR
 70
   257
  9
$OBSLTYPE
280
     0
  9
$INTERSECTIONDISPLAY
280
     0
  9
$INTERSECTIONCOLOR
 70
   257
  9
$DIMASSOC
280
     2
  9
$PROJECTNAME
  1

  9
$CAMERADISPLAY
290
     0
  9
$LENSLENGTH
 40
50.0
  9
$CAMERAHEIGHT
 40
0.0
  9
$STEPSPERSEC
 40
2.0
  9
$STEPSIZE
 40
6.0
  9
$3DDWFPREC
 40
2.0
  9
$PSOLWIDTH
 40
0.25
  9
$PSOLHEIGHT
 40
4.0
  9
$LOFTANG1
 40
1.570796326794896
  9
$LOFTANG2
 40
1.570796326794896
  9
$LOFTMAG1
 40
0.0
  9
$LOFTMAG2
 40
0.0
  9
$LOFTPARAM
 70
     7
  9
$LOFTNORMALS
280
     1
  9
$LATITUDE
 40
37.795
  9
$LONGITUDE
 40
-122.394
  9
$NORTHDIRECTION
 40
0.0
  9
$TIMEZONE
 70
 -8000
  9
$LIGHTGLYPHDISPLAY
280
     1
  9
$TILEMODELIGHTSYNCH
280
     1
  9
$CMATERIAL
347
3E9
  9
$SOLIDHIST
280
     1
  9
$SHOWHIST
280
     1
  9
$DWFFRAME
280
     2
  9
$DGNFRAME
280
     0
  9
$REALWORLDSCALE
290
     1
  9
$INTERFERECOLOR
 62
     1
  9
$INTERFEREOBJVS
345
40B
  9
$INTERFEREVPVS
346
408
  9
$CSHADOW
280
     0
  9
$SHADOWPLANELOCATION
 40
0.0
  0
ENDSEC
  0
SECTION
  2
CLASSES
  0
CLASS
  1
ACDBDICTIONARYWDFLT
  2
AcDbDictionaryWithDefault
  3
ObjectDBX Classes
 90
        0
 91
        1
280
     0
281
     0
  0
CLASS
  1
MATERIAL
  2
AcDbMaterial
  3
ObjectDBX Classes
 90
     1153
 91
        3
280
     0
281
     0
  0
CLASS
  1
VISUALSTYLE
  2
AcDbVisualStyle
  3
ObjectDBX Classes
 90
     4095
 91
       16
280
     0
281
     0
  0
CLASS
  1
TABLESTYLE
  2
AcDbTableStyle
  3
ObjectDBX Classes
 90
     4095
 91
        1
280
     0
281
     0
  0
CLASS
  1
SCALE
  2
AcDbScale
  3
ObjectDBX Classes
 90
     1153
 91
       33
280
     0
281
     0
  0
CLASS
  1
MLEADERSTYLE
  2
AcDbMLeaderStyle
  3
ACDB_MLEADERSTYLE_CLASS
 90
     4095
 91
        1
280
     0
281
     0
  0
CLASS
  1
AMGSETTINGSOBJ
  2
AmgSettingsObj
  3
"AcadM|Product Description: AutoCAD Mechanical|Company: Autodesk, Inc."
 90
     1024
 91
        2
280
     0
281
     0
  0
CLASS
  1
ACME_DOCUMENT
  2
AcMeDbDoc
  3
AcMeServices
 90
     1024
 91
        1
280
     0
281
     0
  0
CLASS
  1
ACMESCOPE
  2
AcMeScope
  3
AcMeServices
 90
     1024
 91
        1
280
     0
281
     0
  0
CLASS
  1
ACMECOMMANDHISTORY
  2
AcMeCommandHistory
  3
AcMeServices
 90
     1024
 91
        1
280
     0
281
     0
  0
CLASS
  1
ACIMSYSVARMAN
  2
AcImSysVarManager
  3
AcMeServices
 90
     1024
 91
        5
280
     0
281
     0
  0
CLASS
  1
ACIMINTSYSVAR
  2
AcImIntSysVar
  3
AcMeServices
 90
     1024
 91
       27
280
     0
281
     0
  0
CLASS
  1
ACMEDRAWINGMAN
  2
AcMeDrawingMan
  3
AcMeServices
 90
     1024
 91
        1
280
     0
281
     0
  0
CLASS
  1
ACMEVIEW
  2
AcMeView
  3
AcMeServices
 90
     1024
 91
        1
280
     0
281
     0
  0
CLASS
  1
ACDBENTITYCACHE
  2
AcMeEntityCache
  3
AcMeServices
 90
     1024
 91
        1
280
     0
281
     0
  0
CLASS
  1
GSMANAGER
  2
AcMeGSManager
  3
AcMeServices
 90
     1024
 91
        1
280
     0
281
     0
  0
CLASS
  1
AMDTINTERNALREACTOR
  2
AmdtInternalReactor
  3
AcMeServices
 90
     1024
 91
        2
280
     0
281
     0
  0
CLASS
  1
ACMESTATEMGR
  2
AcMeStateMgr
  3
AcMeServices
 90
     1024
 91
        1
280
     0
281
     0
  0
CLASS
  1
ACGREFMASTER
  2
AcGrefMaster
  3
AcAttribServices
 90
     1024
 91
        1
280
     0
281
     0
  0
CLASS
  1
AM_DRAWING_MGR
  2
AcDmDwgMgr
  3
AcMechDwgViewMgmt
 90
     1024
 91
        1
280
     0
281
     0
  0
CLASS
  1
AM_DWG_DOCUMENT
  2
AcDmDwgDocument
  3
AcMechDwgViewMgmt
 90
     1024
 91
        1
280
     0
281
     0
  0
CLASS
  1
AM_DWG_SHEET
  2
AcDmSheet
  3
AcMechDwgViewMgmt
 90
     1024
 91
        1
280
     0
281
     0
  0
CLASS
  1
AM_VIEWDIMPARMAP
  2
AcDmViewDimParMap
  3
AcMechDwgViewMgmt
 90
     1024
 91
        1
280
     0
281
     0
  0
CLASS
  1
ACIMREALSYSVAR
  2
AcImRealSysVar
  3
AcMeServices
 90
     1024
 91
        1
280
     0
281
     0
  0
CLASS
  1
AM_DWGMGR_NAME
  2
AcDmDwgMgrName
  3
AcMechDwgViewMgmt
 90
     1024
 91
        1
280
     0
281
     0
  0
CLASS
  1
ACME_DATABASE
  2
AcMeDbDatabase
  3
AcMeServices
 90
     1024
 91
        1
280
     0
281
     0
  0
CLASS
  1
ACRFINSADJUSTERMGR
  2
AcRfInsAdjusterMgr
  3
AcMeServices
 90
     1024
 91
        1
280
     0
281
     0
  0
CLASS
  1
ACGREFACADMASTER
  2
AcGrefacadMaster
  3
AcGrefServices
 90
     1024
 91
        1
280
     0
281
     0
  0
CLASS
  1
AMDTMENUSTATEMGR
  2
AmdtMenuStateMgr
  3
McadcomServices
 90
     1024
 91
        1
280
     0
281
     0
  0
CLASS
  1
AMDTMCOMMENUSTATE
  2
AmdtMcomMenuState
  3
McadcomServices
 90
     1024
 91
        1
280
     0
281
     0
  0
CLASS
  1
AMIMASTER
  2
AmiMaster
  3
AmiServices
 90
     1024
 91
        1
280
     0
281
     0
  0
CLASS
  1
MAPIAMMOUDLE
  2
MApiAmModule
  3
MApiAmServices
 90
     1024
 91
        1
280
     0
281
     0
  0
CLASS
  1
ACIMSTRSYSVAR
  2
AcImStrSysVar
  3
AcMeServices
 90
     1024
 91
        5
280
     0
281
     0
  0
CLASS
  1
AMDTADMENUSTATE
  2
AmdtAdMenuState
  3
DesignerServices
 90
     1024
 91
        1
280
     0
281
     0
  0
CLASS
  1
ADAPPL
  2
AcAdAppl
  3
DesignerServices
 90
     1024
 91
        1
280
     0
281
     0
  0
CLASS
  1
DEPMGR
  2
AcAdDepMgr
  3
DesignerServices
 90
     1024
 91
        1
280
     0
281
     0
  0
CLASS
  1
PARAMMGR
  2
AcAdParamMgr
  3
DesignerServices
 90
     1024
 91
        1
280
     0
281
     0
  0
CLASS
  1
PARAMSCOPE
  2
AcAdParamScope
  3
DesignerServices
 90
     1024
 91
        1
280
     0
281
     0
  0
CLASS
  1
NAMEDAPPL
  2
AcAdNamedAppl
  3
DesignerServices
 90
     1024
 91
        1
280
     0
281
     0
  0
CLASS
  1
AMDTDMMENUSTATE
  2
AmdtDmMenuState
  3
AcMechDwgViewMgmt
 90
     1024
 91
        1
280
     0
281
     0
  0
CLASS
  1
AMDTAMMENUSTATE
  2
AmdtAmMenuState
  3
DesignerAssemblies
 90
     1024
 91
        1
280
     0
281
     0
  0
CLASS
  1
ACAMPROJECT
  2
AcAmProject
  3
DesignerAssemblies
 90
     1024
 91
        1
280
     0
281
     0
  0
CLASS
  1
ACAMGRCOMPDEF
  2
AcAmGrCompDef
  3
DesignerAssemblies
 90
     1024
 91
        1
280
     0
281
     0
  0
CLASS
  1
ACCMCONTEXT
  2
AcCmContext
  3
DesignerAssemblies
 90
     1024
 91
        1
280
     0
281
     0
  0
CLASS
  1
ACAMCOMPDEF
  2
AcAmCompDef
  3
DesignerAssemblies
 90
     1024
 91
        1
280
     0
281
     0
  0
CLASS
  1
ACAMCOMPDEFMGR
  2
AcAmCompDefMgr
  3
DesignerAssemblies
 90
     1024
 91
        1
280
     0
281
     0
  0
CLASS
  1
AMCONTEXTMGR
  2
AcAmContextMgr
  3
DesignerAssemblies
 90
     1024
 91
        1
280
     0
281
     0
  0
CLASS
  1
ACAMCONTEXTMODELER
  2
AcAmContextModeler
  3
DesignerAssemblies
 90
     1024
 91
        1
280
     0
281
     0
  0
CLASS
  1
ACMDATADICTIONARY
  2
AcmDataDictionary
  3
"AcmSymBB|Product Description: AutoCAD Mechanical|Company: Autodesk, Inc."
 90
     1024
 91
        1
280
     0
281
     0
  0
CLASS
  1
CATALOGSTATE
  2
AcAmCatalogState
  3
DesignerAssemblies
 90
     1024
 91
        1
280
     0
281
     0
  0
CLASS
  1
ACAMGRCOMPDEFSET
  2
AcAmGrCompDefSet
  3
DesignerAssemblies
 90
     1024
 91
        1
280
     0
281
     0
  0
CLASS
  1
AMDTBROWSERDBTAB
  2
AmdtBrowserDbTab
  3
McadcomServices
 90
     1024
 91
        1
280
     0
281
     0
  0
CLASS
  1
CBROWSERAPPOBJECT
  2
CBrowserAppObject
  3
McadcomServices
 90
     1024
 91
        3
280
     0
281
     0
  0
CLASS
  1
DM_PLACEHOLDER
  2
AcDmSelsetPlaceholder
  3
AcMechDwgViewMgmt
 90
     1024
 91
        1
280
     0
281
     0
  0
CLASS
  1
EXACXREFPANELOBJECT
  2
ExAcXREFPanelObject
  3
EXAC_ESW
 90
     1025
 91
        1
280
     0
281
     0
  0
CLASS
  1
NPOCOLLECTION
  2
AcDbImpNonPersistentObjectsCollection
  3
ObjectDBX Classes
 90
     1153
 91
        1
280
     0
281
     0
  0
CLASS
  1
ACMSTANDARDANSI
  2
AcmStandardANSI
  3
"Amdt_StdImp|Product Description: AutoCAD Mechanical|Company: Autodesk, Inc."
 90
     1024
 91
        1
280
     0
281
     0
  0
CLASS
  1
ACMSURFSTANDARDANSI
  2
AcmSurfTextStdANSI
  3
"Amdt_StdImp|Product Description: AutoCAD Mechanical|Company: Autodesk, Inc."
 90
     1024
 91
        1
280
     0
281
     0
  0
CLASS
  1
ACMFCFSTANDARDANSI
  2
AcmFCFStdANSI
  3
"Amdt_StdImp|Product Description: AutoCAD Mechanical|Company: Autodesk, Inc."
 90
     1024
 91
        1
280
     0
281
     0
  0
CLASS
  1
ACMWELDSTANDARDANSI
  2
AcmWeldingStdANSI
  3
"Amdt_StdImp|Product Description: AutoCAD Mechanical|Company: Autodesk, Inc."
 90
     1024
 91
        1
280
     0
281
     0
  0
CLASS
  1
ACMIDSTANDARDANSI
  2
AcmIdStdANSI
  3
"Amdt_StdImp|Product Description: AutoCAD Mechanical|Company: Autodesk, Inc."
 90
     1024
 91
        1
280
     0
281
     0
  0
CLASS
  1
ACMDATUMSTANDARDANSI
  2
AcmDatumStdANSI
  3
"Amdt_StdImp|Product Description: AutoCAD Mechanical|Company: Autodesk, Inc."
 90
     1024
 91
        1
280
     0
281
     0
  0
CLASS
  1
ACMBOMSTANDARDANSI
  2
AcmBOMStdANSI
  3
"Amdt_StdImp|Product Description: AutoCAD Mechanical|Company: Autodesk, Inc."
 90
     1024
 91
        1
280
     0
281
     0
  0
CLASS
  1
ACMDETAILSTANDARDANSI
  2
AmdtDetailSymStdANSI
  3
"Amdt_StdImp|Product Description: AutoCAD Mechanical|Company: Autodesk, Inc."
 90
     1024
 91
        1
280
     0
281
     0
  0
CLASS
  1
ACMSECTIONSTANDARDANSI
  2
AmdtSectionSymStdANSI
  3
"Amdt_StdImp|Product Description: AutoCAD Mechanical|Company: Autodesk, Inc."
 90
     1024
 91
        1
280
     0
281
     0
  0
CLASS
  1
ACMCENTERLINESTANDARDANSI
  2
AmdtCenterLineStdANSI
  3
"Amdt_StdImp|Product Description: AutoCAD Mechanical|Company: Autodesk, Inc."
 90
     1024
 91
        1
280
     0
281
     0
  0
CLASS
  1
ACMTHREADLINESTANDARDANSI
  2
AmdtThreadLineStdANSI
  3
"Amdt_StdImp|Product Description: AutoCAD Mechanical|Company: Autodesk, Inc."
 90
     1024
 91
        1
280
     0
281
     0
  0
CLASS
  1
ACMNOTESTANDARDANSI
  2
AmdtNoteStdANSI
  3
"Amdt_StdImp|Product Description: AutoCAD Mechanical|Company: Autodesk, Inc."
 90
     1024
 91
        1
280
     0
281
     0
  0
CLASS
  1
ACMTAPERSTANDARDANSI
  2
AcmTaperStdANSI
  3
"Amdt_StdImp|Product Description: AutoCAD Mechanical|Company: Autodesk, Inc."
 90
     1024
 91
        1
280
     0
281
     0
  0
CLASS
  1
ACMANOOTATIONVIEWSTANDARDANSI
  2
AmdtAnViewStdANSI
  3
"Amdt_StdImp|Product Description: AutoCAD Mechanical|Company: Autodesk, Inc."
 90
     1024
 91
        1
280
     0
281
     0
  0
CLASS
  1
ACAMGLAYSTD
  2
AcAmgLayStd
  3
"AmgLay|Product Description: AutoCAD Mechanical|Company: Autodesk, Inc."
 90
     1024
 91
        1
280
     0
281
     0
  0
CLASS
  1
ACAMGDIMSTD
  2
AcAmgDimStd
  3
"AmgDim|Product Description: AutoCAD Mechanical|Company: Autodesk, Inc."
 90
     1024
 91
        1
280
     0
281
     0
  0
CLASS
  1
AMGOBJPROPCFG
  2
AmgObjPropCfg
  3
"AmgLay|Product Description: AutoCAD Mechanical|Company: Autodesk, Inc."
 90
     1025
 91
        1
280
     0
281
     0
  0
CLASS
  1
ACAMGHOLECHARTSTDANSI
  2
AcAmgHoleChartStdANSI
  3
AmgDim|Product Description: AutoCAD Mechanical|Company: Autodesk, Inc.
 90
     1024
 91
        1
280
     0
281
     0
  0
CLASS
  1
ACAMGTITLESTD
  2
AcAmgTitleStd
  3
"AmgTitle|Product Description: AutoCAD Mechanical|Company: Autodesk, Inc."
 90
     4095
 91
        1
280
     0
281
     0
  0
CLASS
  1
AMDTNOTETEMPLATEDB
  2
AmdtNoteTemplateDB
  3
AcmSymBB|Product Description: AutoCAD Mechanical|Company: Autodesk, Inc.
 90
     1024
 91
        6
280
     0
281
     0
  0
CLASS
  1
ACAMGFILTERDAT
  2
AcAmgFilterDat
  3
"AcadM|Product Description: AutoCAD Mechanical|Company: Autodesk, Inc."
 90
     1024
 91
        0
280
     0
281
     0
  0
CLASS
  1
DICTIONARYVAR
  2
AcDbDictionaryVar
  3
ObjectDBX Classes
 90
        0
 91
        3
280
     0
281
     0
  0
CLASS
  1
CELLSTYLEMAP
  2
AcDbCellStyleMap
  3
ObjectDBX Classes
 90
     1152
 91
        2
280
     0
281
     0
  0
ENDSEC
  0
SECTION
  2
TABLES
  0
TABLE
  2
VPORT
  5
8
330
0
100
AcDbSymbolTable
 70
     1
  0
VPORT
  5
1F4
330
8
100
AcDbSymbolTableRecord
100
AcDbViewportTableRecord
  2
*ACTIVE
 70
     0
 10
0.0
 20
0.0
 11
1.0
 21
1.0
 12
17.53653701089955
 22
7.323329239014569
 13
0.0
 23
0.0
 14
1.0
 24
1.0
 15
0.0
 25
0.0
 16
0.0
 26
0.0
 36
1.0
 17
0.0
 27
0.0
 37
0.0
 40
11.98378540392961
 41
1.605849582172701
 42
50.0
 43
0.0
 44
0.0
 50
0.0
 51
0.0
 71
     0
 72
   100
 73
     1
 74
     1
 75
     0
 76
     0
 77
     0
 78
     0
281
     0
 65
     0
110
0.0
120
0.0
130
0.0
111
1.0
121
0.0
131
0.0
112
0.0
122
1.0
132
0.0
 79
     0
146
0.0
348
407
 60
     3
 61
     5
292
     1
282
     1
141
0.0
142
0.0
 63
   250
421
  3355443
  0
ENDTAB
  0
TABLE
  2
LTYPE
  5
5
330
0
100
AcDbSymbolTable
 70
    20
  0
LTYPE
  5
14
330
5
100
AcDbSymbolTableRecord
100
AcDbLinetypeTableRecord
  2
BYBLOCK
 70
     0
  3

 72
    65
 73
     0
 40
0.0
  0
LTYPE
  5
15
330
5
100
AcDbSymbolTableRecord
100
AcDbLinetypeTableRecord
  2
BYLAYER
 70
     0
  3

 72
    65
 73
     0
 40
0.0
  0
LTYPE
  5
16
330
5
100
AcDbSymbolTableRecord
100
AcDbLinetypeTableRecord
  2
CONTINUOUS
 70
     0
  3
Solid line
 72
    65
 73
     0
 40
0.0
  0
LTYPE
  5
1F5
330
5
100
AcDbSymbolTableRecord
100
AcDbLinetypeTableRecord
  2
CENTER
 70
     0
  3
____ _ ____ _ ____ _ ____ _ ____ _ ____ _ ____
 72
    65
 73
     4
 40
0.6
 49
0.375
 74
     0
 49
-0.075
 74
     0
 49
0.075
 74
     0
 49
-0.075
 74
     0
  0
LTYPE
  5
1F6
330
5
100
AcDbSymbolTableRecord
100
AcDbLinetypeTableRecord
  2
HIDDEN
 70
     0
  3
- - - - - - - - - - - - - - - - - - - -
 72
    65
 73
     2
 40
0.2
 49
0.1
 74
     0
 49
-0.1
 74
     0
  0
LTYPE
  5
1F7
330
5
100
AcDbSymbolTableRecord
100
AcDbLinetypeTableRecord
  2
PHANTOM
 70
     0
  3
_____ _ _ _____ _ _ _____ _ _ _____
 72
    65
 73
     6
 40
0.8
 49
0.45
 74
     0
 49
-0.05
 74
     0
 49
0.1
 74
     0
 49
-0.05
 74
     0
 49
0.1
 74
     0
 49
-0.05
 74
     0
  0
LTYPE
  5
1F8
330
5
100
AcDbSymbolTableRecord
100
AcDbLinetypeTableRecord
  2
DOT
 70
     0
  3
. . . . . . . . . . . . . . . . . . . .
 72
    65
 73
     2
 40
0.2
 49
0.1
 74
     0
 49
-0.1
 74
     0
  0
LTYPE
  5
1F9
330
5
100
AcDbSymbolTableRecord
100
AcDbLinetypeTableRecord
  2
DASHED
 70
     0
  3
- - - - - - - - - - - - - - - - - - - -
 72
    65
 73
     2
 40
0.2
 49
0.1
 74
     0
 49
-0.1
 74
     0
  0
LTYPE
  5
46F
330
5
100
AcDbSymbolTableRecord
100
AcDbLinetypeTableRecord
  2
PHANTOM2
 70
     0
  3
Phantom (.5x) ___ _ _ ___ _ _ ___ _ _ ___ _ _
 72
    65
 73
     6
 40
1.25
 49
0.625
 74
     0
 49
-0.125
 74
     0
 49
0.125
 74
     0
 49
-0.125
 74
     0
 49
0.125
 74
     0
 49
-0.125
 74
     0
  0
LTYPE
  5
4B6
330
5
100
AcDbSymbolTableRecord
100
AcDbLinetypeTableRecord
  2
AM_ISO02W050
 70
     0
  3
__ __ __ __ __ __ __ __ __ __ __ __ __ __ __
 72
    65
 73
     2
 40
7.5
 49
6.0
 74
     0
 49
-1.5
 74
     0
  0
LTYPE
  5
4B7
330
5
100
AcDbSymbolTableRecord
100
AcDbLinetypeTableRecord
  2
AM_ISO08W050
 70
     0
  3
____ . ____ . ____ . ____ . ____ . ____ . ____
 72
    65
 73
     4
 40
18.0
 49
12.0
 74
     0
 49
-1.5
 74
     0
 49
3.0
 74
     0
 49
-1.5
 74
     0
  0
LTYPE
  5
4B8
330
5
100
AcDbSymbolTableRecord
100
AcDbLinetypeTableRecord
  2
AM_ISO09W050
 70
     0
  3
_____ . . _____ . . _____ . . ____ .. ____
 72
    65
 73
     6
 40
22.5
 49
12.0
 74
     0
 49
-1.5
 74
     0
 49
3.0
 74
     0
 49
-1.5
 74
     0
 49
3.0
 74
     0
 49
-1.5
 74
     0
  0
LTYPE
  5
4B9
330
5
100
AcDbSymbolTableRecord
100
AcDbLinetypeTableRecord
  2
Amconstr
 70
     0
  3
_______________________
 72
    65
 73
     2
 40
9999.0
 49
9999.0
 74
     0
 49
0.0
 74
     0
  0
LTYPE
  5
4BA
330
5
100
AcDbSymbolTableRecord
100
AcDbLinetypeTableRecord
  2
AM_ISO08W050x2
 70
     0
  3
__ . __ . __ . __ . __ . __
 72
    65
 73
     4
 40
9.0
 49
6.0
 74
     0
 49
-0.75
 74
     0
 49
1.5
 74
     0
 49
-0.75
 74
     0
  0
LTYPE
  5
4BB
330
5
100
AcDbSymbolTableRecord
100
AcDbLinetypeTableRecord
  2
AM_ISO02W050x2
 70
     0
  3
 _ _ _ _ _ _ _ _ _ _ _ _
 72
    65
 73
     2
 40
3.75
 49
3.0
 74
     0
 49
-0.75
 74
     0
  0
LTYPE
  5
4BE
330
5
100
AcDbSymbolTableRecord
100
AcDbLinetypeTableRecord
  2
Amzigzag
 70
     0
  3
/\/-/\/-/\/-/\/-/\/-/\/
 72
    65
 73
     2
 40
11.0001
 49
0.0001
 74
     4
 75
   136
340
4BD
 46
0.04
 50
0.0
 44
0.0
 45
0.0
 49
-11.0
 74
     0
  0
LTYPE
  5
4BF
330
5
100
AcDbSymbolTableRecord
100
AcDbLinetypeTableRecord
  2
CENTER2
 70
     0
  3
Center (.5x) ___ _ ___ _ ___ _ ___ _ ___ _ ___
 72
    65
 73
     4
 40
1.125
 49
0.75
 74
     0
 49
-0.125
 74
     0
 49
0.125
 74
     0
 49
-0.125
 74
     0
  0
LTYPE
  5
4C0
330
5
100
AcDbSymbolTableRecord
100
AcDbLinetypeTableRecord
  2
HIDDEN2
 70
     0
  3
Hidden (.5x) _ _ _ _ _ _ _ _ _ _ _ _ _ _ _ _ _
 72
    65
 73
     2
 40
0.1875
 49
0.125
 74
     0
 49
-0.0625
 74
     0
  0
LTYPE
  5
4C1
330
5
100
AcDbSymbolTableRecord
100
AcDbLinetypeTableRecord
  2
Amzigzag2
 70
     0
  3
/\/-/\/-/\/-/\/-/\/-/\/
 72
    65
 73
     2
 40
0.4401
 49
0.0001
 74
     4
 75
   136
340
4BD
 46
0.0016
 50
0.0
 44
0.0
 45
0.0
 49
-0.4400000000000003
 74
     0
  0
LTYPE
  5
4CF
330
5
100
AcDbSymbolTableRecord
100
AcDbLinetypeTableRecord
  2
ACANSTGB
 70
     0
  3
__ . . __ . .
 72
    65
 73
     6
 40
0.35433070866
 49
0.15748031496
 74
     0
 49
-0.03937007874
 74
     0
 49
0.03937007874
 74
     0
 49
-0.03937007874
 74
     0
 49
0.03937007874
 74
     0
 49
-0.03937007874
 74
     0
  0
LTYPE
  5
4D0
330
5
100
AcDbSymbolTableRecord
100
AcDbLinetypeTableRecord
  2
ACANSTGL
 70
     0
  3
_ _ _ _ _
 72
    65
 73
     2
 40
0.11811023622
 49
0.07874015748
 74
     0
 49
-0.03937007874
 74
     0
  0
ENDTAB
  0
TABLE
  2
LAYER
  5
2
330
0
100
AcDbSymbolTable
 70
    15
  0
LAYER
  5
10
330
2
100
AcDbSymbolTableRecord
100
AcDbLayerTableRecord
  2
0
 70
     0
 62
     7
  6
CONTINUOUS
370
    -3
390
F
347
3F9
  0
LAYER
  5
1FA
330
2
100
AcDbSymbolTableRecord
100
AcDbLayerTableRecord
  2
DEFAULT_1
 70
     0
 62
     7
  6
CENTER
370
    -3
390
F
347
3F9
  0
LAYER
  5
1FB
330
2
100
AcDbSymbolTableRecord
100
AcDbLayerTableRecord
  2
DEFAULT_2
 70
     0
 62
     8
  6
HIDDEN
370
    -3
390
F
347
3F9
  0
LAYER
  5
1FC
330
2
100
AcDbSymbolTableRecord
100
AcDbLayerTableRecord
  2
DEFAULT_3
 70
     0
 62
     7
  6
PHANTOM
370
    -3
390
F
347
3F9
  0
LAYER
  5
1FD
330
2
100
AcDbSymbolTableRecord
100
AcDbLayerTableRecord
  2
DATUMS
 70
     0
 62
     7
  6
CONTINUOUS
370
    -3
390
F
347
3F9
  0
LAYER
  5
1FE
330
2
100
AcDbSymbolTableRecord
100
AcDbLayerTableRecord
  2
DATUM_AXIS
 70
     0
 62
     7
  6
CONTINUOUS
370
    -3
390
F
347
3F9
  0
LAYER
  5
1FF
330
2
100
AcDbSymbolTableRecord
100
AcDbLayerTableRecord
  2
DATUM_CSYS
 70
     0
 62
     7
  6
CONTINUOUS
370
    -3
390
F
347
3F9
  0
LAYER
  5
200
330
2
100
AcDbSymbolTableRecord
100
AcDbLayerTableRecord
  2
DATUM_PLANE
 70
     0
 62
     7
  6
CONTINUOUS
370
    -3
390
F
347
3F9
  0
LAYER
  5
201
330
2
100
AcDbSymbolTableRecord
100
AcDbLayerTableRecord
  2
DATUM_POINT
 70
     0
 62
     7
  6
CONTINUOUS
370
    -3
390
F
347
3F9
  0
LAYER
  5
202
330
2
100
AcDbSymbolTableRecord
100
AcDbLayerTableRecord
  2
INTF_9
 70
     0
 62
     7
  6
CONTINUOUS
370
    -3
390
F
347
3F9
  0
LAYER
  5
203
330
2
100
AcDbSymbolTableRecord
100
AcDbLayerTableRecord
  2
RGB____0____0____0__
 70
     0
 62
     7
  6
CONTINUOUS
370
    -3
390
F
347
3F9
  0
LAYER
  5
204
330
2
100
AcDbSymbolTableRecord
100
AcDbLayerTableRecord
  2
_CURVE
 70
     0
 62
     7
  6
CONTINUOUS
370
    -3
390
F
347
3F9
  0
LAYER
  5
205
330
2
100
AcDbSymbolTableRecord
100
AcDbLayerTableRecord
  2
_SURFACE
 70
     0
 62
     7
  6
CONTINUOUS
370
    -3
390
F
347
3F9
  0
LAYER
  5
206
330
2
100
AcDbSymbolTableRecord
100
AcDbLayerTableRecord
  2
__REF_CURVE
 70
     0
 62
     7
  6
CONTINUOUS
370
    -3
390
F
347
3F9
  0
LAYER
  5
207
330
2
100
AcDbSymbolTableRecord
100
AcDbLayerTableRecord
  2
__REF_SURFACE
 70
     0
 62
     7
  6
CONTINUOUS
370
    -3
390
F
347
3F9
  0
ENDTAB
  0
TABLE
  2
STYLE
  5
3
330
0
100
AcDbSymbolTable
 70
     5
  0
STYLE
  5
11
330
3
100
AcDbSymbolTableRecord
100
AcDbTextStyleTableRecord
  2
STANDARD
 70
     0
 40
0.0
 41
0.8
 50
0.0
 71
     0
 42
0.2
  3
txt
  4

  0
STYLE
  5
208
330
3
100
AcDbSymbolTableRecord
100
AcDbTextStyleTableRecord
  2
TEXTSTYLE_1
 70
     0
 40
0.0
 41
0.8
 50
0.0
 71
     0
 42
0.2
  3
gdt
  4

  0
STYLE
  5
4BD
330
3
100
AcDbSymbolTableRecord
100
AcDbTextStyleTableRecord
  2

 70
     1
 40
0.0
 41
1.0
 50
0.0
 71
     0
 42
0.2
  3
genltshp.shx
  4

  0
STYLE
  5
4CD
330
3
100
AcDbSymbolTableRecord
100
AcDbTextStyleTableRecord
  2
ACANSTS
 70
     0
 40
1.0
 41
1.0
 50
0.0
 71
     0
 42
0.2
  3
romans.shx
  4
gbcbig.shx
  0
STYLE
  5
4CE
330
3
100
AcDbSymbolTableRecord
100
AcDbTextStyleTableRecord
  2
ACANSGDT
 70
     0
 40
0.0
 41
1.0
 50
0.0
 71
     0
 42
0.2
  3
amgdt.shx
  4

  0
ENDTAB
  0
TABLE
  2
VIEW
  5
6
330
0
100
AcDbSymbolTable
 70
     0
  0
ENDTAB
  0
TABLE
  2
UCS
  5
7
330
0
100
AcDbSymbolTable
 70
     0
  0
ENDTAB
  0
TABLE
  2
APPID
  5
9
330
0
100
AcDbSymbolTable
 70
    10
  0
APPID
  5
209
330
9
100
AcDbSymbolTableRecord
100
AcDbRegAppTableRecord
  2
ACAD
 70
     0
  0
APPID
  5
439
330
9
100
AcDbSymbolTableRecord
100
AcDbRegAppTableRecord
  2
ACAD_MLEADERVER
 70
     0
  0
APPID
  5
442
330
9
100
AcDbSymbolTableRecord
100
AcDbRegAppTableRecord
  2
MCAD_NO_VIS
 70
     0
  0
APPID
  5
443
330
9
100
AcDbSymbolTableRecord
100
AcDbRegAppTableRecord
  2
ACAD_TEMP_GRAPHIC
 70
     0
  0
APPID
  5
471
330
9
100
AcDbSymbolTableRecord
100
AcDbRegAppTableRecord
  2
AD_DRAW
 70
     0
  0
APPID
  5
474
330
9
100
AcDbSymbolTableRecord
100
AcDbRegAppTableRecord
  2
ACATTRIBSERVICES
 70
     0
  0
APPID
  5
495
330
9
100
AcDbSymbolTableRecord
100
AcDbRegAppTableRecord
  2
DESIGNERASSEMBLIES
 70
     0
  0
APPID
  5
49B
330
9
100
AcDbSymbolTableRecord
100
AcDbRegAppTableRecord
  2
ACADM_DIM_EDIT
 70
     0
  0
APPID
  5
49C
330
9
100
AcDbSymbolTableRecord
100
AcDbRegAppTableRecord
  2
AMDT_DM_ADJ
 70
     0
  0
APPID
  5
673
330
9
100
AcDbSymbolTableRecord
100
AcDbRegAppTableRecord
  2
ACAD_EXEMPT_FROM_CAD_STANDARDS
 70
     0
  0
ENDTAB
  0
TABLE
  2
DIMSTYLE
  5
A
330
0
100
AcDbSymbolTable
 70
     8
100
AcDbDimStyleTable
 71
     1
340
4B4
  0
DIMSTYLE
105
20C
330
A
100
AcDbSymbolTableRecord
100
AcDbDimStyleTableRecord
  2
STANDARD
 70
     0
 41
0.1875
 47
0.01
 48
0.01
 71
     1
 78
     4
140
0.15625
271
     3
272
     3
284
     4
340
11
  0
DIMSTYLE
105
4B4
102
{ACAD_REACTORS
330
651
102
}
330
A
100
AcDbSymbolTableRecord
100
AcDbDimStyleTableRecord
  2
AM_ANSI
 70
     0
  4
mm
 41
0.12
 42
0.05
 43
0.5
 44
0.1
 47
0.1
 48
0.1
 78
     7
 79
     2
 90
     1
140
0.12
141
0.0
146
0.71
147
0.06
176
   256
177
   256
178
   140
274
     4
284
     7
340
11
345
14
346
14
347
14
371
    -1
372
    -1
  0
DIMSTYLE
105
4C2
330
A
100
AcDbSymbolTableRecord
100
AcDbDimStyleTableRecord
  2
AM_ANSI$3
 70
     0
  4
mm
 41
0.12
 42
0.05
 43
0.5
 44
0.1
 47
0.1
 48
0.1
 78
     7
 79
     2
 90
     1
140
0.12
141
0.0
146
0.71
147
0.06
176
   256
177
   256
178
   140
274
     4
284
     7
288
     1
289
     0
340
11
345
14
346
14
347
14
371
    -1
372
    -1
  0
DIMSTYLE
105
4C3
330
A
100
AcDbSymbolTableRecord
100
AcDbDimStyleTableRecord
  2
AM_ANSI$4
 70
     0
  4
mm
 41
0.12
 42
0.05
 43
0.5
 44
0.1
 47
0.1
 48
0.1
 78
     7
 79
     2
 90
     1
140
0.12
141
0.0
146
0.71
147
0.06
176
   256
177
   256
178
   140
274
     4
284
     7
340
11
345
14
346
14
347
14
371
    -1
372
    -1
  0
DIMSTYLE
105
4C4
330
A
100
AcDbSymbolTableRecord
100
AcDbDimStyleTableRecord
  2
AM_ANSI$7
 70
     0
  4
mm
 41
0.12
 42
0.05
 43
0.5
 44
0.1
 47
0.1
 48
0.1
 78
     7
 79
     2
 90
     1
140
0.12
141
0.0
146
0.71
147
0.06
176
   256
177
   256
178
   140
274
     4
284
     7
340
11
345
14
346
14
347
14
371
    -1
372
    -1
  0
DIMSTYLE
105
4C5
330
A
100
AcDbSymbolTableRecord
100
AcDbDimStyleTableRecord
  2
AM_ANSI$SF
 70
     0
  4
mm
 41
0.12
 42
0.05
 43
0.5
 44
0.1
 47
0.1
 48
0.1
 75
     1
 76
     1
 78
     7
 79
     2
 90
     1
140
0.12
141
0.0
146
0.71
147
0.06
176
   256
177
   256
178
   140
274
     4
284
     7
340
11
345
14
346
14
347
14
371
    -1
372
    -1
  0
DIMSTYLE
105
4CA
330
A
100
AcDbSymbolTableRecord
100
AcDbDimStyleTableRecord
  2
AM_ANSI$SH
 70
     0
  4
mm
 41
0.12
 42
0.05
 43
0.5
 44
0.1
 47
0.1
 48
0.1
 75
     1
 76
     1
 78
     7
 79
     2
 90
     1
140
0.12
141
0.0
146
0.71
147
0.06
173
     1
176
   256
177
   256
178
   140
274
     4
284
     7
340
11
343
4C6
345
14
346
14
347
14
371
    -1
372
    -1
  0
ENDTAB
  0
TABLE
  2
BLOCK_RECORD
  5
1
330
0
100
AcDbSymbolTable
 70
     3
  0
BLOCK_RECORD
  5
20A
330
1
100
AcDbSymbolTableRecord
100
AcDbBlockTableRecord
  2
*Model_Space
340
3E4
 70
     0
280
     1
281
     0
  0
BLOCK_RECORD
  5
20B
330
1
100
AcDbSymbolTableRecord
100
AcDbBlockTableRecord
  2
*Paper_Space
340
3E5
 70
     0
280
     1
281
     0
  0
BLOCK_RECORD
  5
4C6
330
1
100
AcDbSymbolTableRecord
100
AcDbBlockTableRecord
  2
GENAXEH
340
0
 70
     0
280
     1
281
     0
  0
ENDTAB
  0
ENDSEC
  0
SECTION
  2
BLOCKS
  0
BLOCK
  5
20
330
20A
100
AcDbEntity
  8
0
100
AcDbBlockBegin
  2
*Model_Space
 70
     0
 10
0.0
 20
0.0
 30
0.0
  3
*Model_Space
  1

  0
ENDBLK
  5
21
330
20A
100
AcDbEntity
  8
0
100
AcDbBlockEnd
  0
BLOCK
  5
1C
330
20B
100
AcDbEntity
 67
     1
  8
0
100
AcDbBlockBegin
  2
*Paper_Space
 70
     0
 10
0.0
 20
0.0
 30
0.0
  3
*Paper_Space
  1

  0
ENDBLK
  5
1D
330
20B
100
AcDbEntity
 67
     1
  8
0
100
AcDbBlockEnd
  0
BLOCK
  5
4C8
330
4C6
100
AcDbEntity
  8
0
100
AcDbBlockBegin
  2
GENAXEH
 70
     0
 10
0.0
 20
0.0
 30
0.0
  3
GENAXEH
  1

  0
LINE
  5
4C7
330
4C6
100
AcDbEntity
  8
0
100
AcDbLine
 10
-1.0
 20
0.0
 30
0.0
 11
1.0
 21
0.0
 31
0.0
  0
ENDBLK
  5
4C9
330
4C6
100
AcDbEntity
  8
0
100
AcDbBlockEnd
  0
ENDSEC
  0
SECTION
  2
ENTITIES
  0
LINE
  5
211
330
20A
100
AcDbEntity
  8
0
  6
Continuous
 62
     7
100
AcDbLine
 10
11.0081570959
 20
10.5542633824
 30
0.0
 11
11.0081616149
 21
10.5542114099
 31
0.0
  0
LINE
  5
212
330
20A
100
AcDbEntity
  8
0
  6
Continuous
 62
     7
100
AcDbLine
 10
11.0081607711
 20
10.5542214798
 30
0.0
 11
11.0081368375
 21
10.5545205976
 31
0.0
  0
LINE
  5
213
330
20A
100
AcDbEntity
  8
0
  6
Continuous
 62
     7
100
AcDbLine
 10
11.0081368375
 20
10.5545205976
 30
0.0
 11
11.0080879168
 21
10.5551765808
 31
0.0
  0
LINE
  5
214
330
20A
100
AcDbEntity
  8
0
  6
Continuous
 62
     7
100
AcDbLine
 10
11.0080879168
 20
10.5551765808
 30
0.0
 11
11.0080225258
 21
10.5561249621
 31
0.0
  0
LINE
  5
215
330
20A
100
AcDbEntity
  8
0
  6
Continuous
 62
     7
100
AcDbLine
 10
11.0080225258
 20
10.5561249621
 30
0.0
 11
11.0079473652
 21
10.5573103473
 31
0.0
  0
LINE
  5
216
330
20A
100
AcDbEntity
  8
0
  6
Continuous
 62
     7
100
AcDbLine
 10
11.0079473652
 20
10.5573103473
 30
0.0
 11
11.0078647055
 21
10.5587356879
 31
0.0
  0
LINE
  5
217
330
20A
100
AcDbEntity
  8
0
  6
Continuous
 62
     7
100
AcDbLine
 10
11.0078647055
 20
10.5587356879
 30
0.0
 11
11.007775168
 21
10.5604310526
 31
0.0
  0
LINE
  5
218
330
20A
100
AcDbEntity
  8
0
  6
Continuous
 62
     7
100
AcDbLine
 10
11.007775168
 20
10.5604310526
 30
0.0
 11
11.0076834158
 21
10.5623489795
 31
0.0
  0
LINE
  5
219
330
20A
100
AcDbEntity
  8
0
  6
Continuous
 62
     7
100
AcDbLine
 10
11.0076834158
 20
10.5623489795
 30
0.0
 11
11.0075933677
 21
10.5644366392
 31
0.0
  0
LINE
  5
21A
330
20A
100
AcDbEntity
  8
0
  6
Continuous
 62
     7
100
AcDbLine
 10
11.0075933677
 20
10.5644366392
 30
0.0
 11
11.0074823041
 21
10.5673527038
 31
0.0
  0
LINE
  5
21B
330
20A
100
AcDbEntity
  8
0
  6
Continuous
 62
     7
100
AcDbLine
 10
11.0074823041
 20
10.5673527038
 30
0.0
 11
11.007387199
 21
10.5702291763
 31
0.0
  0
LINE
  5
21C
330
20A
100
AcDbEntity
  8
0
  6
Continuous
 62
     7
100
AcDbLine
 10
11.0073875234
 20
10.5702186592
 30
0.0
 11
11.0072838947
 21
10.5738737659
 31
0.0
  0
LINE
  5
21D
330
20A
100
AcDbEntity
  8
0
  6
Continuous
 62
     7
100
AcDbLine
 10
11.0072890973
 20
10.5736746707
 30
0.0
 11
11.0071811369
 21
10.5782298165
 31
0.0
  0
LINE
  5
21E
330
20A
100
AcDbEntity
  8
0
  6
Continuous
 62
     7
100
AcDbLine
 10
11.0071859828
 20
10.5780039327
 30
0.0
 11
11.0070756749
 21
10.5838026799
 31
0.0
  0
LINE
  5
21F
330
20A
100
AcDbEntity
  8
0
  6
Continuous
 62
     7
100
AcDbLine
 10
11.0070846044
 20
10.5832748432
 30
0.0
 11
11.0069730141
 21
10.5908912836
 31
0.0
  0
LINE
  5
220
330
20A
100
AcDbEntity
  8
0
  6
Continuous
 62
     7
100
AcDbLine
 10
11.0069802335
 20
10.5903202312
 30
0.0
 11
11.0068689043
 21
10.6008655873
 31
0.0
  0
LINE
  5
221
330
20A
100
AcDbEntity
  8
0
  6
Continuous
 62
     7
100
AcDbLine
 10
11.0068718946
 20
10.6005242572
 30
0.0
 11
11.0067714784
 21
10.6145644899
 31
0.0
  0
LINE
  5
222
330
20A
100
AcDbEntity
  8
0
  6
Continuous
 62
     7
100
AcDbLine
 10
11.0067742172
 20
10.6140956018
 30
0.0
 11
11.0067384064
 21
10.6207579935
 31
0.0
  0
LINE
  5
223
330
20A
100
AcDbEntity
  8
0
  6
Continuous
 62
     7
100
AcDbLine
 10
11.0067408038
 20
10.6202723017
 30
0.0
 11
11.0067254867
 21
10.6234911128
 31
0.0
  0
LINE
  5
224
330
20A
100
AcDbEntity
  8
0
  6
Continuous
 62
     7
100
AcDbLine
 10
11.0067254867
 20
10.6234911128
 30
0.0
 11
11.0067132639
 21
10.6262775017
 31
0.0
  0
LINE
  5
225
330
20A
100
AcDbEntity
  8
0
  6
Continuous
 62
     7
100
AcDbLine
 10
11.0067132639
 20
10.6262775017
 30
0.0
 11
11.0067016713
 21
10.6291317425
 31
0.0
  0
LINE
  5
226
330
20A
100
AcDbEntity
  8
0
  6
Continuous
 62
     7
100
AcDbLine
 10
11.0067016713
 20
10.6291317425
 30
0.0
 11
11.0066942663
 21
10.6310802539
 31
0.0
  0
LINE
  5
227
330
20A
100
AcDbEntity
  8
0
  6
Continuous
 62
     7
100
AcDbLine
 10
11.0066942663
 20
10.6310802539
 30
0.0
 11
11.0066871105
 21
10.6330698288
 31
0.0
  0
LINE
  5
228
330
20A
100
AcDbEntity
  8
0
  6
Continuous
 62
     7
100
AcDbLine
 10
11.0066871105
 20
10.6330698288
 30
0.0
 11
11.0066768288
 21
10.6361413762
 31
0.0
  0
LINE
  5
229
330
20A
100
AcDbEntity
  8
0
  6
Continuous
 62
     7
100
AcDbLine
 10
11.0066768288
 20
10.6361413762
 30
0.0
 11
11.0066702741
 21
10.6382528033
 31
0.0
  0
LINE
  5
22A
330
20A
100
AcDbEntity
  8
0
  6
Continuous
 62
     7
100
AcDbLine
 10
11.0066702741
 20
10.6382528033
 30
0.0
 11
11.0066639699
 21
10.6404166262
 31
0.0
  0
LINE
  5
22B
330
20A
100
AcDbEntity
  8
0
  6
Continuous
 62
     7
100
AcDbLine
 10
11.0066639699
 20
10.6404166262
 30
0.0
 11
11.006657926
 21
10.6426337667
 31
0.0
  0
LINE
  5
22C
330
20A
100
AcDbEntity
  8
0
  6
Continuous
 62
     7
100
AcDbLine
 10
11.006657926
 20
10.6426337667
 30
0.0
 11
11.0066521545
 21
10.6449042124
 31
0.0
  0
LINE
  5
22D
330
20A
100
AcDbEntity
  8
0
  6
Continuous
 62
     7
100
AcDbLine
 10
11.0066521545
 20
10.6449042124
 30
0.0
 11
11.0066466667
 21
10.6472278783
 31
0.0
  0
LINE
  5
22E
330
20A
100
AcDbEntity
  8
0
  6
Continuous
 62
     7
100
AcDbLine
 10
11.0066466667
 20
10.6472278783
 30
0.0
 11
11.0066414718
 21
10.6496052273
 31
0.0
  0
LINE
  5
22F
330
20A
100
AcDbEntity
  8
0
  6
Continuous
 62
     7
100
AcDbLine
 10
11.0066414718
 20
10.6496052273
 30
0.0
 11
11.0066365796
 21
10.6520359908
 31
0.0
  0
LINE
  5
230
330
20A
100
AcDbEntity
  8
0
  6
Continuous
 62
     7
100
AcDbLine
 10
11.0066365796
 20
10.6520359908
 30
0.0
 11
11.0066319956
 21
10.6545217473
 31
0.0
  0
LINE
  5
231
330
20A
100
AcDbEntity
  8
0
  6
Continuous
 62
     7
100
AcDbLine
 10
11.0066319956
 20
10.6545217473
 30
0.0
 11
11.0066277255
 21
10.6570639406
 31
0.0
  0
LINE
  5
232
330
20A
100
AcDbEntity
  8
0
  6
Continuous
 62
     7
100
AcDbLine
 10
11.0066277255
 20
10.6570639406
 30
0.0
 11
11.0066237743
 21
10.6596643085
 31
0.0
  0
LINE
  5
233
330
20A
100
AcDbEntity
  8
0
  6
Continuous
 62
     7
100
AcDbLine
 10
11.0066237743
 20
10.6596643085
 30
0.0
 11
11.006620147
 21
10.6623244742
 31
0.0
  0
LINE
  5
234
330
20A
100
AcDbEntity
  8
0
  6
Continuous
 62
     7
100
AcDbLine
 10
11.0066023766
 20
10.5962442542
 30
0.0
 11
11.0066023766
 21
12.5659825041
 31
0.0
  0
LINE
  5
235
330
20A
100
AcDbEntity
  8
_SURFACE
  6
Continuous
 62
     7
100
AcDbLine
 10
11.0066023766
 20
12.4688364977
 30
0.0
 11
11.0066553449
 21
12.5185976692
 31
0.0
  0
LWPOLYLINE
  5
236
330
20A
100
AcDbEntity
  8
_SURFACE
  6
Continuous
 62
     7
100
AcDbPolyline
 90
       21
 70
     0
 43
0.0
 10
10.8845868681
 20
11.5811133792
 10
10.8847678146
 20
11.6245139133
 10
10.8853275867
 20
11.6688767889
 10
10.8862661944
 20
11.7132361497
 10
10.8875835537
 20
11.7575890676
 10
10.8892795414
 20
11.8019319271
 10
10.8913539846
 20
11.8462604365
 10
10.8938067412
 20
11.8905713525
 10
10.8966376729
 20
11.9348613589
 10
10.8998465584
 20
11.9791260586
 10
10.9034332175
 20
12.0233621228
 10
10.9073974941
 20
12.0675663336
 10
10.9117390111
 20
12.1117346663
 10
10.9164573257
 20
12.1558633294
 10
10.9215522395
 20
12.1999498039
 10
10.9270234315
 20
12.2439924848
 10
10.9328704062
 20
12.2879878024
 10
10.9390927419
 20
12.3319328823
 10
10.9456903803
 20
12.3758271218
 10
10.9526630803
 20
12.4196682067
 10
10.9575391611
 20
12.4489792259
  0
LINE
  5
237
330
20A
100
AcDbEntity
  8
_SURFACE
  6
Continuous
 62
     7
100
AcDbLine
 10
11.0066553449
 20
12.5185976692
 30
0.0
 11
11.0067304705
 21
12.5398140207
 31
0.0
  0
LINE
  5
238
330
20A
100
AcDbEntity
  8
_SURFACE
  6
Continuous
 62
     7
100
AcDbLine
 10
11.0067304705
 20
12.5398140207
 30
0.0
 11
11.0068280425
 21
12.5562776506
 31
0.0
  0
LINE
  5
239
330
20A
100
AcDbEntity
  8
_SURFACE
  6
Continuous
 62
     7
100
AcDbLine
 10
11.0068280425
 20
12.5562776506
 30
0.0
 11
11.0069332932
 21
12.5679454315
 31
0.0
  0
LINE
  5
23A
330
20A
100
AcDbEntity
  8
_SURFACE
  6
Continuous
 62
     7
100
AcDbLine
 10
11.0069332932
 20
12.5679454315
 30
0.0
 11
11.0070448639
 21
12.5765061575
 31
0.0
  0
LINE
  5
23B
330
20A
100
AcDbEntity
  8
_SURFACE
  6
Continuous
 62
     7
100
AcDbLine
 10
11.0070448639
 20
12.5765061575
 30
0.0
 11
11.0071457816
 21
12.582276273
 31
0.0
  0
LINE
  5
23C
330
20A
100
AcDbEntity
  8
_SURFACE
  6
Continuous
 62
     7
100
AcDbLine
 10
11.0071457816
 20
12.582276273
 30
0.0
 11
11.0072413623
 21
12.5866532418
 31
0.0
  0
LINE
  5
23D
330
20A
100
AcDbEntity
  8
_SURFACE
  6
Continuous
 62
     7
100
AcDbLine
 10
11.0072413623
 20
12.5866532418
 30
0.0
 11
11.0073544327
 21
12.590907439
 31
0.0
  0
LINE
  5
23E
330
20A
100
AcDbEntity
  8
_SURFACE
  6
Continuous
 62
     7
100
AcDbLine
 10
11.0073544327
 20
12.590907439
 30
0.0
 11
11.0074592443
 21
12.5942124257
 31
0.0
  0
LINE
  5
23F
330
20A
100
AcDbEntity
  8
_SURFACE
  6
Continuous
 62
     7
100
AcDbLine
 10
11.0074592443
 20
12.5942124257
 30
0.0
 11
11.0075480099
 21
12.5966494495
 31
0.0
  0
LINE
  5
240
330
20A
100
AcDbEntity
  8
_SURFACE
  6
Continuous
 62
     7
100
AcDbLine
 10
11.0075480099
 20
12.5966494495
 30
0.0
 11
11.0076408643
 21
12.5989187467
 31
0.0
  0
LINE
  5
241
330
20A
100
AcDbEntity
  8
_SURFACE
  6
Continuous
 62
     7
100
AcDbLine
 10
11.0076408643
 20
12.5989187467
 30
0.0
 11
11.0077350551
 21
12.6009811161
 31
0.0
  0
LINE
  5
242
330
20A
100
AcDbEntity
  8
_SURFACE
  6
Continuous
 62
     7
100
AcDbLine
 10
11.0077350551
 20
12.6009811161
 30
0.0
 11
11.0078271643
 21
12.6028001241
 31
0.0
  0
LINE
  5
243
330
20A
100
AcDbEntity
  8
_SURFACE
  6
Continuous
 62
     7
100
AcDbLine
 10
11.0078271643
 20
12.6028001241
 30
0.0
 11
11.0079135031
 21
12.6043481788
 31
0.0
  0
LINE
  5
244
330
20A
100
AcDbEntity
  8
_SURFACE
  6
Continuous
 62
     7
100
AcDbLine
 10
11.0079135031
 20
12.6043481788
 30
0.0
 11
11.007990875
 21
12.6056151395
 31
0.0
  0
LINE
  5
245
330
20A
100
AcDbEntity
  8
_SURFACE
  6
Continuous
 62
     7
100
AcDbLine
 10
11.007990875
 20
12.6056151395
 30
0.0
 11
11.0080603422
 21
12.6066597181
 31
0.0
  0
LINE
  5
246
330
20A
100
AcDbEntity
  8
_SURFACE
  6
Continuous
 62
     7
100
AcDbLine
 10
11.0080603422
 20
12.6066597181
 30
0.0
 11
11.0081168778
 21
12.6074446265
 31
0.0
  0
LINE
  5
247
330
20A
100
AcDbEntity
  8
_SURFACE
  6
Continuous
 62
     7
100
AcDbLine
 10
11.0081168778
 20
12.6074446265
 30
0.0
 11
11.0081528403
 21
12.6079084666
 31
0.0
  0
LINE
  5
248
330
20A
100
AcDbEntity
  8
0
  6
Continuous
 62
     7
100
AcDbLine
 10
10.9575391608
 20
12.4489792275
 30
0.0
 11
10.9575014603
 21
12.4487565073
 31
0.0
  0
LWPOLYLINE
  5
249
330
20A
100
AcDbEntity
  8
0
  6
Continuous
 62
     7
100
AcDbPolyline
 90
       21
 70
     0
 43
0.0
 10
10.9575391608
 20
10.7132475308
 10
10.9526630803
 20
10.7425585517
 10
10.9456903803
 20
10.7863996366
 10
10.9390927419
 20
10.830293876
 10
10.9328704062
 20
10.8742389559
 10
10.9270234315
 20
10.9182342735
 10
10.9215522395
 20
10.9622769544
 10
10.9164573257
 20
11.0063634289
 10
10.9117390111
 20
11.050492092
 10
10.9073974941
 20
11.0946604247
 10
10.9034332175
 20
11.1388646356
 10
10.8998465584
 20
11.1831006997
 10
10.8966376729
 20
11.2273653995
 10
10.8938067412
 20
11.2716554058
 10
10.8913539846
 20
11.3159663218
 10
10.8892795414
 20
11.3602948313
 10
10.8875835537
 20
11.4046376907
 10
10.8862661944
 20
11.4489906086
 10
10.8853275867
 20
11.4933499694
 10
10.8847678146
 20
11.537712845
 10
10.8845868681
 20
11.5811133792
  0
LINE
  5
24A
330
20A
100
AcDbEntity
  8
0
  6
Continuous
 62
     7
100
AcDbLine
 10
9.8898483181
 20
11.5811133792
 30
0.0
 11
9.970904470199998
 21
11.5811133792
 31
0.0
  0
LINE
  5
24B
330
20A
100
AcDbEntity
  8
0
  6
Continuous
 62
     7
100
AcDbLine
 10
11.0066023766
 20
11.5811133792
 30
0.0
 11
15.26176128
 21
11.5811133792
 31
0.0
  0
LINE
  5
24C
330
20A
100
AcDbEntity
  8
0
  6
Continuous
 62
     7
100
AcDbLine
 10
16.0965648132
 20
11.5811133792
 30
0.0
 11
21.3896050052
 21
11.5811133792
 31
0.0
  0
LINE
  5
24D
330
20A
100
AcDbEntity
  8
0
  6
Continuous
 62
     7
100
AcDbLine
 10
21.5523437792
 20
11.5811133792
 30
0.0
 11
21.6333999312
 21
11.5811133792
 31
0.0
  0
LINE
  5
24E
330
20A
100
AcDbEntity
  8
0
  6
Continuous
 62
     7
100
AcDbLine
 10
10.8085948337
 20
11.5811133792
 30
0.0
 11
10.8845868681
 21
11.5811133792
 31
0.0
  0
CIRCLE
  5
326
330
20A
100
AcDbEntity
  8
0
  6
Continuous
 62
     7
100
AcDbCircle
 10
15.7616241247
 20
11.5811133795
 30
0.0
 40
5.9055118096
  0
CIRCLE
  5
327
330
20A
100
AcDbEntity
  8
0
  6
Continuous
 62
     7
100
AcDbCircle
 10
15.7616241247
 20
11.5811133788
 30
0.0
 40
5.871775806799999
  0
CIRCLE
  5
328
330
20A
100
AcDbEntity
  8
0
  6
Continuous
 62
     7
100
AcDbCircle
 10
15.7616241247
 20
11.5811133792
 30
0.0
 40
5.7907196821
  0
ARC
  5
329
330
20A
100
AcDbEntity
  8
_SURFACE
  6
Continuous
 62
     7
100
AcDbCircle
 10
16.0625609783
 20
11.5807096175
 30
0.0
 40
5.1781297731
100
AcDbArc
 50
171.6974728028
 51
171.9345513789
  0
ARC
  5
32A
330
20A
100
AcDbEntity
  8
0
  6
Continuous
 62
     7
100
AcDbCircle
 10
16.0625609783
 20
11.5815171408
 30
0.0
 40
5.1781297731
100
AcDbArc
 50
188.0654486211
 51
188.3025271972
  0
ARC
  5
32B
330
20A
100
AcDbEntity
  8
0
  6
Continuous
 62
     7
100
AcDbCircle
 10
16.0618911879
 20
11.5808038705
 30
0.0
 40
5.177453386299998
100
AcDbArc
 50
171.9345441459999
 51
173.2625618231
  0
ARC
  5
32C
330
20A
100
AcDbEntity
  8
0
  6
Continuous
 62
     7
100
AcDbCircle
 10
16.0618911879
 20
11.5814228878
 30
0.0
 40
5.177453386299998
100
AcDbArc
 50
186.7374381769
 51
188.065455854
  0
ARC
  5
32D
330
20A
100
AcDbEntity
  8
0
  6
Continuous
 62
     7
100
AcDbCircle
 10
16.0605814361
 20
11.5809610461
 30
0.0
 40
5.176134238999999
100
AcDbArc
 50
173.3266760442
 51
173.6917566545
  0
ARC
  5
32E
330
20A
100
AcDbEntity
  8
0
  6
Continuous
 62
     7
100
AcDbCircle
 10
16.0605814358
 20
11.5812657122
 30
0.0
 40
5.1761342387
100
AcDbArc
 50
186.3082433455
 51
186.6733239558
  0
ARC
  5
32F
330
20A
100
AcDbEntity
  8
0
  6
Continuous
 62
     7
100
AcDbCircle
 10
16.0598903271
 20
11.5810376121
 30
0.0
 40
5.175438901699997
100
AcDbArc
 50
173.691758484
 51
173.9733543175
  0
ARC
  5
330
330
20A
100
AcDbEntity
  8
0
  6
Continuous
 62
     7
100
AcDbCircle
 10
16.0598903267
 20
11.5811891461
 30
0.0
 40
5.175438901299997
100
AcDbArc
 50
186.0266456825
 51
186.308241516
  0
ARC
  5
331
330
20A
100
AcDbEntity
  8
0
  6
Continuous
 62
     7
100
AcDbCircle
 10
15.5604258311
 20
11.5064323498
 30
0.0
 40
4.6704153873
100
AcDbArc
 50
188.2805724725
 51
189.7746434565
  0
ARC
  5
332
330
20A
100
AcDbEntity
  8
_SURFACE
  6
Continuous
 62
     7
100
AcDbCircle
 10
15.560425831
 20
11.6557944085
 30
0.0
 40
4.6704153872
100
AcDbArc
 50
170.2253565434
 51
171.7194275275
  0
ARC
  5
333
330
20A
100
AcDbEntity
  8
_SURFACE
  6
Continuous
 62
     7
100
AcDbCircle
 10
15.0957972896
 20
11.7356985035
 30
0.0
 40
4.198966186799998
100
AcDbArc
 50
169.610042262
 51
170.2203975004
  0
ARC
  5
334
330
20A
100
AcDbEntity
  8
0
  6
Continuous
 62
     7
100
AcDbCircle
 10
15.0957972896
 20
11.4265282549
 30
0.0
 40
4.198966186799998
100
AcDbArc
 50
189.7796024996
 51
190.389957738
  0
CIRCLE
  5
335
330
20A
100
AcDbEntity
  8
0
  6
Continuous
 62
     7
100
AcDbCircle
 10
15.6791630467
 20
11.5811133792
 30
0.0
 40
0.3485935056
  0
CIRCLE
  5
336
330
20A
100
AcDbEntity
  8
0
  6
Continuous
 62
     7
100
AcDbCircle
 10
15.6791630467
 20
11.5811133792
 30
0.0
 40
0.3113034166
  0
CIRCLE
  5
337
330
20A
100
AcDbEntity
  8
0
  6
Continuous
 62
     7
100
AcDbCircle
 10
15.6791630467
 20
11.5811133792
 30
0.0
 40
0.2834645669
  0
ARC
  5
338
330
20A
100
AcDbEntity
  8
0
  6
Continuous
 62
     7
100
AcDbCircle
 10
11.020713027
 20
10.4410884314
 30
0.0
 40
0.0018587766
100
AcDbArc
 50
325.9397022771
 51
329.9503328299
  0
ARC
  5
339
330
20A
100
AcDbEntity
  8
_SURFACE
  6
Continuous
 62
     7
100
AcDbCircle
 10
11.020713027
 20
12.721138327
 30
0.0
 40
0.0018587766
100
AcDbArc
 50
30.0496671704
 51
34.0602977245
  0
SPLINE
  5
363
330
20A
100
AcDbEntity
  8
0
  6
Continuous
 62
     7
100
AcDbSpline
210
0.0
220
0.0
230
1.0
 70
     8
 71
     3
 72
    23
 73
    19
 74
     0
 42
0.0000000001
 43
0.0000000001
 40
0.0
 40
0.0
 40
0.0
 40
0.0
 40
0.0610612465
 40
0.1238962187
 40
0.1868785298
 40
0.2493539454
 40
0.3119760955
 40
0.3747523026
 40
0.4373124370000001
 40
0.5000079831000001
 40
0.5627025432
 40
0.6252631813000003
 40
0.6880381713000002
 40
0.7506592374
 40
0.8131372143
 40
0.8761177959999999
 40
0.9389542590999999
 40
1.0
 40
1.0
 40
1.0
 40
1.0
 10
15.4547535979
 20
11.5811133792
 30
0.0
 10
15.4546776516
 20
11.5667870949
 30
0.0
 10
15.4574980015
 20
11.5376279686
 30
0.0
 10
15.4702333655
 20
11.495394759
 30
0.0
 10
15.4910443395
 20
11.4560976764
 30
0.0
 10
15.5191572385
 20
11.4217127984
 30
0.0
 10
15.5533970219
 20
11.3935026553
 30
0.0
 10
15.5925191653
 20
11.3725331182
 30
0.0
 10
15.6350000965
 20
11.3596186197
 30
0.0
 10
15.6791684987
 20
11.3552444782
 30
0.0
 10
15.723336795
 20
11.3596207803
 30
0.0
 10
15.7658167259
 20
11.3725372134
 30
0.0
 10
15.8049375055
 20
11.3935083691
 30
0.0
 10
15.8391761072
 20
11.4217200241
 30
0.0
 10
15.867287407
 20
11.4561061736
 30
0.0
 10
15.888096796
 20
11.4954046785
 30
0.0
 10
15.9008291735
 20
11.5376349568
 30
0.0
 10
15.9036483902
 20
11.5667907327
 30
0.0
 10
15.9035724955
 20
11.5811133792
 30
0.0
  0
SPLINE
  5
364
330
20A
100
AcDbEntity
  8
0
  6
Continuous
 62
     7
100
AcDbSpline
210
0.0
220
0.0
230
1.0
 70
     8
 71
     3
 72
    23
 73
    19
 74
     0
 42
0.0000000001
 43
0.0000000001
 40
0.0
 40
0.0
 40
0.0
 40
0.0
 40
0.0610612465
 40
0.1238962187
 40
0.1868785298
 40
0.2493539454
 40
0.3119760955
 40
0.3747523026
 40
0.4373124370000001
 40
0.5000079831000001
 40
0.5627025432
 40
0.6252631813000003
 40
0.6880381713000002
 40
0.7506592374
 40
0.8131372143
 40
0.8761177959999999
 40
0.9389542590999999
 40
1.0
 40
1.0
 40
1.0
 40
1.0
 10
15.4547535979
 20
11.5811133792
 30
0.0
 10
15.4546776516
 20
11.5954396634
 30
0.0
 10
15.4574980015
 20
11.6245987898
 30
0.0
 10
15.4702333655
 20
11.6668319993
 30
0.0
 10
15.4910443395
 20
11.7061290819
 30
0.0
 10
15.5191572385
 20
11.7405139599
 30
0.0
 10
15.5533970219
 20
11.768724103
 30
0.0
 10
15.5925191653
 20
11.7896936401
 30
0.0
 10
15.6350000965
 20
11.8026081386
 30
0.0
 10
15.6791684987
 20
11.8069822801
 30
0.0
 10
15.723336795
 20
11.802605978
 30
0.0
 10
15.7658167259
 20
11.7896895449
 30
0.0
 10
15.8049375055
 20
11.7687183892
 30
0.0
 10
15.8391761072
 20
11.7405067342
 30
0.0
 10
15.867287407
 20
11.7061205847
 30
0.0
 10
15.888096796
 20
11.6668220798
 30
0.0
 10
15.9008291735
 20
11.6245918015
 30
0.0
 10
15.9036483902
 20
11.5954360256
 30
0.0
 10
15.9035724955
 20
11.5811133792
 30
0.0
  0
LINE
  5
365
330
20A
100
AcDbEntity
  8
_SURFACE
  6
Continuous
 62
     7
100
AcDbLine
 10
10.9578486687
 20
12.448929356
 30
0.0
 11
10.9578102611
 21
12.4487066389
 31
0.0
  0
LINE
  5
366
330
20A
100
AcDbEntity
  8
0
  6
Continuous
 62
     7
100
AcDbLine
 10
10.9195162208
 20
12.1824709065
 30
0.0
 11
10.9201922458
 21
12.1882209889
 31
0.0
  0
SPLINE
  5
367
330
20A
100
AcDbEntity
  8
0
  6
Continuous
 62
     7
100
AcDbSpline
210
0.0
220
0.0
230
1.0
 70
     8
 71
     3
 72
    39
 73
    35
 74
     0
 42
0.0000000001
 43
0.0000000001
 40
0.0
 40
0.0
 40
0.0
 40
0.0
 40
0.0313033548
 40
0.0626059036
 40
0.0939069645
 40
0.1252057663
 40
0.1565016359
 40
0.1877939227
 40
0.2190822681
 40
0.2503661588
 40
0.2816452295
 40
0.3129193131
 40
0.3441882594
 40
0.3754519354
 40
0.4067103368
 40
0.4379635803000001
 40
0.4692119139
 40
0.5004555778000001
 40
0.5316949388000002
 40
0.5629302555
 40
0.5941618160000001
 40
0.6253901824
 40
0.6566156823
 40
0.6878386793000001
 40
0.7190594569
 40
0.7502785754000004
 40
0.7814962202000002
 40
0.8127126918
 40
0.8439283624999999
 40
0.8751434273999999
 40
0.9063579995999999
 40
0.9375722059
 40
0.9687861711
 40
1.0
 40
1.0
 40
1.0
 40
1.0
 10
21.328394105
 20
11.5811133792
 30
0.0
 10
21.3283958588
 20
11.742975661
 30
0.0
 10
21.3132692333
 20
12.0668994865
 30
0.0
 10
21.2454067748
 20
12.5483826373
 30
0.0
 10
21.1329699902
 20
13.0214664341
 30
0.0
 10
20.9769574667
 20
13.4819718469
 30
0.0
 10
20.7787518948
 20
13.9259063605
 30
0.0
 10
20.5401060157
 20
14.3494124304
 30
0.0
 10
20.2631251075
 20
14.7488244703
 30
0.0
 10
19.9502454859
 20
15.120694584
 30
0.0
 10
19.6042116006
 20
15.461823577
 30
0.0
 10
19.2280490391
 20
15.7692876057
 30
0.0
 10
18.8250366883
 20
16.0404612698
 30
0.0
 10
18.3986775323
 20
16.2730387833
 30
0.0
 10
17.9526662185
 20
16.4650507912
 30
0.0
 10
17.4908569772
 20
16.6148809713
 30
0.0
 10
17.0172301197
 20
16.7212754007
 30
0.0
 10
16.5358587413
 20
16.7833518573
 30
0.0
 10
16.0508758184
 20
16.8006049334
 30
0.0
 10
15.5664401214
 20
16.7729088181
 30
0.0
 10
15.0867013085
 20
16.7005188603
 30
0.0
 10
14.6157669017
 20
16.5840666319
 30
0.0
 10
14.1576690619
 20
16.4245554066
 30
0.0
 10
13.7163333455
 20
16.2233530918
 30
0.0
 10
13.2955435579
 20
15.9821812655
 30
0.0
 10
12.8989133978
 20
15.7031005846
 30
0.0
 10
12.5298546392
 20
15.3884959647
 30
0.0
 10
12.1915490553
 20
15.0410580055
 30
0.0
 10
11.8869200745
 20
14.6637616586
 30
0.0
 10
11.6186074984
 20
14.2598413212
 30
0.0
 10
11.3889446675
 20
13.8327713401
 30
0.0
 10
11.1999316887
 20
13.3862133208
 30
0.0
 10
11.0532336955
 20
12.9240716375
 30
0.0
 10
10.9844796618
 20
12.6081142781
 30
0.0
 10
10.9575391613
 20
12.4489792274
 30
0.0
  0
SPLINE
  5
368
330
20A
100
AcDbEntity
  8
0
  6
Continuous
 62
     7
100
AcDbSpline
210
0.0
220
0.0
230
1.0
 70
     8
 71
     3
 72
    39
 73
    35
 74
     0
 42
0.0000000001
 43
0.0000000001
 40
0.0
 40
0.0
 40
0.0
 40
0.0
 40
0.0312502146
 40
0.0625003995
 40
0.0937505499
 40
0.1250006588
 40
0.1562507271
 40
0.1875007508
 40
0.2187507389
 40
0.2500006907
 40
0.2812506118
 40
0.312500507
 40
0.3437503817
 40
0.3750002405
 40
0.4062500897
 40
0.4374999352000001
 40
0.4687497829
 40
0.4999996378000002
 40
0.5312495039
 40
0.5624993820000001
 40
0.5937492808
 40
0.6249991991
 40
0.6562491418000001
 40
0.6874991051000002
 40
0.7187490959999999
 40
0.7499991117000003
 40
0.7812491525000002
 40
0.8124992181999999
 40
0.8437493071999998
 40
0.8749994173999999
 40
0.9062495462999999
 40
0.9374996928999999
 40
0.9687498459999998
 40
1.0
 40
1.0
 40
1.0
 40
1.0
 10
19.9661647299
 20
11.5811133792
 30
0.0
 10
19.9661658941
 20
11.7219070222
 30
0.0
 10
19.9523626349
 20
12.0036891641
 30
0.0
 10
19.8904227807
 20
12.4221544728
 30
0.0
 10
19.7878152948
 20
12.8325893
 30
0.0
 10
19.6455053386
 20
13.2309909057
 30
0.0
 10
19.46484482289999
 20
13.6135351261
 30
0.0
 10
19.2475604202
 20
13.9765297094
 30
0.0
 10
18.9957347104
 20
14.3164729777
 30
0.0
 10
18.7117866417
 20
14.6300824218
 30
0.0
 10
18.398449744
 20
14.9143308803
 30
0.0
 10
18.058741801
 20
15.1664728027
 30
0.0
 10
17.6959377161
 20
15.3840734966
 30
0.0
 10
17.3135365385
 20
15.5650321894
 30
0.0
 10
16.9152274978
 20
15.7076032513
 30
0.0
 10
16.5048531604
 20
15.8104110507
 30
0.0
 10
16.0863729438
 20
15.8724657594
 30
0.0
 10
15.6638238398
 20
15.8931718142
 30
0.0
 10
15.2412812851
 20
15.8723320024
 30
0.0
 10
14.8228196126
 20
15.810152126
 30
0.0
 10
14.4124720224
 20
15.7072374667
 30
0.0
 10
14.0141923822
 20
15.5645840081
 30
0.0
 10
13.6318163
 20
15.3835722318
 30
0.0
 10
13.2690239723
 20
15.1659520445
 30
0.0
 10
12.9293057244
 20
14.9138241582
 30
0.0
 10
12.6159291073
 20
14.6296196862
 30
0.0
 10
12.3319055521
 20
14.3160788914
 30
0.0
 10
12.0799653438
 20
13.9762207016
 30
0.0
 10
11.8625301881
 20
13.6133165052
 30
0.0
 10
11.6816905389
 20
13.230856867
 30
0.0
 10
11.5391870578
 20
12.8325240861
 30
0.0
 10
11.4363948363
 20
12.4221345288
 30
0.0
 10
11.374310989
 20
12.0036891592
 30
0.0
 10
11.3604652479
 20
11.7219067489
 30
0.0
 10
11.3604665103
 20
11.5811133792
 30
0.0
  0
LINE
  5
369
330
20A
100
AcDbEntity
  8
0
  6
Continuous
 62
     7
100
AcDbLine
 10
10.8967155427
 20
11.5811133632
 30
0.0
 11
11.0066023766
 21
11.5811133908
 31
0.0
  0
LINE
  5
36A
330
20A
100
AcDbEntity
  8
0
  6
Continuous
 62
     7
100
AcDbLine
 10
10.8845822786
 20
11.5811133787
 30
0.0
 11
10.8857742351
 21
11.5811133788
 31
0.0
  0
LINE
  5
36B
330
20A
100
AcDbEntity
  8
0
  6
Continuous
 62
     7
100
AcDbLine
 10
10.8857742351
 20
11.5811133788
 30
0.0
 11
10.8967155427
 21
11.5811133804
 31
0.0
  0
SPLINE
  5
36C
330
20A
100
AcDbEntity
  8
0
  6
Continuous
 62
     7
100
AcDbSpline
210
0.0
220
0.0
230
1.0
 70
     8
 71
     3
 72
    15
 73
    11
 74
     0
 42
0.0000000001
 43
0.0000000001
 40
0.0
 40
0.0
 40
0.0
 40
0.0
 40
0.1049482525
 40
0.223869939
 40
0.3565292547999999
 40
0.4979820031
 40
0.6409463259
 40
0.7772148938
 40
0.898846177
 40
1.0
 40
1.0
 40
1.0
 40
1.0
 10
10.9356508785
 20
12.3072223849
 30
0.0
 10
10.9352956116
 20
12.3018887777
 30
0.0
 10
10.9368618978
 20
12.290354637
 30
0.0
 10
10.9437577755
 20
12.2734648079
 30
0.0
 10
10.9539009041
 20
12.256158976
 30
0.0
 10
10.9660609359
 20
12.2387300439
 30
0.0
 10
10.9788634723
 20
12.2215521024
 30
0.0
 10
10.9908868953
 20
12.2050353129
 30
0.0
 10
11.0006986427
 20
12.1896082464
 30
0.0
 10
11.0053784381
 20
12.1791178139
 30
0.0
 10
11.0066023766
 20
12.1741131424
 30
0.0
  0
SPLINE
  5
36D
330
20A
100
AcDbEntity
  8
0
  6
Continuous
 62
     7
100
AcDbSpline
210
0.0
220
0.0
230
1.0
 70
     8
 71
     3
 72
    14
 73
    10
 74
     0
 42
0.0000000001
 43
0.0000000001
 40
0.0
 40
0.0
 40
0.0
 40
0.0
 40
0.2244472985
 40
0.356610519
 40
0.4970234983
 40
0.6389533932
 40
0.7747309809999999
 40
0.8969126411999999
 40
1.0
 40
1.0
 40
1.0
 40
1.0
 10
10.9387010151
 20
12.328430726
 30
0.0
 10
10.9378521419
 20
12.3169076957
 30
0.0
 10
10.9435561648
 20
12.2984044036
 30
0.0
 10
10.9557072336
 20
12.2760586169
 30
0.0
 10
10.9673605257
 20
12.258117943
 30
0.0
 10
10.9796702239
 20
12.2404794492
 30
0.0
 10
10.9912896015
 20
12.2234705291
 30
0.0
 10
11.0008279757
 20
12.2075208619
 30
0.0
 10
11.0053750964
 20
12.1967184391
 30
0.0
 10
11.0066023766
 20
12.1915554997
 30
0.0
  0
SPLINE
  5
36E
330
20A
100
AcDbEntity
  8
0
  6
Continuous
 62
     7
100
AcDbSpline
210
0.0
220
0.0
230
1.0
 70
     8
 71
     3
 72
    14
 73
    10
 74
     0
 42
0.0000000001
 43
0.0000000001
 40
0.0
 40
0.0
 40
0.0
 40
0.0
 40
0.1187572716
 40
0.2418645375
 40
0.3696330328
 40
0.5007487252000004
 40
0.7618931831
 40
0.8852232867000001
 40
1.0
 40
1.0
 40
1.0
 40
1.0
 10
10.9656811375
 20
12.4929683418
 30
0.0
 10
10.9650626716
 20
12.4863397894
 30
0.0
 10
10.9649409739
 20
12.4727156743
 30
0.0
 10
10.9677355686
 20
12.4521315162
 30
0.0
 10
10.9729400633
 20
12.4313280419
 30
0.0
 10
10.9821083206
 20
12.4036390786
 30
0.0
 10
10.992873892
 20
12.3768034875
 30
0.0
 10
11.0020523971
 20
12.3503580614
 30
0.0
 10
11.0054304605
 20
12.3374101586
 30
0.0
 10
11.0066023766
 20
12.3310835857
 30
0.0
  0
SPLINE
  5
36F
330
20A
100
AcDbEntity
  8
0
  6
Continuous
 62
     7
100
AcDbSpline
210
0.0
220
0.0
230
1.0
 70
     8
 71
     3
 72
    39
 73
    35
 74
     0
 42
0.0000000001
 43
0.0000000001
 40
0.0
 40
0.0
 40
0.0
 40
0.0
 40
0.0312502146
 40
0.0625003995
 40
0.0937505499
 40
0.1250006588
 40
0.1562507271
 40
0.1875007508
 40
0.2187507389
 40
0.2500006907
 40
0.2812506118
 40
0.312500507
 40
0.3437503817
 40
0.3750002405
 40
0.4062500897
 40
0.4374999352000001
 40
0.4687497829
 40
0.4999996378000002
 40
0.5312495039
 40
0.5624993820000001
 40
0.5937492808
 40
0.6249991991
 40
0.6562491418000001
 40
0.6874991051000002
 40
0.7187490959999999
 40
0.7499991117000003
 40
0.7812491525000002
 40
0.8124992181999999
 40
0.8437493071999998
 40
0.8749994173999999
 40
0.9062495462999999
 40
0.9374996928999999
 40
0.9687498459999998
 40
1.0
 40
1.0
 40
1.0
 40
1.0
 10
19.9661647299
 20
11.5811133792
 30
0.0
 10
19.9661659396
 20
11.4403197361
 30
0.0
 10
19.9523626136
 20
11.1585375942
 30
0.0
 10
19.8904227864
 20
10.7400722855
 30
0.0
 10
19.7878152933
 20
10.3296374583
 30
0.0
 10
19.6455053391
 20
9.9312358526
 30
0.0
 10
19.4648448228
 20
9.5486916322
 30
0.0
 10
19.2475604202
 20
9.185697048899999
 30
0.0
 10
18.9957347104
 20
8.845753780599999
 30
0.0
 10
18.7117866417
 20
8.5321443365
 30
0.0
 10
18.398449744
 20
8.247895877999999
 30
0.0
 10
18.058741801
 20
7.9957539557
 30
0.0
 10
17.6959377161
 20
7.778153261699999
 30
0.0
 10
17.3135365385
 20
7.5971945689
 30
0.0
 10
16.9152274978
 20
7.454623507
 30
0.0
 10
16.5048531604
 20
7.3518157077
 30
0.0
 10
16.0863729438
 20
7.2897609989
 30
0.0
 10
15.6638238398
 20
7.269054944099996
 30
0.0
 10
15.2412812851
 20
7.2898947559
 30
0.0
 10
14.8228196126
 20
7.352074632299999
 30
0.0
 10
14.4124720224
 20
7.454989291599996
 30
0.0
 10
14.0141923822
 20
7.597642750199997
 30
0.0
 10
13.6318163
 20
7.778654526599996
 30
0.0
 10
13.2690239723
 20
7.9962747138
 30
0.0
 10
12.9293057244
 20
8.2484026002
 30
0.0
 10
12.6159291073
 20
8.532607072100001
 30
0.0
 10
12.3319055521
 20
8.8461478669
 30
0.0
 10
12.0799653438
 20
9.1860060568
 30
0.0
 10
11.8625301882
 20
9.548910253099998
 30
0.0
 10
11.6816905384
 20
9.931369891299999
 30
0.0
 10
11.5391870596
 20
10.3297026722
 30
0.0
 10
11.4363948296
 20
10.7400922295
 30
0.0
 10
11.374311014
 20
11.1585375992
 30
0.0
 10
11.3604651946
 20
11.4403200094
 30
0.0
 10
11.3604665103
 20
11.5811133792
 30
0.0
  0
SPLINE
  5
370
330
20A
100
AcDbEntity
  8
0
  6
Continuous
 62
     7
100
AcDbSpline
210
0.0
220
0.0
230
1.0
 70
     8
 71
     3
 72
    39
 73
    35
 74
     0
 42
0.0000000001
 43
0.0000000001
 40
0.0
 40
0.0
 40
0.0
 40
0.0
 40
0.0313033548
 40
0.0626059036
 40
0.0939069645
 40
0.1252057663
 40
0.1565016359
 40
0.1877939227
 40
0.2190822681
 40
0.2503661588
 40
0.2816452295
 40
0.3129193131
 40
0.3441882594
 40
0.3754519354
 40
0.4067103368
 40
0.4379635803000001
 40
0.4692119139
 40
0.5004555778000001
 40
0.5316949388000002
 40
0.5629302555
 40
0.5941618160000001
 40
0.6253901824
 40
0.6566156823
 40
0.6878386793000001
 40
0.7190594569
 40
0.7502785754000004
 40
0.7814962202000002
 40
0.8127126918
 40
0.8439283624999999
 40
0.8751434273999999
 40
0.9063579995999999
 40
0.9375722059
 40
0.9687861711
 40
1.0
 40
1.0
 40
1.0
 40
1.0
 10
21.328394105
 20
11.5811133792
 30
0.0
 10
21.3283958588
 20
11.4192510973
 30
0.0
 10
21.3132692333
 20
11.0953272718
 30
0.0
 10
21.2454067748
 20
10.613844121
 30
0.0
 10
21.1329699902
 20
10.1407603242
 30
0.0
 10
20.9769574667
 20
9.6802549114
 30
0.0
 10
20.7787518948
 20
9.2363203978
 30
0.0
 10
20.5401060157
 20
8.812814327999998
 30
0.0
 10
20.2631251075
 20
8.413402288
 30
0.0
 10
19.9502454859
 20
8.0415321743
 30
0.0
 10
19.6042116006
 20
7.700403181399997
 30
0.0
 10
19.2280490391
 20
7.3929391526
 30
0.0
 10
18.8250366883
 20
7.1217654885
 30
0.0
 10
18.3986775323
 20
6.889187974999997
 30
0.0
 10
17.9526662185
 20
6.6971759671
 30
0.0
 10
17.4908569772
 20
6.547345787
 30
0.0
 10
17.0172301197
 20
6.440951357599997
 30
0.0
 10
16.5358587413
 20
6.378874901
 30
0.0
 10
16.0508758184
 20
6.361621825
 30
0.0
 10
15.5664401214
 20
6.389317940199997
 30
0.0
 10
15.0867013085
 20
6.461707897999999
 30
0.0
 10
14.6157669017
 20
6.5781601264
 30
0.0
 10
14.1576690619
 20
6.737671351799999
 30
0.0
 10
13.7163333455
 20
6.9388736665
 30
0.0
 10
13.2955435579
 20
7.180045492899999
 30
0.0
 10
12.8989133978
 20
7.459126173699997
 30
0.0
 10
12.5298546392
 20
7.7737307937
 30
0.0
 10
12.1915490553
 20
8.121168752799999
 30
0.0
 10
11.8869200745
 20
8.4984650997
 30
0.0
 10
11.6186074984
 20
8.902385437099997
 30
0.0
 10
11.3889446675
 20
9.3294554183
 30
0.0
 10
11.1999316887
 20
9.776013437499999
 30
0.0
 10
11.0532336955
 20
10.2381551208
 30
0.0
 10
10.9844796618
 20
10.5541124802
 30
0.0
 10
10.9575391613
 20
10.7132475309
 30
0.0
  0
SPLINE
  5
371
330
20A
100
AcDbEntity
  8
0
  6
Continuous
 62
     7
100
AcDbSpline
210
0.0
220
0.0
230
1.0
 70
     8
 71
     3
 72
    39
 73
    35
 74
     0
 42
0.0000000001
 43
0.0000000001
 40
0.0
 40
0.0
 40
0.0
 40
0.0
 40
0.0312488608
 40
0.0624976615
 40
0.0937464476
 40
0.1249952265
 40
0.1562440965
 40
0.1874931003
 40
0.218742212
 40
0.2499913271
 40
0.2812406166
 40
0.3124901254
 40
0.3437396302
 40
0.3749893746000001
 40
0.4062392279
 40
0.4374891536
 40
0.4687390606000001
 40
0.4999891426
 40
0.5312392912
 40
0.5624894103
 40
0.5937395836000002
 40
0.6249897947
 40
0.6562401562
 40
0.6874906648000004
 40
0.7187412939
 40
0.7499919337000001
 40
0.7812427171
 40
0.8124936729999998
 40
0.8437445929999999
 40
0.8749956754000001
 40
0.9062468076
 40
0.9374979448000001
 40
0.9687489840999999
 40
1.0
 40
1.0
 40
1.0
 40
1.0
 10
10.8085948358
 20
11.5811134056
 30
0.0
 10
10.8085932394
 20
11.7540704299
 30
0.0
 10
10.8256391242
 20
12.1002256254
 30
0.0
 10
10.9020744328
 20
12.6142409054
 30
0.0
 10
11.0286216327
 20
13.1183164719
 30
0.0
 10
11.2040383401
 20
13.6075209617
 30
0.0
 10
11.4266120493
 20
14.0771561508
 30
0.0
 10
11.6941781356
 20
14.5226951185
 30
0.0
 10
12.0041401512
 20
14.9398534978
 30
0.0
 10
12.3534969567
 20
15.3246239696
 30
0.0
 10
12.7388727142
 20
15.6733154571
 30
0.0
 10
13.1565503688
 20
15.98258454
 30
0.0
 10
13.6025063286
 20
16.2494691637
 30
0.0
 10
14.0724486039
 20
16.471415172
 30
0.0
 10
14.5618606364
 20
16.6462974649
 30
0.0
 10
15.0660392634
 20
16.772442653
 30
0.0
 10
15.5801436907
 20
16.8486434019
 30
0.0
 10
16.0992387391
 20
16.8741693125
 30
0.0
 10
16.6183413928
 20
16.8487720904
 30
0.0
 10
17.1324669114
 20
16.7726916503
 30
0.0
 10
17.6366770237
 20
16.6466516472
 30
0.0
 10
18.1261270449
 20
16.4718536461
 30
0.0
 10
18.5961099468
 20
16.2499660937
 30
0.0
 10
19.0421018308
 20
15.9831100667
 30
0.0
 10
19.4598038568
 20
15.6738399038
 30
0.0
 10
19.8451865589
 20
15.3251204444
 30
0.0
 10
20.1945284247
 20
14.9402987233
 30
0.0
 10
20.5044504796
 20
14.5230721424
 30
0.0
 10
20.7719529833
 20
14.0774557025
 30
0.0
 10
20.9944445044
 20
13.6077414396
 30
0.0
 10
21.169767146
 20
13.1184625135
 30
0.0
 10
21.2962214752
 20
12.6143245262
 30
0.0
 10
21.3725825915
 20
12.1002614745
 30
0.0
 10
21.3896067967
 20
11.7540823313
 30
0.0
 10
21.3896050039
 20
11.5811133792
 30
0.0
  0
LINE
  5
372
330
20A
100
AcDbEntity
  8
0
  6
Continuous
 62
     7
100
AcDbLine
 10
10.9195162208
 20
10.9797558518
 30
0.0
 11
10.9201922458
 21
10.9740057694
 31
0.0
  0
SPLINE
  5
373
330
20A
100
AcDbEntity
  8
0
  6
Continuous
 62
     7
100
AcDbSpline
210
0.0
220
0.0
230
1.0
 70
     8
 71
     3
 72
    39
 73
    35
 74
     0
 42
0.0000000001
 43
0.0000000001
 40
0.0
 40
0.0
 40
0.0
 40
0.0
 40
0.0312500579
 40
0.062500097
 40
0.093750123
 40
0.1250001353
 40
0.1562501387
 40
0.18750013
 40
0.218750118
 40
0.2500001001
 40
0.2812500789
 40
0.3125000557
 40
0.3437500315
 40
0.3750000064
 40
0.4062499820000001
 40
0.4374999592
 40
0.4687499396
 40
0.4999999236
 40
0.5312499116
 40
0.5624999005
 40
0.5937498962
 40
0.6249998952000002
 40
0.6562499003
 40
0.6874999060000003
 40
0.7187499181999999
 40
0.7499999331
 40
0.7812499504000005
 40
0.8124999690999999
 40
0.8437499877
 40
0.8750000037999999
 40
0.9062500153
 40
0.9375000229999999
 40
0.9687500181999999
 40
1.0
 40
1.0
 40
1.0
 40
1.0
 10
19.7022541363
 20
11.5811133792
 30
0.0
 10
19.7022553204
 20
11.7134012959
 30
0.0
 10
19.6892887062
 20
11.9781602447
 30
0.0
 10
19.6310981201
 20
12.3713461725
 30
0.0
 10
19.5346957813
 20
12.7569876287
 30
0.0
 10
19.4009861484
 20
13.1313227508
 30
0.0
 10
19.2312383049
 20
13.4907571935
 30
0.0
 10
19.0270744502
 20
13.8318206211
 30
0.0
 10
18.7904518942
 20
14.1512220206
 30
0.0
 10
18.5236443691
 20
14.4458765999
 30
0.0
 10
18.2292215761
 20
14.7129400382
 30
0.0
 10
17.9100201718
 20
14.9498328274
 30
0.0
 10
17.5691184889
 20
15.1542681286
 30
0.0
 10
17.2098050663
 20
15.3242728296
 30
0.0
 10
16.8355470237
 20
15.4582080065
 30
0.0
 10
16.4499550908
 20
15.5547820963
 30
0.0
 10
16.0567496026
 20
15.6130664445
 30
0.0
 10
15.6597233973
 20
15.6325026001
 30
0.0
 10
15.2627051518
 20
15.6129063936
 30
0.0
 10
14.8695222563
 20
15.5544720153
 30
0.0
 10
14.4839631398
 20
15.4577692232
 30
0.0
 10
14.1097415778
 20
15.3237341486
 30
0.0
 10
13.7504599761
 20
15.1536643084
 30
0.0
 10
13.4095747269
 20
14.9492037275
 30
0.0
 10
13.0903637351
 20
14.7123258522
 30
0.0
 10
12.7958960165
 20
14.4453137935
 30
0.0
 10
12.5290001463
 20
14.1507409437
 30
0.0
 10
12.2922414537
 20
13.8314418565
 30
0.0
 10
12.0878961245
 20
13.4904881549
 30
0.0
 10
11.9179305989
 20
13.1311571682
 30
0.0
 10
11.7839840417
 20
12.75690675
 30
0.0
 10
11.6873539961
 20
12.3713213411
 30
0.0
 10
11.6289847368
 20
11.9781602549
 30
0.0
 10
11.6159649422
 20
11.7134009738
 30
0.0
 10
11.6159662947
 20
11.5811133792
 30
0.0
  0
SPLINE
  5
374
330
20A
100
AcDbEntity
  8
0
  6
Continuous
 62
     7
100
AcDbSpline
210
0.0
220
0.0
230
1.0
 70
     8
 71
     3
 72
    23
 73
    19
 74
     0
 42
0.0000000001
 43
0.0000000001
 40
0.0
 40
0.0
 40
0.0
 40
0.0
 40
0.0625007854
 40
0.125000707
 40
0.187500646
 40
0.2500005865
 40
0.3125005266
 40
0.3750004661
 40
0.4375004065
 40
0.5000003468000001
 40
0.5625002861000003
 40
0.6250002260000001
 40
0.6875001662000001
 40
0.7500001055
 40
0.8125000448999999
 40
0.8749999854
 40
0.9374999598
 40
1.0
 40
1.0
 40
1.0
 40
1.0
 10
16.0965648132
 20
11.5811133792
 30
0.0
 10
16.0965648148
 20
11.6083869676
 30
0.0
 10
16.0911495325
 20
11.6630815281
 30
0.0
 10
16.0672594072
 20
11.7418588896
 30
0.0
 10
16.0284375701
 20
11.8144890588
 30
0.0
 10
15.9761981432
 20
11.8781424834
 30
0.0
 10
15.9125426867
 20
11.9303833538
 30
0.0
 10
15.8399190821
 20
11.9692013167
 30
0.0
 10
15.7611177869
 20
11.9931053596
 30
0.0
 10
15.6791672106
 20
12.0011766159
 30
0.0
 10
15.597216674
 20
11.9931050058
 30
0.0
 10
15.5184154657
 20
11.9692006492
 30
0.0
 10
15.4457920677
 20
11.9303823423
 30
0.0
 10
15.3821367764
 20
11.8781411477
 30
0.0
 10
15.3298980826
 20
11.8144874181
 30
0.0
 10
15.29107513
 20
11.741857139
 30
0.0
 10
15.2671911837
 20
11.6630794443
 30
0.0
 10
15.2617612802
 20
11.6083866424
 30
0.0
 10
15.26176128
 20
11.5811133792
 30
0.0
  0
LINE
  5
375
330
20A
100
AcDbEntity
  8
0
  6
Continuous
 62
     7
100
AcDbLine
 10
10.9578486687
 20
10.7132974023
 30
0.0
 11
10.9578102611
 21
10.7135201194
 31
0.0
  0
SPLINE
  5
376
330
20A
100
AcDbEntity
  8
0
  6
Continuous
 62
     7
100
AcDbSpline
210
0.0
220
0.0
230
1.0
 70
     8
 71
     3
 72
    19
 73
    15
 74
     0
 42
0.0000000001
 43
0.0000000001
 40
0.0
 40
0.0
 40
0.0
 40
0.0
 40
0.2092385234
 40
0.4010402957000001
 40
0.5715595462
 40
0.7172969055
 40
0.7798846001000001
 40
0.8351506827999999
 40
0.8827808409999999
 40
0.9225057384999999
 40
0.9541086458
 40
0.9774338455
 40
0.9923817177
 40
1.0
 40
1.0
 40
1.0
 40
1.0
 10
10.9656811508
 20
10.6692583439
 30
0.0
 10
10.9686634409
 20
10.6529966108
 30
0.0
 10
10.9745698646
 20
10.6218627685
 30
0.0
 10
10.9835830715
 20
10.5776081243
 30
0.0
 10
10.99217823
 20
10.5383934575
 30
0.0
 10
10.9990865583
 20
10.5092648024
 30
0.0
 10
11.004244652
 20
10.4890857637
 30
0.0
 10
11.0076535593
 20
10.476461179
 30
0.0
 10
11.0107697907
 20
10.4656325503
 30
0.0
 10
11.0135743429
 20
10.4566549158
 30
0.0
 10
11.0160102961
 20
10.4495963493
 30
0.0
 10
11.0181120304
 20
10.4444504118
 30
0.0
 10
11.0197087803
 20
10.4412631862
 30
0.0
 10
11.0209774414
 20
10.4398213944
 30
0.0
 10
11.0215509255
 20
10.4396384515
 30
0.0
  0
SPLINE
  5
377
330
20A
100
AcDbEntity
  8
0
  6
Continuous
 62
     7
100
AcDbSpline
210
0.0
220
0.0
230
1.0
 70
     8
 71
     3
 72
     9
 73
     5
 74
     0
 42
0.0000000001
 43
0.0000000001
 40
0.0
 40
0.0
 40
0.0
 40
0.0
 40
0.4743899108
 40
1.0
 40
1.0
 40
1.0
 40
1.0
 10
11.0215509255
 20
10.4396384515
 30
0.0
 10
11.0215609104
 20
10.4396362987
 30
0.0
 10
11.0215815553
 20
10.4396298005
 30
0.0
 10
11.021600977
 20
10.439620353
 30
0.0
 10
11.0216108597
 20
10.4396148383
 30
0.0
  0
LINE
  5
378
330
20A
100
AcDbEntity
  8
0
  6
Continuous
 62
     7
100
AcDbLine
 10
11.0217406564
 20
10.4396470305
 30
0.0
 11
11.0216108597
 21
10.4396148383
 31
0.0
  0
LINE
  5
379
330
20A
100
AcDbEntity
  8
0
  6
Continuous
 62
     7
100
AcDbLine
 10
11.0219505358
 20
10.4397360685
 30
0.0
 11
11.0217402436
 21
10.4396469345
 31
0.0
  0
SPLINE
  5
37A
330
20A
100
AcDbEntity
  8
0
  6
Continuous
 62
     7
100
AcDbSpline
210
0.0
220
0.0
230
1.0
 70
     8
 71
     3
 72
     9
 73
     5
 74
     0
 42
0.0000000001
 43
0.0000000001
 40
0.0
 40
0.0
 40
0.0
 40
0.0
 40
0.5070462053
 40
1.0
 40
1.0
 40
1.0
 40
1.0
 10
11.0220300634
 20
10.4397944373
 30
0.0
 10
11.0220172227
 20
10.4397837899
 30
0.0
 10
11.0219912985
 20
10.4397635015
 30
0.0
 10
11.0219641842
 20
10.4397448275
 30
0.0
 10
11.0219505359
 20
10.4397360683
 30
0.0
  0
LINE
  5
37B
330
20A
100
AcDbEntity
  8
0
  6
Continuous
 62
     7
100
AcDbLine
 10
11.022106973
 20
10.4398657845
 30
0.0
 11
11.0220300634
 21
10.4397944372
 31
0.0
  0
LINE
  5
37C
330
20A
100
AcDbEntity
  8
0
  6
Continuous
 62
     7
100
AcDbLine
 10
11.022181262
 20
10.4399501056
 30
0.0
 11
11.022106973
 21
10.4398657844
 31
0.0
  0
LINE
  5
37D
330
20A
100
AcDbEntity
  8
0
  6
Continuous
 62
     7
100
AcDbLine
 10
11.0222529279
 20
10.4400473956
 30
0.0
 11
11.022181262
 21
10.4399501055
 31
0.0
  0
LINE
  5
37E
330
20A
100
AcDbEntity
  8
0
  6
Continuous
 62
     7
100
AcDbLine
 10
11.0224830956
 20
10.4404900054
 30
0.0
 11
11.0223219686
 21
10.4401576479
 31
0.0
  0
LINE
  5
37F
330
20A
100
AcDbEntity
  8
0
  6
Continuous
 62
     7
100
AcDbLine
 10
11.0072854973
 20
10.5738341015
 30
0.0
 11
11.0079029357
 21
10.5697941568
 31
0.0
  0
LINE
  5
380
330
20A
100
AcDbEntity
  8
0
  6
Continuous
 62
     7
100
AcDbLine
 10
11.0079029357
 20
10.5697941568
 30
0.0
 11
11.0080270835
 21
10.5689802067
 31
0.0
  0
SPLINE
  5
381
330
20A
100
AcDbEntity
  8
0
  6
Continuous
 62
     7
100
AcDbSpline
210
0.0
220
0.0
230
1.0
 70
     8
 71
     3
 72
    17
 73
    13
 74
     0
 42
0.0000000001
 43
0.0000000001
 40
0.0
 40
0.0
 40
0.0
 40
0.0
 40
0.2080408856
 40
0.3954855844
 40
0.5604465811
 40
0.7012591205
 40
0.816496427
 40
0.9050566557999999
 40
0.9390848166999999
 40
0.9662024653999999
 40
0.9864451448999995
 40
1.0
 40
1.0
 40
1.0
 40
1.0
 10
11.0080270835
 20
10.5689802067
 30
0.0
 10
11.0093812339
 20
10.5600988896
 30
0.0
 10
11.0119272229
 20
10.5432111822
 30
0.0
 10
11.0154078325
 20
10.5192604407
 30
0.0
 10
11.018304457
 20
10.4981592237
 30
0.0
 10
11.0205692141
 20
10.4801190127
 30
0.0
 10
11.0221573757
 20
10.4653225253
 30
0.0
 10
11.0229740549
 20
10.4550802411
 30
0.0
 10
11.0232049765
 20
10.4486198406
 30
0.0
 10
11.0231841782
 20
10.4451007505
 30
0.0
 10
11.022985974
 20
10.4424814928
 30
0.0
 10
11.0227052016
 20
10.4410315776
 30
0.0
 10
11.0224830957
 20
10.4404900049
 30
0.0
  0
SPLINE
  5
382
330
20A
100
AcDbEntity
  8
0
  6
Continuous
 62
     7
100
AcDbSpline
210
0.0
220
0.0
230
1.0
 70
     8
 71
     3
 72
    15
 73
    11
 74
     0
 42
0.0000000001
 43
0.0000000001
 40
0.0
 40
0.0
 40
0.0
 40
0.0
 40
0.1049482525
 40
0.223869939
 40
0.3565292547999999
 40
0.4979820031
 40
0.6409463259
 40
0.7772148938
 40
0.898846177
 40
1.0
 40
1.0
 40
1.0
 40
1.0
 10
10.9356508785
 20
10.8550043735
 30
0.0
 10
10.9352956116
 20
10.8603379806
 30
0.0
 10
10.9368618978
 20
10.8718721214
 30
0.0
 10
10.9437577755
 20
10.8887619505
 30
0.0
 10
10.9539009041
 20
10.9060677823
 30
0.0
 10
10.9660609359
 20
10.9234967144
 30
0.0
 10
10.9788634723
 20
10.940674656
 30
0.0
 10
10.9908868953
 20
10.9571914455
 30
0.0
 10
11.0006986427
 20
10.972618512
 30
0.0
 10
11.0053784381
 20
10.9831089444
 30
0.0
 10
11.0066023766
 20
10.9881136159
 30
0.0
  0
SPLINE
  5
383
330
20A
100
AcDbEntity
  8
0
  6
Continuous
 62
     7
100
AcDbSpline
210
0.0
220
0.0
230
1.0
 70
     8
 71
     3
 72
    14
 73
    10
 74
     0
 42
0.0000000001
 43
0.0000000001
 40
0.0
 40
0.0
 40
0.0
 40
0.0
 40
0.2244472985
 40
0.356610519
 40
0.4970234983
 40
0.6389533932
 40
0.7747309809999999
 40
0.8969126411999999
 40
1.0
 40
1.0
 40
1.0
 40
1.0
 10
10.9387010151
 20
10.8337960323
 30
0.0
 10
10.9378521419
 20
10.8453190626
 30
0.0
 10
10.9435561648
 20
10.8638223547
 30
0.0
 10
10.9557072336
 20
10.8861681414
 30
0.0
 10
10.9673605257
 20
10.9041088153
 30
0.0
 10
10.9796702239
 20
10.9217473091
 30
0.0
 10
10.9912896015
 20
10.9387562292
 30
0.0
 10
11.0008279757
 20
10.9547058965
 30
0.0
 10
11.0053750964
 20
10.9655083192
 30
0.0
 10
11.0066023766
 20
10.9706712586
 30
0.0
  0
SPLINE
  5
384
330
20A
100
AcDbEntity
  8
0
  6
Continuous
 62
     7
100
AcDbSpline
210
0.0
220
0.0
230
1.0
 70
     8
 71
     3
 72
    14
 73
    10
 74
     0
 42
0.0000000001
 43
0.0000000001
 40
0.0
 40
0.0
 40
0.0
 40
0.0
 40
0.1187572716
 40
0.2418645375
 40
0.3696330328
 40
0.5007487252000004
 40
0.7618931831
 40
0.8852232867000001
 40
1.0
 40
1.0
 40
1.0
 40
1.0
 10
10.9656811375
 20
10.6692584165
 30
0.0
 10
10.9650626716
 20
10.6758869689
 30
0.0
 10
10.9649409739
 20
10.689511084
 30
0.0
 10
10.9677355686
 20
10.7100952421
 30
0.0
 10
10.9729400633
 20
10.7308987164
 30
0.0
 10
10.9821083206
 20
10.7585876797
 30
0.0
 10
10.992873892
 20
10.7854232708
 30
0.0
 10
11.0020523971
 20
10.8118686969
 30
0.0
 10
11.0054304605
 20
10.8248165997
 30
0.0
 10
11.0066023766
 20
10.8311431726
 30
0.0
  0
SPLINE
  5
385
330
20A
100
AcDbEntity
  8
0
  6
Continuous
 62
     7
100
AcDbSpline
210
0.0
220
0.0
230
1.0
 70
     8
 71
     3
 72
    39
 73
    35
 74
     0
 42
0.0000000001
 43
0.0000000001
 40
0.0
 40
0.0
 40
0.0
 40
0.0
 40
0.0312488608
 40
0.0624976615
 40
0.0937464476
 40
0.1249952265
 40
0.1562440965
 40
0.1874931003
 40
0.218742212
 40
0.2499913271
 40
0.2812406166
 40
0.3124901254
 40
0.3437396302
 40
0.3749893746000001
 40
0.4062392279
 40
0.4374891536
 40
0.4687390606000001
 40
0.4999891426
 40
0.5312392912
 40
0.5624894103
 40
0.5937395836000002
 40
0.6249897947
 40
0.6562401562
 40
0.6874906648000004
 40
0.7187412939
 40
0.7499919337000001
 40
0.7812427171
 40
0.8124936729999998
 40
0.8437445929999999
 40
0.8749956754000001
 40
0.9062468076
 40
0.9374979448000001
 40
0.9687489840999999
 40
1.0
 40
1.0
 40
1.0
 40
1.0
 10
10.8085948358
 20
11.5811134056
 30
0.0
 10
10.8085932377
 20
11.4081563808
 30
0.0
 10
10.8256391191
 20
11.062001184
 30
0.0
 10
10.902074423
 20
10.5479859016
 30
0.0
 10
11.0286216187
 20
10.0439103323
 30
0.0
 10
11.2040383223
 20
9.5547058394
 30
0.0
 10
11.4266120281
 20
9.0850706469
 30
0.0
 10
11.6941781116
 20
8.639531675599997
 30
0.0
 10
12.0041401249
 20
8.2223732924
 30
0.0
 10
12.3534969286
 20
7.837602816799999
 30
0.0
 10
12.7388726847
 20
7.4889113253
 30
0.0
 10
13.1565503385
 20
7.1796422385
 30
0.0
 10
13.6025062979
 20
6.912757610999999
 30
0.0
 10
14.0724485733
 20
6.690811598899997
 30
0.0
 10
14.5618606063
 20
6.5159293025
 30
0.0
 10
15.0660392342
 20
6.389784110999999
 30
0.0
 10
15.5801436627
 20
6.313583359099997
 30
0.0
 10
16.0992387126
 20
6.2880574458
 30
0.0
 10
16.6183413681
 20
6.313454665399999
 30
0.0
 10
17.1324668887
 20
6.3895351034
 30
0.0
 10
17.6366770032
 20
6.515575104799999
 30
0.0
 10
18.1261270265
 20
6.6903731046
 30
0.0
 10
18.5961099307
 20
6.912260655999999
 30
0.0
 10
19.042101817
 20
7.1791166824
 30
0.0
 10
19.4598038453
 20
7.488386844999999
 30
0.0
 10
19.8451865495
 20
7.8371063046
 30
0.0
 10
20.1945284174
 20
8.221928026
 30
0.0
 10
20.5044504741
 20
8.6391546076
 30
0.0
 10
20.7719529794
 20
9.0847710485
 30
0.0
 10
20.994444502
 20
9.5544853125
 30
0.0
 10
21.1697671446
 20
10.04376424
 30
0.0
 10
21.2962214746
 20
10.5479022289
 30
0.0
 10
21.3725825914
 20
11.0619652822
 30
0.0
 10
21.3896067967
 20
11.4081444264
 30
0.0
 10
21.3896050039
 20
11.5811133792
 30
0.0
  0
SPLINE
  5
386
330
20A
100
AcDbEntity
  8
0
  6
Continuous
 62
     7
100
AcDbSpline
210
0.0
220
0.0
230
1.0
 70
     8
 71
     3
 72
    39
 73
    35
 74
     0
 42
0.0000000001
 43
0.0000000001
 40
0.0
 40
0.0
 40
0.0
 40
0.0
 40
0.0312500579
 40
0.062500097
 40
0.093750123
 40
0.1250001353
 40
0.1562501387
 40
0.18750013
 40
0.218750118
 40
0.2500001001
 40
0.2812500789
 40
0.3125000557
 40
0.3437500315
 40
0.3750000064
 40
0.4062499820000001
 40
0.4374999592
 40
0.4687499396
 40
0.4999999236
 40
0.5312499116
 40
0.5624999005
 40
0.5937498962
 40
0.6249998952000002
 40
0.6562499003
 40
0.6874999060000003
 40
0.7187499181999999
 40
0.7499999331
 40
0.7812499504000005
 40
0.8124999690999999
 40
0.8437499877
 40
0.8750000037999999
 40
0.9062500153
 40
0.9375000229999999
 40
0.9687500181999999
 40
1.0
 40
1.0
 40
1.0
 40
1.0
 10
19.7022541363
 20
11.5811133792
 30
0.0
 10
19.7022552576
 20
11.4488254624
 30
0.0
 10
19.6892887356
 20
11.1840665136
 30
0.0
 10
19.6310981122
 20
10.7908805859
 30
0.0
 10
19.5346957834
 20
10.4052391296
 30
0.0
 10
19.4009861479
 20
10.0309040075
 30
0.0
 10
19.231238305
 20
9.6714695648
 30
0.0
 10
19.0270744502
 20
9.3304061373
 30
0.0
 10
18.7904518942
 20
9.0110047377
 30
0.0
 10
18.5236443691
 20
8.7163501584
 30
0.0
 10
18.2292215761
 20
8.449286720099998
 30
0.0
 10
17.9100201718
 20
8.212393930900001
 30
0.0
 10
17.5691184889
 20
8.0079586297
 30
0.0
 10
17.2098050663
 20
7.8379539287
 30
0.0
 10
16.8355470237
 20
7.704018751799999
 30
0.0
 10
16.4499550908
 20
7.607444662
 30
0.0
 10
16.0567496026
 20
7.549160313899997
 30
0.0
 10
15.6597233973
 20
7.5297241582
 30
0.0
 10
15.2627051518
 20
7.5493203647
 30
0.0
 10
14.8695222563
 20
7.607754742999999
 30
0.0
 10
14.4839631398
 20
7.704457535099997
 30
0.0
 10
14.1097415778
 20
7.8384926097
 30
0.0
 10
13.7504599761
 20
8.008562449899999
 30
0.0
 10
13.4095747269
 20
8.2130230308
 30
0.0
 10
13.0903637351
 20
8.449900906199998
 30
0.0
 10
12.7958960165
 20
8.7169129649
 30
0.0
 10
12.5290001463
 20
9.0114858147
 30
0.0
 10
12.2922414538
 20
9.330784901900001
 30
0.0
 10
12.0878961243
 20
9.671738603399999
 30
0.0
 10
11.9179305996
 20
10.0310695901
 30
0.0
 10
11.7839840393
 20
10.4053200083
 30
0.0
 10
11.6873540052
 20
10.7909054173
 30
0.0
 10
11.6289847026
 20
11.1840665034
 30
0.0
 10
11.6159650149
 20
11.4488257845
 30
0.0
 10
11.6159662947
 20
11.5811133792
 30
0.0
  0
SPLINE
  5
387
330
20A
100
AcDbEntity
  8
0
  6
Continuous
 62
     7
100
AcDbSpline
210
0.0
220
0.0
230
1.0
 70
     8
 71
     3
 72
    23
 73
    19
 74
     0
 42
0.0000000001
 43
0.0000000001
 40
0.0
 40
0.0
 40
0.0
 40
0.0
 40
0.0625007854
 40
0.125000707
 40
0.187500646
 40
0.2500005865
 40
0.3125005266
 40
0.3750004661
 40
0.4375004065
 40
0.5000003468000001
 40
0.5625002861000003
 40
0.6250002260000001
 40
0.6875001662000001
 40
0.7500001055
 40
0.8125000448999999
 40
0.8749999854
 40
0.9374999598
 40
1.0
 40
1.0
 40
1.0
 40
1.0
 10
16.0965648132
 20
11.5811133792
 30
0.0
 10
16.0965648148
 20
11.5538397907
 30
0.0
 10
16.0911495325
 20
11.4991452303
 30
0.0
 10
16.0672594072
 20
11.4203678687
 30
0.0
 10
16.0284375701
 20
11.3477376995
 30
0.0
 10
15.9761981432
 20
11.2840842749
 30
0.0
 10
15.9125426867
 20
11.2318434045
 30
0.0
 10
15.8399190821
 20
11.1930254416
 30
0.0
 10
15.7611177869
 20
11.1691213987
 30
0.0
 10
15.6791672106
 20
11.1610501424
 30
0.0
 10
15.597216674
 20
11.1691217526
 30
0.0
 10
15.5184154657
 20
11.1930261092
 30
0.0
 10
15.4457920677
 20
11.231844416
 30
0.0
 10
15.3821367764
 20
11.2840856106
 30
0.0
 10
15.3298980826
 20
11.3477393402
 30
0.0
 10
15.29107513
 20
11.4203696193
 30
0.0
 10
15.2671911837
 20
11.499147314
 30
0.0
 10
15.2617612802
 20
11.5538401159
 30
0.0
 10
15.26176128
 20
11.5811133792
 30
0.0
  0
SPLINE
  5
388
330
20A
100
AcDbEntity
  8
_SURFACE
  6
Continuous
 62
     7
100
AcDbSpline
210
0.0
220
0.0
230
1.0
 70
     8
 71
     3
 72
    17
 73
    13
 74
     0
 42
0.0000000001
 43
0.0000000001
 40
0.0
 40
0.0
 40
0.0
 40
0.0
 40
0.2078723486
 40
0.3953346043999999
 40
0.5604227650000003
 40
0.701398929
 40
0.8167710940999999
 40
0.9053802869
 40
0.9393874198999998
 40
0.9664465705000001
 40
0.9865891264
 40
1.0
 40
1.0
 40
1.0
 40
1.0
 10
11.0072855229
 20
12.5883928245
 30
0.0
 10
11.0086953483
 20
12.5976024237
 30
0.0
 10
11.0113489182
 20
12.6151216246
 30
0.0
 10
11.0149836857
 20
12.6399757311
 30
0.0
 10
11.0180167985
 20
12.661886904
 30
0.0
 10
11.0203960286
 20
12.6806264047
 30
0.0
 10
11.0220726278
 20
12.6959962118
 30
0.0
 10
11.0229437947
 20
12.7066320507
 30
0.0
 10
11.0232011249
 20
12.7133351568
 30
0.0
 10
11.0231907427
 20
12.7169797362
 30
0.0
 10
11.0229948692
 20
12.71968503
 30
0.0
 10
11.0227111704
 20
12.7211806266
 30
0.0
 10
11.0224830957
 20
12.7217367534
 30
0.0
  0
LINE
  5
389
330
20A
100
AcDbEntity
  8
_SURFACE
  6
Continuous
 62
     7
100
AcDbLine
 10
11.0224830956
 20
12.7217367529
 30
0.0
 11
11.0223219686
 21
12.7220691104
 31
0.0
  0
LINE
  5
38A
330
20A
100
AcDbEntity
  8
_SURFACE
  6
Continuous
 62
     7
100
AcDbLine
 10
11.0222529279
 20
12.7221793627
 30
0.0
 11
11.022181262
 21
12.7222766528
 31
0.0
  0
LINE
  5
38B
330
20A
100
AcDbEntity
  8
_SURFACE
  6
Continuous
 62
     7
100
AcDbLine
 10
11.022181262
 20
12.7222766527
 30
0.0
 11
11.022106973
 21
12.722360974
 31
0.0
  0
LINE
  5
38C
330
20A
100
AcDbEntity
  8
_SURFACE
  6
Continuous
 62
     7
100
AcDbLine
 10
11.022106973
 20
12.7223609739
 30
0.0
 11
11.0220300634
 21
12.7224323211
 31
0.0
  0
SPLINE
  5
38D
330
20A
100
AcDbEntity
  8
_SURFACE
  6
Continuous
 62
     7
100
AcDbSpline
210
0.0
220
0.0
230
1.0
 70
     8
 71
     3
 72
     9
 73
     5
 74
     0
 42
0.0000000001
 43
0.0000000001
 40
0.0
 40
0.0
 40
0.0
 40
0.0
 40
0.5070462053
 40
1.0
 40
1.0
 40
1.0
 40
1.0
 10
11.0220300634
 20
12.722432321
 30
0.0
 10
11.0220172227
 20
12.7224429684
 30
0.0
 10
11.0219912985
 20
12.7224632568
 30
0.0
 10
11.0219641842
 20
12.7224819308
 30
0.0
 10
11.0219505359
 20
12.72249069
 30
0.0
  0
LINE
  5
38E
330
20A
100
AcDbEntity
  8
_SURFACE
  6
Continuous
 62
     7
100
AcDbLine
 10
11.0219505358
 20
12.7224906898
 30
0.0
 11
11.0217402436
 21
12.7225798238
 31
0.0
  0
LINE
  5
38F
330
20A
100
AcDbEntity
  8
_SURFACE
  6
Continuous
 62
     7
100
AcDbLine
 10
11.0217406564
 20
12.7225797278
 30
0.0
 11
11.0216108597
 21
12.72261192
 31
0.0
  0
SPLINE
  5
390
330
20A
100
AcDbEntity
  8
_SURFACE
  6
Continuous
 62
     7
100
AcDbSpline
210
0.0
220
0.0
230
1.0
 70
     8
 71
     3
 72
     9
 73
     5
 74
     0
 42
0.0000000001
 43
0.0000000001
 40
0.0
 40
0.0
 40
0.0
 40
0.0
 40
0.4743899108
 40
1.0
 40
1.0
 40
1.0
 40
1.0
 10
11.0215509255
 20
12.7225883069
 30
0.0
 10
11.0215609104
 20
12.7225904596
 30
0.0
 10
11.0215815553
 20
12.7225969578
 30
0.0
 10
11.021600977
 20
12.7226064053
 30
0.0
 10
11.0216108597
 20
12.72261192
 30
0.0
  0
SPLINE
  5
391
330
20A
100
AcDbEntity
  8
_SURFACE
  6
Continuous
 62
     7
100
AcDbSpline
210
0.0
220
0.0
230
1.0
 70
     8
 71
     3
 72
    19
 73
    15
 74
     0
 42
0.0000000001
 43
0.0000000001
 40
0.0
 40
0.0
 40
0.0
 40
0.0
 40
0.2092385234
 40
0.4010402957000001
 40
0.5715595462
 40
0.7172969055
 40
0.7798846001000001
 40
0.8351506827999999
 40
0.8827808409999999
 40
0.9225057384999999
 40
0.9541086458
 40
0.9774338455
 40
0.9923817177
 40
1.0
 40
1.0
 40
1.0
 40
1.0
 10
10.9656811508
 20
12.4929684144
 30
0.0
 10
10.9686634409
 20
12.5092301475
 30
0.0
 10
10.9745698646
 20
12.5403639898
 30
0.0
 10
10.9835830715
 20
12.584618634
 30
0.0
 10
10.99217823
 20
12.6238333008
 30
0.0
 10
10.9990865583
 20
12.6529619559
 30
0.0
 10
11.004244652
 20
12.6731409946
 30
0.0
 10
11.0076535593
 20
12.6857655793
 30
0.0
 10
11.0107697907
 20
12.696594208
 30
0.0
 10
11.0135743429
 20
12.7055718425
 30
0.0
 10
11.0160102961
 20
12.712630409
 30
0.0
 10
11.0181120304
 20
12.7177763465
 30
0.0
 10
11.0197087803
 20
12.7209635721
 30
0.0
 10
11.0209774414
 20
12.7224053639
 30
0.0
 10
11.0215509255
 20
12.7225883069
 30
0.0
  0
CIRCLE
  5
684
330
20A
100
AcDbEntity
  8
0
100
AcDbCircle
 10
11.29153221307757
 20
11.57821504283777
 30
0.0
 40
0.0918456430834738
  0
CIRCLE
  5
685
330
20A
100
AcDbEntity
  8
0
100
AcDbCircle
 10
11.30528521548996
 20
11.23397442984788
 30
0.0
 40
0.0918456430834738
  0
CIRCLE
  5
686
330
20A
100
AcDbEntity
  8
0
100
AcDbCircle
 10
11.34600462919373
 20
10.89187404391616
 30
0.0
 40
0.0918456430834738
  0
CIRCLE
  5
687
330
20A
100
AcDbEntity
  8
0
100
AcDbCircle
 10
11.41343940546282
 20
10.5540230476818
 30
0.0
 40
0.0918456430834738
  0
CIRCLE
  5
688
330
20A
100
AcDbEntity
  8
0
100
AcDbCircle
 10
11.50717378647719
 20
10.22250440488345
 30
0.0
 40
0.0918456430834738
  0
CIRCLE
  5
689
330
20A
100
AcDbEntity
  8
0
100
AcDbCircle
 10
11.62662986860805
 20
9.899362038195079
 30
0.0
 40
0.0918456430834738
  0
CIRCLE
  5
68A
330
20A
100
AcDbEntity
  8
0
100
AcDbCircle
 10
11.77107116538587
 20
9.586588227763076
 30
0.0
 40
0.0918456430834738
  0
CIRCLE
  5
68B
330
20A
100
AcDbEntity
  8
0
100
AcDbCircle
 10
11.93960714818442
 20
9.2861113281366
 30
0.0
 40
0.0918456430834738
  0
CIRCLE
  5
68C
330
20A
100
AcDbEntity
  8
0
100
AcDbCircle
 10
12.13119873662584
 20
8.999783879320554
 30
0.0
 40
0.0918456430834738
  0
CIRCLE
  5
68D
330
20A
100
AcDbEntity
  8
0
100
AcDbCircle
 10
12.34466470485672
 20
8.72937118525043
 30
0.0
 40
0.0918456430834738
  0
CIRCLE
  5
68E
330
20A
100
AcDbEntity
  8
0
100
AcDbCircle
 10
12.57868896419828
 20
8.476540430106508
 30
0.0
 40
0.0918456430834738
  0
CIRCLE
  5
68F
330
20A
100
AcDbEntity
  8
0
100
AcDbCircle
 10
12.83182867727073
 20
8.24285039956902
 30
0.0
 40
0.0918456430834738
  0
CIRCLE
  5
690
330
20A
100
AcDbEntity
  8
0
100
AcDbCircle
 10
13.10252315356546
 20
8.029741870386041
 30
0.0
 40
0.0918456430834738
  0
CIRCLE
  5
691
330
20A
100
AcDbEntity
  8
0
100
AcDbCircle
 10
13.38910347162107
 20
7.838528727505766
 30
0.0
 40
0.0918456430834738
  0
CIRCLE
  5
692
330
20A
100
AcDbEntity
  8
0
100
AcDbCircle
 10
13.68980276847914
 20
7.67038986353887
 30
0.0
 40
0.0918456430834738
  0
CIRCLE
  5
693
330
20A
100
AcDbEntity
  8
0
100
AcDbCircle
 10
14.00276713298186
 20
7.526361910493561
 30
0.0
 40
0.0918456430834738
  0
CIRCLE
  5
694
330
20A
100
AcDbEntity
  8
0
100
AcDbCircle
 10
14.32606703575086
 20
7.40733284859451
 30
0.0
 40
0.0918456430834738
  0
CIRCLE
  5
695
330
20A
100
AcDbEntity
  8
0
100
AcDbCircle
 10
14.65770922537744
 20
7.314036531589515
 30
0.0
 40
0.0918456430834738
  0
CIRCLE
  5
696
330
20A
100
AcDbEntity
  8
0
100
AcDbCircle
 10
14.99564901748034
 20
7.247048162297076
 30
0.0
 40
0.0918456430834738
  0
CIRCLE
  5
697
330
20A
100
AcDbEntity
  8
0
100
AcDbCircle
 10
15.33780290086486
 20
7.206780746289775
 30
0.0
 40
0.0918456430834738
  0
CIRCLE
  5
698
330
20A
100
AcDbEntity
  8
0
100
AcDbCircle
 10
15.68206138306222
 20
7.193482545577573
 30
0.0
 40
0.0918456430834738
  0
CIRCLE
  5
699
330
20A
100
AcDbEntity
  8
0
100
AcDbCircle
 10
16.02630199605211
 20
7.207235547989963
 30
0.0
 40
0.0918456430834738
  0
CIRCLE
  5
69A
330
20A
100
AcDbEntity
  8
0
100
AcDbCircle
 10
16.36840238198384
 20
7.247954961693737
 30
0.0
 40
0.0918456430834738
  0
CIRCLE
  5
69B
330
20A
100
AcDbEntity
  8
0
100
AcDbCircle
 10
16.70625337821819
 20
7.315389737962824
 30
0.0
 40
0.0918456430834738
  0
CIRCLE
  5
69C
330
20A
100
AcDbEntity
  8
0
100
AcDbCircle
 10
17.03777202101655
 20
7.409124118977196
 30
0.0
 40
0.0918456430834738
  0
CIRCLE
  5
69D
330
20A
100
AcDbEntity
  8
0
100
AcDbCircle
 10
17.36091438770492
 20
7.52858020110805
 30
0.0
 40
0.0918456430834738
  0
CIRCLE
  5
69E
330
20A
100
AcDbEntity
  8
0
100
AcDbCircle
 10
17.67368819813692
 20
7.673021497885869
 30
0.0
 40
0.0918456430834738
  0
CIRCLE
  5
69F
330
20A
100
AcDbEntity
  8
0
100
AcDbCircle
 10
17.97416509776339
 20
7.841557480684417
 30
0.0
 40
0.0918456430834738
  0
CIRCLE
  5
6A0
330
20A
100
AcDbEntity
  8
0
100
AcDbCircle
 10
18.26049254657944
 20
8.033149069125833
 30
0.0
 40
0.0918456430834738
  0
CIRCLE
  5
6A1
330
20A
100
AcDbEntity
  8
0
100
AcDbCircle
 10
18.53090524064956
 20
8.246615037356718
 30
0.0
 40
0.0918456430834738
  0
CIRCLE
  5
6A2
330
20A
100
AcDbEntity
  8
0
100
AcDbCircle
 10
18.78373599579348
 20
8.480639296698283
 30
0.0
 40
0.0918456430834738
  0
CIRCLE
  5
6A3
330
20A
100
AcDbEntity
  8
0
100
AcDbCircle
 10
19.01742602633097
 20
8.733779009770726
 30
0.0
 40
0.0918456430834738
  0
CIRCLE
  5
6A4
330
20A
100
AcDbEntity
  8
0
100
AcDbCircle
 10
19.23053455551395
 20
9.004473486065458
 30
0.0
 40
0.0918456430834738
  0
CIRCLE
  5
6A5
330
20A
100
AcDbEntity
  8
0
100
AcDbCircle
 10
19.42174769839423
 20
9.291053804121078
 30
0.0
 40
0.0918456430834738
  0
CIRCLE
  5
6A6
330
20A
100
AcDbEntity
  8
0
100
AcDbCircle
 10
19.58988656236113
 20
9.59175310097914
 30
0.0
 40
0.0918456430834738
  0
CIRCLE
  5
6A7
330
20A
100
AcDbEntity
  8
0
100
AcDbCircle
 10
19.73391451540643
 20
9.904717465481859
 30
0.0
 40
0.0918456430834738
  0
CIRCLE
  5
6A8
330
20A
100
AcDbEntity
  8
0
100
AcDbCircle
 10
19.85294357730548
 20
10.22801736825085
 30
0.0
 40
0.0918456430834738
  0
CIRCLE
  5
6A9
330
20A
100
AcDbEntity
  8
0
100
AcDbCircle
 10
19.94623989431048
 20
10.55965955787744
 30
0.0
 40
0.0918456430834738
  0
CIRCLE
  5
6AA
330
20A
100
AcDbEntity
  8
0
100
AcDbCircle
 10
20.01322826360293
 20
10.89759934998034
 30
0.0
 40
0.0918456430834738
  0
CIRCLE
  5
6AB
330
20A
100
AcDbEntity
  8
0
100
AcDbCircle
 10
20.05349567961023
 20
11.23975323336486
 30
0.0
 40
0.0918456430834738
  0
CIRCLE
  5
6AC
330
20A
100
AcDbEntity
  8
0
100
AcDbCircle
 10
20.06679388032242
 20
11.58401171556222
 30
0.0
 40
0.0918456430834738
  0
CIRCLE
  5
6AD
330
20A
100
AcDbEntity
  8
0
100
AcDbCircle
 10
20.05304087791003
 20
11.92825232855211
 30
0.0
 40
0.0918456430834738
  0
CIRCLE
  5
6AE
330
20A
100
AcDbEntity
  8
0
100
AcDbCircle
 10
20.01232146420626
 20
12.27035271448383
 30
0.0
 40
0.0918456430834738
  0
CIRCLE
  5
6AF
330
20A
100
AcDbEntity
  8
0
100
AcDbCircle
 10
19.94488668793717
 20
12.60820371071819
 30
0.0
 40
0.0918456430834738
  0
CIRCLE
  5
6B0
330
20A
100
AcDbEntity
  8
0
100
AcDbCircle
 10
19.8511523069228
 20
12.93972235351655
 30
0.0
 40
0.0918456430834738
  0
CIRCLE
  5
6B1
330
20A
100
AcDbEntity
  8
0
100
AcDbCircle
 10
19.73169622479195
 20
13.26286472020492
 30
0.0
 40
0.0918456430834738
  0
CIRCLE
  5
6B2
330
20A
100
AcDbEntity
  8
0
100
AcDbCircle
 10
19.58725492801413
 20
13.57563853063692
 30
0.0
 40
0.0918456430834738
  0
CIRCLE
  5
6B3
330
20A
100
AcDbEntity
  8
0
100
AcDbCircle
 10
19.41871894521558
 20
13.8761154302634
 30
0.0
 40
0.0918456430834738
  0
CIRCLE
  5
6B4
330
20A
100
AcDbEntity
  8
0
100
AcDbCircle
 10
19.22712735677416
 20
14.16244287907944
 30
0.0
 40
0.0918456430834738
  0
CIRCLE
  5
6B5
330
20A
100
AcDbEntity
  8
0
100
AcDbCircle
 10
19.01366138854328
 20
14.43285557314957
 30
0.0
 40
0.0918456430834738
  0
CIRCLE
  5
6B6
330
20A
100
AcDbEntity
  8
0
100
AcDbCircle
 10
18.77963712920172
 20
14.68568632829348
 30
0.0
 40
0.0918456430834738
  0
CIRCLE
  5
6B7
330
20A
100
AcDbEntity
  8
0
100
AcDbCircle
 10
18.52649741612927
 20
14.91937635883098
 30
0.0
 40
0.0918456430834738
  0
CIRCLE
  5
6B8
330
20A
100
AcDbEntity
  8
0
100
AcDbCircle
 10
18.25580293983454
 20
15.13248488801395
 30
0.0
 40
0.0918456430834738
  0
CIRCLE
  5
6B9
330
20A
100
AcDbEntity
  8
0
100
AcDbCircle
 10
17.96922262177892
 20
15.32369803089423
 30
0.0
 40
0.0918456430834738
  0
CIRCLE
  5
6BA
330
20A
100
AcDbEntity
  8
0
100
AcDbCircle
 10
17.66852332492086
 20
15.49183689486113
 30
0.0
 40
0.0918456430834738
  0
CIRCLE
  5
6BB
330
20A
100
AcDbEntity
  8
0
100
AcDbCircle
 10
17.35555896041814
 20
15.63586484790643
 30
0.0
 40
0.0918456430834738
  0
CIRCLE
  5
6BC
330
20A
100
AcDbEntity
  8
0
100
AcDbCircle
 10
17.03225905764915
 20
15.75489390980548
 30
0.0
 40
0.0918456430834738
  0
CIRCLE
  5
6BD
330
20A
100
AcDbEntity
  8
0
100
AcDbCircle
 10
16.70061686802257
 20
15.84819022681048
 30
0.0
 40
0.0918456430834738
  0
CIRCLE
  5
6BE
330
20A
100
AcDbEntity
  8
0
100
AcDbCircle
 10
16.36267707591967
 20
15.91517859610292
 30
0.0
 40
0.0918456430834738
  0
CIRCLE
  5
6BF
330
20A
100
AcDbEntity
  8
0
100
AcDbCircle
 10
16.02052319253515
 20
15.95544601211022
 30
0.0
 40
0.0918456430834738
  0
CIRCLE
  5
6C0
330
20A
100
AcDbEntity
  8
0
100
AcDbCircle
 10
15.67626471033779
 20
15.96874421282242
 30
0.0
 40
0.0918456430834738
  0
CIRCLE
  5
6C1
330
20A
100
AcDbEntity
  8
0
100
AcDbCircle
 10
15.3320240973479
 20
15.95499121041003
 30
0.0
 40
0.0918456430834738
  0
CIRCLE
  5
6C2
330
20A
100
AcDbEntity
  8
0
100
AcDbCircle
 10
14.98992371141619
 20
15.91427179670627
 30
0.0
 40
0.0918456430834738
  0
CIRCLE
  5
6C3
330
20A
100
AcDbEntity
  8
0
100
AcDbCircle
 10
14.65207271518182
 20
15.84683702043717
 30
0.0
 40
0.0918456430834738
  0
CIRCLE
  5
6C4
330
20A
100
AcDbEntity
  8
0
100
AcDbCircle
 10
14.32055407238347
 20
15.75310263942281
 30
0.0
 40
0.0918456430834738
  0
CIRCLE
  5
6C5
330
20A
100
AcDbEntity
  8
0
100
AcDbCircle
 10
13.9974117056951
 20
15.63364655729196
 30
0.0
 40
0.0918456430834738
  0
CIRCLE
  5
6C6
330
20A
100
AcDbEntity
  8
0
100
AcDbCircle
 10
13.6846378952631
 20
15.48920526051414
 30
0.0
 40
0.0918456430834738
  0
CIRCLE
  5
6C7
330
20A
100
AcDbEntity
  8
0
100
AcDbCircle
 10
13.38416099563663
 20
15.3206692777156
 30
0.0
 40
0.0918456430834738
  0
CIRCLE
  5
6C8
330
20A
100
AcDbEntity
  8
0
100
AcDbCircle
 10
13.09783354682058
 20
15.12907768927418
 30
0.0
 40
0.0918456430834738
  0
CIRCLE
  5
6C9
330
20A
100
AcDbEntity
  8
0
100
AcDbCircle
 10
12.82742085275046
 20
14.9156117210433
 30
0.0
 40
0.0918456430834738
  0
CIRCLE
  5
6CA
330
20A
100
AcDbEntity
  8
0
100
AcDbCircle
 10
12.57459009760653
 20
14.68158746170174
 30
0.0
 40
0.0918456430834738
  0
CIRCLE
  5
6CB
330
20A
100
AcDbEntity
  8
0
100
AcDbCircle
 10
12.34090006706904
 20
14.4284477486293
 30
0.0
 40
0.0918456430834738
  0
CIRCLE
  5
6CC
330
20A
100
AcDbEntity
  8
0
100
AcDbCircle
 10
12.12779153788607
 20
14.15775327233457
 30
0.0
 40
0.0918456430834738
  0
CIRCLE
  5
6CD
330
20A
100
AcDbEntity
  8
0
100
AcDbCircle
 10
11.93657839500579
 20
13.87117295427896
 30
0.0
 40
0.0918456430834738
  0
CIRCLE
  5
6CE
330
20A
100
AcDbEntity
  8
0
100
AcDbCircle
 10
11.76843953103889
 20
13.5704736574209
 30
0.0
 40
0.0918456430834738
  0
CIRCLE
  5
6CF
330
20A
100
AcDbEntity
  8
0
100
AcDbCircle
 10
11.62441157799358
 20
13.25750929291818
 30
0.0
 40
0.0918456430834738
  0
CIRCLE
  5
6D0
330
20A
100
AcDbEntity
  8
0
100
AcDbCircle
 10
11.50538251609453
 20
12.93420939014919
 30
0.0
 40
0.0918456430834738
  0
CIRCLE
  5
6D1
330
20A
100
AcDbEntity
  8
0
100
AcDbCircle
 10
11.41208619908952
 20
12.60256720052261
 30
0.0
 40
0.0918456430834738
  0
CIRCLE
  5
6D2
330
20A
100
AcDbEntity
  8
0
100
AcDbCircle
 10
11.34509782979708
 20
12.26462740841971
 30
0.0
 40
0.0918456430834738
  0
CIRCLE
  5
6D3
330
20A
100
AcDbEntity
  8
0
100
AcDbCircle
 10
11.30483041378977
 20
11.92247352503519
 30
0.0
 40
0.0918456430834738
  0
ENDSEC
  0
SECTION
  2
OBJECTS
  0
DICTIONARY
  5
C
330
0
100
AcDbDictionary
281
     1
  3
ACAD_COLOR
350
412
  3
ACAD_GROUP
350
D
  3
ACAD_LAYOUT
350
1A
  3
ACAD_MATERIAL
350
3E8
  3
ACAD_MLEADERSTYLE
350
437
  3
ACAD_MLINESTYLE
350
17
  3
ACAD_PLOTSETTINGS
350
19
  3
ACAD_PLOTSTYLENAME
350
E
  3
ACAD_SCALELIST
350
415
  3
ACAD_TABLESTYLE
350
413
  3
ACAD_VISUALSTYLE
350
401
  3
ACDB_RECOMPOSE_DATA
350
4EB
  3
AcDbVariableDictionary
350
4E5
  3
AcmDictionary
350
496
  3
AMG
350
43D
  3
AMGSNAPSETTINGS
350
4D7
  0
DICTIONARY
  5
412
102
{ACAD_REACTORS
330
C
102
}
330
C
100
AcDbDictionary
281
     1
  0
DICTIONARY
  5
D
102
{ACAD_REACTORS
330
C
102
}
330
C
100
AcDbDictionary
281
     1
  0
DICTIONARY
  5
1A
102
{ACAD_REACTORS
330
C
102
}
330
C
100
AcDbDictionary
281
     1
  3
Layout1
350
3E5
  3
Model
350
3E4
  0
DICTIONARY
  5
3E8
102
{ACAD_REACTORS
330
C
102
}
330
C
100
AcDbDictionary
281
     1
  3
ByBlock
350
3F1
  3
ByLayer
350
3E9
  3
Global
350
3F9
  0
DICTIONARY
  5
437
102
{ACAD_REACTORS
330
C
102
}
330
C
100
AcDbDictionary
281
     1
  3
Standard
350
438
  0
DICTIONARY
  5
17
102
{ACAD_REACTORS
330
C
102
}
330
C
100
AcDbDictionary
281
     1
  3
Standard
350
18
  0
DICTIONARY
  5
19
102
{ACAD_REACTORS
330
C
102
}
330
C
100
AcDbDictionary
281
     1
  0
ACDBDICTIONARYWDFLT
  5
E
102
{ACAD_REACTORS
330
C
102
}
330
C
100
AcDbDictionary
281
     1
  3
Normal
350
F
100
AcDbDictionaryWithDefault
340
F
  0
DICTIONARY
  5
415
102
{ACAD_REACTORS
330
C
102
}
330
C
100
AcDbDictionary
281
     1
  3
A0
350
416
  3
A1
350
417
  3
A2
350
418
  3
A3
350
419
  3
A4
350
41A
  3
A5
350
41B
  3
A6
350
41C
  3
A7
350
41D
  3
A8
350
41E
  3
A9
350
41F
  3
B0
350
420
  3
B1
350
421
  3
B2
350
422
  3
B3
350
423
  3
B4
350
424
  3
B5
350
425
  3
B6
350
426
  3
B7
350
427
  3
B8
350
428
  3
B9
350
429
  3
C0
350
42A
  3
C1
350
42B
  3
C2
350
42C
  3
C3
350
42D
  3
C4
350
42E
  3
C5
350
42F
  3
C6
350
430
  3
C7
350
431
  3
C8
350
432
  3
C9
350
433
  3
D0
350
434
  3
D1
350
435
  3
D2
350
436
  0
DICTIONARY
  5
413
102
{ACAD_REACTORS
330
C
102
}
330
C
100
AcDbDictionary
281
     1
  3
Standard
350
414
  0
DICTIONARY
  5
401
102
{ACAD_REACTORS
330
C
102
}
330
C
100
AcDbDictionary
281
     1
  3
2dWireframe
350
407
  3
3D Hidden
350
409
  3
3dWireframe
350
408
  3
Basic
350
406
  3
Brighten
350
40D
  3
ColorChange
350
411
  3
Conceptual
350
40A
  3
Dim
350
40C
  3
Facepattern
350
410
  3
Flat
350
402
  3
FlatWithEdges
350
403
  3
Gouraud
350
404
  3
GouraudWithEdges
350
405
  3
Linepattern
350
40F
  3
Realistic
350
40B
  3
Thicken
350
40E
  0
XRECORD
  5
4EB
102
{ACAD_REACTORS
330
C
102
}
330
C
100
AcDbXrecord
280
     1
 90
        1
330
414
  0
DICTIONARY
  5
4E5
102
{ACAD_REACTORS
330
C
102
}
330
C
100
AcDbDictionary
281
     1
  3
CANNOSCALE
350
4E8
  3
CMLEADERSTYLE
350
4E7
  3
CTABLESTYLE
350
4E6
  0
DICTIONARY
  5
496
102
{ACAD_REACTORS
330
C
102
}
330
C
100
AcDbDictionary
281
     1
  3
AcmStdDictionary
350
4A3
  0
DICTIONARY
  5
43D
102
{ACAD_REACTORS
330
C
102
}
330
C
100
AcDbDictionary
281
     1
  0
DICTIONARY
  5
4D7
102
{ACAD_REACTORS
330
C
102
}
330
C
100
AcDbDictionary
281
     1
  0
LAYOUT
  5
3E5
102
{ACAD_REACTORS
330
1A
102
}
330
1A
100
AcDbPlotSettings
  1

  2
none_device
  4
ANSI_C_(22.00_x_17.00_Inches)
  6

 40
0.0
 41
0.0
 42
0.0
 43
0.0
 44
558.8
 45
431.8
 46
0.0
 47
0.0
 48
0.0
 49
0.0
140
0.0
141
0.0
142
1.0
143
1.0
 70
     0
 72
     0
 73
     0
 74
     0
  7

 75
     0
147
1.0
 76
     0
 77
     2
 78
   300
148
0.0
149
0.0
100
AcDbLayout
  1
Layout1
 70
     1
 71
     1
 10
0.0
 20
0.0
 11
12.0
 21
9.0
 12
0.0
 22
0.0
 32
0.0
 14
1.000000000000000E+20
 24
1.000000000000000E+20
 34
1.000000000000000E+20
 15
-1.000000000000000E+20
 25
-1.000000000000000E+20
 35
-1.000000000000000E+20
146
0.0
 13
0.0
 23
0.0
 33
0.0
 16
1.0
 26
0.0
 36
0.0
 17
0.0
 27
1.0
 37
0.0
 76
     0
330
20B
  0
LAYOUT
  5
3E4
102
{ACAD_REACTORS
330
1A
102
}
330
1A
100
AcDbPlotSettings
  1

  2
none_device
  4
ANSI_C_(22.00_x_17.00_Inches)
  6

 40
0.0
 41
0.0
 42
0.0
 43
0.0
 44
558.8
 45
431.8
 46
0.0
 47
0.0
 48
0.0
 49
0.0
140
0.0
141
0.0
142
1.0
143
1.0
 70
  1024
 72
     0
 73
     0
 74
     0
  7

 75
     0
147
1.0
 76
     0
 77
     2
 78
   300
148
0.0
149
0.0
100
AcDbLayout
  1
Model
 70
     0
 71
     0
 10
0.0
 20
0.0
 11
22.0
 21
17.0
 12
0.0
 22
0.0
 32
0.0
 14
0.0
 24
0.0
 34
0.0
 15
0.0
 25
0.0
 35
0.0
146
0.0
 13
0.0
 23
0.0
 33
0.0
 16
1.0
 26
0.0
 36
0.0
 17
0.0
 27
1.0
 37
0.0
 76
     0
330
20A
331
1F4
  0
MATERIAL
  5
3F1
102
{ACAD_XDICTIONARY
360
3F2
102
}
102
{ACAD_REACTORS
330
3E8
102
}
330
3E8
100
AcDbMaterial
  1
ByBlock
 72
     0
 43
0.0208333333333333
 43
0.0
 43
0.0
 43
0.0
 43
0.0
 43
0.0208333333333333
 43
0.0
 43
0.0
 43
0.0
 43
0.0
 43
1.0
 43
0.0
 43
0.0
 43
0.0
 43
0.0
 43
1.0
 77
     0
 47
0.0208333333333333
 47
0.0
 47
0.0
 47
0.0
 47
0.0
 47
0.0208333333333333
 47
0.0
 47
0.0
 47
0.0
 47
0.0
 47
1.0
 47
0.0
 47
0.0
 47
0.0
 47
0.0
 47
1.0
171
     0
 49
0.0208333333333333
 49
0.0
 49
0.0
 49
0.0
 49
0.0
 49
0.0208333333333333
 49
0.0
 49
0.0
 49
0.0
 49
0.0
 49
1.0
 49
0.0
 49
0.0
 49
0.0
 49
0.0
 49
1.0
175
     0
142
0.0208333333333333
142
0.0
142
0.0
142
0.0
142
0.0
142
0.0208333333333333
142
0.0
142
0.0
142
0.0
142
0.0
142
1.0
142
0.0
142
0.0
142
0.0
142
0.0
142
1.0
179
     0
144
0.0208333333333333
144
0.0
144
0.0
144
0.0
144
0.0
144
0.0208333333333333
144
0.0
144
0.0
144
0.0
144
0.0
144
1.0
144
0.0
144
0.0
144
0.0
144
0.0
144
1.0
147
0.0208333333333333
147
0.0
147
0.0
147
0.0
147
0.0
147
0.0208333333333333
147
0.0
147
0.0
147
0.0
147
0.0
147
1.0
147
0.0
147
0.0
147
0.0
147
0.0
147
1.0
  0
MATERIAL
  5
3E9
102
{ACAD_XDICTIONARY
360
3EA
102
}
102
{ACAD_REACTORS
330
3E8
102
}
330
3E8
100
AcDbMaterial
  1
ByLayer
 72
     0
 43
0.0208333333333333
 43
0.0
 43
0.0
 43
0.0
 43
0.0
 43
0.0208333333333333
 43
0.0
 43
0.0
 43
0.0
 43
0.0
 43
1.0
 43
0.0
 43
0.0
 43
0.0
 43
0.0
 43
1.0
 77
     0
 47
0.0208333333333333
 47
0.0
 47
0.0
 47
0.0
 47
0.0
 47
0.0208333333333333
 47
0.0
 47
0.0
 47
0.0
 47
0.0
 47
1.0
 47
0.0
 47
0.0
 47
0.0
 47
0.0
 47
1.0
171
     0
 49
0.0208333333333333
 49
0.0
 49
0.0
 49
0.0
 49
0.0
 49
0.0208333333333333
 49
0.0
 49
0.0
 49
0.0
 49
0.0
 49
1.0
 49
0.0
 49
0.0
 49
0.0
 49
0.0
 49
1.0
175
     0
142
0.0208333333333333
142
0.0
142
0.0
142
0.0
142
0.0
142
0.0208333333333333
142
0.0
142
0.0
142
0.0
142
0.0
142
1.0
142
0.0
142
0.0
142
0.0
142
0.0
142
1.0
179
     0
144
0.0208333333333333
144
0.0
144
0.0
144
0.0
144
0.0
144
0.0208333333333333
144
0.0
144
0.0
144
0.0
144
0.0
144
1.0
144
0.0
144
0.0
144
0.0
144
0.0
144
1.0
147
0.0208333333333333
147
0.0
147
0.0
147
0.0
147
0.0
147
0.0208333333333333
147
0.0
147
0.0
147
0.0
147
0.0
147
1.0
147
0.0
147
0.0
147
0.0
147
0.0
147
1.0
  0
MATERIAL
  5
3F9
102
{ACAD_XDICTIONARY
360
3FA
102
}
102
{ACAD_REACTORS
330
3E8
102
}
330
3E8
100
AcDbMaterial
  1
Global
 72
     0
 43
0.0208333333333333
 43
0.0
 43
0.0
 43
0.0
 43
0.0
 43
0.0208333333333333
 43
0.0
 43
0.0
 43
0.0
 43
0.0
 43
1.0
 43
0.0
 43
0.0
 43
0.0
 43
0.0
 43
1.0
 77
     0
 47
0.0208333333333333
 47
0.0
 47
0.0
 47
0.0
 47
0.0
 47
0.0208333333333333
 47
0.0
 47
0.0
 47
0.0
 47
0.0
 47
1.0
 47
0.0
 47
0.0
 47
0.0
 47
0.0
 47
1.0
171
     0
 49
0.0208333333333333
 49
0.0
 49
0.0
 49
0.0
 49
0.0
 49
0.0208333333333333
 49
0.0
 49
0.0
 49
0.0
 49
0.0
 49
1.0
 49
0.0
 49
0.0
 49
0.0
 49
0.0
 49
1.0
175
     0
142
0.0208333333333333
142
0.0
142
0.0
142
0.0
142
0.0
142
0.0208333333333333
142
0.0
142
0.0
142
0.0
142
0.0
142
1.0
142
0.0
142
0.0
142
0.0
142
0.0
142
1.0
179
     0
144
0.0208333333333333
144
0.0
144
0.0
144
0.0
144
0.0
144
0.0208333333333333
144
0.0
144
0.0
144
0.0
144
0.0
144
1.0
144
0.0
144
0.0
144
0.0
144
0.0
144
1.0
147
0.0208333333333333
147
0.0
147
0.0
147
0.0
147
0.0
147
0.0208333333333333
147
0.0
147
0.0
147
0.0
147
0.0
147
1.0
147
0.0
147
0.0
147
0.0
147
0.0
147
1.0
  0
MLEADERSTYLE
  5
438
102
{ACAD_REACTORS
330
437
102
}
330
437
100
AcDbMLeaderStyle
170
     2
171
     1
172
     0
 90
        2
 40
0.0
 41
0.0
173
     1
 91
-1056964608
340
14
 92
       -2
290
     1
 42
0.09
291
     1
 43
0.36
  3
Standard
 44
0.18
300

342
11
174
     1
178
     6
175
     1
176
     0
 93
-1056964608
 45
0.18
292
     0
297
     0
 46
0.18
 94
-1056964608
 47
1.0
 49
1.0
140
1.0
293
     1
141
0.0
294
     1
177
     0
142
1.0
295
     0
296
     0
143
0.125
1001
ACAD_MLEADERVER
1070
     2
  0
MLINESTYLE
  5
18
102
{ACAD_REACTORS
330
17
102
}
330
17
100
AcDbMlineStyle
  2
STANDARD
 70
     0
  3

 62
   256
 51
90.0
 52
90.0
 71
     2
 49
0.5
 62
   256
  6
BYLAYER
 49
-0.5
 62
   256
  6
BYLAYER
  0
ACDBPLACEHOLDER
  5
F
102
{ACAD_REACTORS
330
E
102
}
330
E
  0
SCALE
  5
416
102
{ACAD_REACTORS
330
415
102
}
330
415
100
AcDbScale
 70
     0
300
1:1
140
1.0
141
1.0
290
     1
  0
SCALE
  5
417
102
{ACAD_REACTORS
330
415
102
}
330
415
100
AcDbScale
 70
     0
300
1:2
140
1.0
141
2.0
290
     0
  0
SCALE
  5
418
102
{ACAD_REACTORS
330
415
102
}
330
415
100
AcDbScale
 70
     0
300
1:4
140
1.0
141
4.0
290
     0
  0
SCALE
  5
419
102
{ACAD_REACTORS
330
415
102
}
330
415
100
AcDbScale
 70
     0
300
1:5
140
1.0
141
5.0
290
     0
  0
SCALE
  5
41A
102
{ACAD_REACTORS
330
415
102
}
330
415
100
AcDbScale
 70
     0
300
1:8
140
1.0
141
8.0
290
     0
  0
SCALE
  5
41B
102
{ACAD_REACTORS
330
415
102
}
330
415
100
AcDbScale
 70
     0
300
1:10
140
1.0
141
10.0
290
     0
  0
SCALE
  5
41C
102
{ACAD_REACTORS
330
415
102
}
330
415
100
AcDbScale
 70
     0
300
1:16
140
1.0
141
16.0
290
     0
  0
SCALE
  5
41D
102
{ACAD_REACTORS
330
415
102
}
330
415
100
AcDbScale
 70
     0
300
1:20
140
1.0
141
20.0
290
     0
  0
SCALE
  5
41E
102
{ACAD_REACTORS
330
415
102
}
330
415
100
AcDbScale
 70
     0
300
1:30
140
1.0
141
30.0
290
     0
  0
SCALE
  5
41F
102
{ACAD_REACTORS
330
415
102
}
330
415
100
AcDbScale
 70
     0
300
1:40
140
1.0
141
40.0
290
     0
  0
SCALE
  5
420
102
{ACAD_REACTORS
330
415
102
}
330
415
100
AcDbScale
 70
     0
300
1:50
140
1.0
141
50.0
290
     0
  0
SCALE
  5
421
102
{ACAD_REACTORS
330
415
102
}
330
415
100
AcDbScale
 70
     0
300
1:100
140
1.0
141
100.0
290
     0
  0
SCALE
  5
422
102
{ACAD_REACTORS
330
415
102
}
330
415
100
AcDbScale
 70
     0
300
2:1
140
2.0
141
1.0
290
     0
  0
SCALE
  5
423
102
{ACAD_REACTORS
330
415
102
}
330
415
100
AcDbScale
 70
     0
300
4:1
140
4.0
141
1.0
290
     0
  0
SCALE
  5
424
102
{ACAD_REACTORS
330
415
102
}
330
415
100
AcDbScale
 70
     0
300
8:1
140
8.0
141
1.0
290
     0
  0
SCALE
  5
425
102
{ACAD_REACTORS
330
415
102
}
330
415
100
AcDbScale
 70
     0
300
10:1
140
10.0
141
1.0
290
     0
  0
SCALE
  5
426
102
{ACAD_REACTORS
330
415
102
}
330
415
100
AcDbScale
 70
     0
300
100:1
140
100.0
141
1.0
290
     0
  0
SCALE
  5
427
102
{ACAD_REACTORS
330
415
102
}
330
415
100
AcDbScale
 70
     0
300
1/128" = 1'-0"
140
0.0078125
141
12.0
290
     0
  0
SCALE
  5
428
102
{ACAD_REACTORS
330
415
102
}
330
415
100
AcDbScale
 70
     0
300
1/64" = 1'-0"
140
0.015625
141
12.0
290
     0
  0
SCALE
  5
429
102
{ACAD_REACTORS
330
415
102
}
330
415
100
AcDbScale
 70
     0
300
1/32" = 1'-0"
140
0.03125
141
12.0
290
     0
  0
SCALE
  5
42A
102
{ACAD_REACTORS
330
415
102
}
330
415
100
AcDbScale
 70
     0
300
1/16" = 1'-0"
140
0.0625
141
12.0
290
     0
  0
SCALE
  5
42B
102
{ACAD_REACTORS
330
415
102
}
330
415
100
AcDbScale
 70
     0
300
3/32" = 1'-0"
140
0.09375
141
12.0
290
     0
  0
SCALE
  5
42C
102
{ACAD_REACTORS
330
415
102
}
330
415
100
AcDbScale
 70
     0
300
1/8" = 1'-0"
140
0.125
141
12.0
290
     0
  0
SCALE
  5
42D
102
{ACAD_REACTORS
330
415
102
}
330
415
100
AcDbScale
 70
     0
300
3/16" = 1'-0"
140
0.1875
141
12.0
290
     0
  0
SCALE
  5
42E
102
{ACAD_REACTORS
330
415
102
}
330
415
100
AcDbScale
 70
     0
300
1/4" = 1'-0"
140
0.25
141
12.0
290
     0
  0
SCALE
  5
42F
102
{ACAD_REACTORS
330
415
102
}
330
415
100
AcDbScale
 70
     0
300
3/8" = 1'-0"
140
0.375
141
12.0
290
     0
  0
SCALE
  5
430
102
{ACAD_REACTORS
330
415
102
}
330
415
100
AcDbScale
 70
     0
300
1/2" = 1'-0"
140
0.5
141
12.0
290
     0
  0
SCALE
  5
431
102
{ACAD_REACTORS
330
415
102
}
330
415
100
AcDbScale
 70
     0
300
3/4" = 1'-0"
140
0.75
141
12.0
290
     0
  0
SCALE
  5
432
102
{ACAD_REACTORS
330
415
102
}
330
415
100
AcDbScale
 70
     0
300
1" = 1'-0"
140
1.0
141
12.0
290
     0
  0
SCALE
  5
433
102
{ACAD_REACTORS
330
415
102
}
330
415
100
AcDbScale
 70
     0
300
1-1/2" = 1'-0"
140
1.5
141
12.0
290
     0
  0
SCALE
  5
434
102
{ACAD_REACTORS
330
415
102
}
330
415
100
AcDbScale
 70
     0
300
3" = 1'-0"
140
3.0
141
12.0
290
     0
  0
SCALE
  5
435
102
{ACAD_REACTORS
330
415
102
}
330
415
100
AcDbScale
 70
     0
300
6" = 1'-0"
140
6.0
141
12.0
290
     0
  0
SCALE
  5
436
102
{ACAD_REACTORS
330
415
102
}
330
415
100
AcDbScale
 70
     0
300
1'-0" = 1'-0"
140
12.0
141
12.0
290
     0
  0
TABLESTYLE
  5
414
102
{ACAD_XDICTIONARY
360
4E9
102
}
102
{ACAD_REACTORS
330
413
102
}
330
413
100
AcDbTableStyle
  3
Standard
 70
     0
 71
     0
 40
0.06
 41
0.06
280
     0
281
     0
  7
STANDARD
140
0.18
170
     2
 62
     0
 63
     7
283
     0
 90
      512
 91
        0
  1

274
    -2
284
     1
 64
     0
275
    -2
285
     1
 65
     0
276
    -2
286
     1
 66
     0
277
    -2
287
     1
 67
     0
278
    -2
288
     1
 68
     0
279
    -2
289
     1
 69
     0
  7
STANDARD
140
0.25
170
     5
 62
     0
 63
     7
283
     0
 90
      512
 91
        0
  1

274
    -2
284
     1
 64
     0
275
    -2
285
     1
 65
     0
276
    -2
286
     1
 66
     0
277
    -2
287
     1
 67
     0
278
    -2
288
     1
 68
     0
279
    -2
289
     1
 69
     0
  7
STANDARD
140
0.18
170
     5
 62
     0
 63
     7
283
     0
 90
      512
 91
        0
  1

274
    -2
284
     1
 64
     0
275
    -2
285
     1
 65
     0
276
    -2
286
     1
 66
     0
277
    -2
287
     1
 67
     0
278
    -2
288
     1
 68
     0
279
    -2
289
     1
 69
     0
  0
VISUALSTYLE
  5
407
102
{ACAD_REACTORS
330
401
102
}
330
401
100
AcDbVisualStyle
  2
2dWireframe
 70
     4
 71
     0
 72
     2
 73
     0
 90
        0
 40
-0.6
 41
-30.0
 62
     5
 63
     7
421
 16777215
 74
     1
 91
        4
 64
     7
 65
   257
 75
     1
175
     1
 42
1.0
 92
        0
 66
   257
 43
1.0
 76
     1
 77
     6
 78
     2
 67
     7
 79
     5
170
     0
171
     0
290
     0
174
     0
 93
        1
 44
0.0
173
     0
291
     0
 45
0.0
  0
VISUALSTYLE
  5
409
102
{ACAD_REACTORS
330
401
102
}
330
401
100
AcDbVisualStyle
  2
3D Hidden
 70
     6
 71
     1
 72
     2
 73
     2
 90
        0
 40
-0.6
 41
-30.0
 62
     5
 63
     7
421
 16777215
 74
     2
 91
        2
 64
     7
 65
   257
 75
     2
175
     1
 42
40.0
 92
        0
 66
   257
 43
1.0
 76
     1
 77
     6
 78
     2
 67
     7
 79
     3
170
     0
171
     0
290
     0
174
     0
 93
        1
 44
0.0
173
     0
291
     0
 45
0.0
  0
VISUALSTYLE
  5
408
102
{ACAD_REACTORS
330
401
102
}
330
401
100
AcDbVisualStyle
  2
3dWireframe
 70
     5
 71
     0
 72
     2
 73
     0
 90
        0
 40
-0.6
 41
-30.0
 62
     5
 63
     7
421
 16777215
 74
     1
 91
        4
 64
     7
 65
   257
 75
     1
175
     1
 42
1.0
 92
        0
 66
   257
 43
1.0
 76
     1
 77
     6
 78
     2
 67
     7
 79
     5
170
     0
171
     0
290
     0
174
     0
 93
        1
 44
0.0
173
     0
291
     0
 45
0.0
  0
VISUALSTYLE
  5
406
102
{ACAD_REACTORS
330
401
102
}
330
401
100
AcDbVisualStyle
  2
Basic
 70
     7
 71
     1
 72
     0
 73
     1
 90
        0
 40
-0.6
 41
-30.0
 62
     5
 63
     7
421
 16777215
 74
     0
 91
        4
 64
     7
 65
   257
 75
     1
175
     1
 42
1.0
 92
        8
 66
     7
 43
1.0
 76
     1
 77
     6
 78
     2
 67
     7
 79
     5
170
     0
171
     0
290
     0
174
     0
 93
        1
 44
0.0
173
     0
291
     1
 45
0.0
  0
VISUALSTYLE
  5
40D
102
{ACAD_REACTORS
330
401
102
}
330
401
100
AcDbVisualStyle
  2
Brighten
 70
    12
 71
     2
 72
     2
 73
     0
 90
        0
 40
-0.6
 41
-30.0
 62
     5
 63
     7
421
 16777215
 74
     1
 91
        4
 64
     7
 65
   257
 75
     1
175
     1
 42
1.0
 92
        8
 66
     7
 43
1.0
 76
     1
 77
     6
 78
     2
 67
     7
 79
     5
170
     0
171
     0
290
     0
174
     0
 93
        1
 44
50.0
173
     0
291
     1
 45
0.0
  0
VISUALSTYLE
  5
411
102
{ACAD_REACTORS
330
401
102
}
330
401
100
AcDbVisualStyle
  2
ColorChange
 70
    16
 71
     2
 72
     2
 73
     3
 90
        0
 40
-0.6
 41
-30.0
 62
     5
 63
     8
421
  8421504
 74
     1
 91
        4
 64
     7
 65
   257
 75
     1
175
     1
 42
1.0
 92
        8
 66
     8
424
  8421504
 43
1.0
 76
     1
 77
     6
 78
     2
 67
     7
 79
     5
170
     0
171
     0
290
     0
174
     0
 93
        1
 44
0.0
173
     0
291
     1
 45
0.0
  0
VISUALSTYLE
  5
40A
102
{ACAD_REACTORS
330
401
102
}
330
401
100
AcDbVisualStyle
  2
Conceptual
 70
     9
 71
     3
 72
     2
 73
     0
 90
        0
 40
-0.6
 41
-30.0
 62
     5
 63
     7
421
 16777215
 74
     2
 91
        2
 64
     7
 65
   257
 75
     1
175
     1
 42
40.0
 92
        8
 66
     7
 43
1.0
 76
     1
 77
     6
 78
     2
 67
     7
 79
     3
170
     0
171
     0
290
     0
174
     0
 93
        1
 44
0.0
173
     0
291
     0
 45
0.0
  0
VISUALSTYLE
  5
40C
102
{ACAD_REACTORS
330
401
102
}
330
401
100
AcDbVisualStyle
  2
Dim
 70
    11
 71
     2
 72
     2
 73
     0
 90
        0
 40
-0.6
 41
-30.0
 62
     5
 63
     7
421
 16777215
 74
     1
 91
        4
 64
     7
 65
   257
 75
     1
175
     1
 42
1.0
 92
        8
 66
     7
 43
1.0
 76
     1
 77
     6
 78
     2
 67
     7
 79
     5
170
     0
171
     0
290
     0
174
     0
 93
        1
 44
-50.0
173
     0
291
     1
 45
0.0
  0
VISUALSTYLE
  5
410
102
{ACAD_REACTORS
330
401
102
}
330
401
100
AcDbVisualStyle
  2
Facepattern
 70
    15
 71
     2
 72
     2
 73
     0
 90
        0
 40
-0.6
 41
-30.0
 62
     5
 63
     7
421
 16777215
 74
     1
 91
        4
 64
     7
 65
   257
 75
     1
175
     1
 42
1.0
 92
        8
 66
     7
 43
1.0
 76
     1
 77
     6
 78
     2
 67
     7
 79
     5
170
     0
171
     0
290
     0
174
     0
 93
        1
 44
0.0
173
     0
291
     1
 45
0.0
  0
VISUALSTYLE
  5
402
102
{ACAD_REACTORS
330
401
102
}
330
401
100
AcDbVisualStyle
  2
Flat
 70
     0
 71
     2
 72
     1
 73
     1
 90
        2
 40
-0.6
 41
30.0
 62
     5
 63
     7
421
 16777215
 74
     0
 91
        4
 64
     7
 65
   257
 75
     1
175
     1
 42
1.0
 92
        8
 66
     7
 43
1.0
 76
     1
 77
     6
 78
     2
 67
     7
 79
     5
170
     0
171
     0
290
     0
174
     0
 93
       13
 44
0.0
173
     0
291
     1
 45
0.0
  0
VISUALSTYLE
  5
403
102
{ACAD_REACTORS
330
401
102
}
330
401
100
AcDbVisualStyle
  2
FlatWithEdges
 70
     1
 71
     2
 72
     1
 73
     1
 90
        2
 40
-0.6
 41
30.0
 62
     5
 63
     7
421
 16777215
 74
     1
 91
        4
 64
     7
 65
   257
 75
     1
175
     1
 42
1.0
 92
        0
 66
   257
 43
1.0
 76
     1
 77
     6
 78
     2
 67
     7
 79
     5
170
     0
171
     0
290
     0
174
     0
 93
       13
 44
0.0
173
     0
291
     1
 45
0.0
  0
VISUALSTYLE
  5
404
102
{ACAD_REACTORS
330
401
102
}
330
401
100
AcDbVisualStyle
  2
Gouraud
 70
     2
 71
     2
 72
     2
 73
     1
 90
        2
 40
-0.6
 41
30.0
 62
     5
 63
     7
421
 16777215
 74
     0
 91
        4
 64
     7
 65
   257
 75
     1
175
     1
 42
1.0
 92
        0
 66
     7
 43
1.0
 76
     1
 77
     6
 78
     2
 67
     7
 79
     5
170
     0
171
     0
290
     0
174
     0
 93
       13
 44
0.0
173
     0
291
     1
 45
0.0
  0
VISUALSTYLE
  5
405
102
{ACAD_REACTORS
330
401
102
}
330
401
100
AcDbVisualStyle
  2
GouraudWithEdges
 70
     3
 71
     2
 72
     2
 73
     1
 90
        2
 40
-0.6
 41
30.0
 62
     5
 63
     7
421
 16777215
 74
     1
 91
        4
 64
     7
 65
   257
 75
     1
175
     1
 42
1.0
 92
        0
 66
   257
 43
1.0
 76
     1
 77
     6
 78
     2
 67
     7
 79
     5
170
     0
171
     0
290
     0
174
     0
 93
       13
 44
0.0
173
     0
291
     1
 45
0.0
  0
VISUALSTYLE
  5
40F
102
{ACAD_REACTORS
330
401
102
}
330
401
100
AcDbVisualStyle
  2
Linepattern
 70
    14
 71
     2
 72
     2
 73
     0
 90
        0
 40
-0.6
 41
-30.0
 62
     5
 63
     7
421
 16777215
 74
     1
 91
        4
 64
     7
 65
   257
 75
     7
175
     7
 42
1.0
 92
        8
 66
     7
 43
1.0
 76
     1
 77
     6
 78
     2
 67
     7
 79
     5
170
     0
171
     0
290
     0
174
     0
 93
        1
 44
0.0
173
     0
291
     1
 45
0.0
  0
VISUALSTYLE
  5
40B
102
{ACAD_REACTORS
330
401
102
}
330
401
100
AcDbVisualStyle
  2
Realistic
 70
     8
 71
     2
 72
     2
 73
     0
 90
        0
 40
-0.6
 41
-30.0
 62
     5
 63
     7
421
 16777215
 74
     1
 91
        0
 64
     7
 65
   257
 75
     1
175
     1
 42
1.0
 92
        8
 66
     8
424
  7895160
 43
1.0
 76
     1
 77
     6
 78
     2
 67
     7
 79
     5
170
     0
171
     0
290
     0
174
     0
 93
       13
 44
0.0
173
     0
291
     0
 45
0.0
  0
VISUALSTYLE
  5
40E
102
{ACAD_REACTORS
330
401
102
}
330
401
100
AcDbVisualStyle
  2
Thicken
 70
    13
 71
     2
 72
     2
 73
     0
 90
        0
 40
-0.6
 41
-30.0
 62
     5
 63
     7
421
 16777215
 74
     1
 91
        4
 64
     7
 65
   257
 75
     1
175
     1
 42
1.0
 92
       12
 66
     7
 43
1.0
 76
     1
 77
     6
 78
     2
 67
     7
 79
     5
170
     0
171
     0
290
     0
174
     0
 93
        1
 44
0.0
173
     0
291
     1
 45
0.0
  0
DICTIONARYVAR
  5
4E8
102
{ACAD_REACTORS
330
4E5
102
}
330
4E5
100
DictionaryVariables
280
     0
  1
1:1
  0
DICTIONARYVAR
  5
4E7
102
{ACAD_REACTORS
330
4E5
102
}
330
4E5
100
DictionaryVariables
280
     0
  1
STANDARD
  0
DICTIONARYVAR
  5
4E6
102
{ACAD_REACTORS
330
4E5
102
}
330
4E5
100
DictionaryVariables
280
     0
  1
STANDARD
  0
DICTIONARY
  5
4A3
102
{ACAD_REACTORS
330
496
102
}
330
496
100
AcDbDictionary
281
     1
  0
DICTIONARY
  5
3F2
330
3F1
100
AcDbDictionary
280
     1
281
     1
  3
BUMPTILE
360
3F4
  3
DIFFUSETILE
360
3F3
  3
OPACITYTILE
360
3F7
  3
REFLECTIONTILE
360
3F6
  3
REFRACTIONTILE
360
3F8
  3
SPECULARTILE
360
3F5
  0
DICTIONARY
  5
3EA
330
3E9
100
AcDbDictionary
280
     1
281
     1
  3
BUMPTILE
360
3EC
  3
DIFFUSETILE
360
3EB
  3
OPACITYTILE
360
3EF
  3
REFLECTIONTILE
360
3EE
  3
REFRACTIONTILE
360
3F0
  3
SPECULARTILE
360
3ED
  0
DICTIONARY
  5
3FA
330
3F9
100
AcDbDictionary
280
     1
281
     1
  3
BUMPTILE
360
3FC
  3
DIFFUSETILE
360
3FB
  3
OPACITYTILE
360
3FF
  3
REFLECTIONTILE
360
3FE
  3
REFRACTIONTILE
360
400
  3
SPECULARTILE
360
3FD
  0
DICTIONARY
  5
4E9
330
414
100
AcDbDictionary
280
     1
281
     1
  3
ACAD_ROUNDTRIP_2008_TABLESTYLE_CELLSTYLEMAP
360
6D4
  0
XRECORD
  5
3F4
102
{ACAD_REACTORS
330
3F2
102
}
330
3F2
100
AcDbXrecord
280
     1
270
     1
271
     1
  0
XRECORD
  5
3F3
102
{ACAD_REACTORS
330
3F2
102
}
330
3F2
100
AcDbXrecord
280
     1
270
     1
271
     1
  0
XRECORD
  5
3F7
102
{ACAD_REACTORS
330
3F2
102
}
330
3F2
100
AcDbXrecord
280
     1
270
     1
271
     1
  0
XRECORD
  5
3F6
102
{ACAD_REACTORS
330
3F2
102
}
330
3F2
100
AcDbXrecord
280
     1
270
     1
271
     1
  0
XRECORD
  5
3F8
102
{ACAD_REACTORS
330
3F2
102
}
330
3F2
100
AcDbXrecord
280
     1
270
     1
271
     1
  0
XRECORD
  5
3F5
102
{ACAD_REACTORS
330
3F2
102
}
330
3F2
100
AcDbXrecord
280
     1
270
     1
271
     1
  0
XRECORD
  5
3EC
102
{ACAD_REACTORS
330
3EA
102
}
330
3EA
100
AcDbXrecord
280
     1
270
     1
271
     1
  0
XRECORD
  5
3EB
102
{ACAD_REACTORS
330
3EA
102
}
330
3EA
100
AcDbXrecord
280
     1
270
     1
271
     1
  0
XRECORD
  5
3EF
102
{ACAD_REACTORS
330
3EA
102
}
330
3EA
100
AcDbXrecord
280
     1
270
     1
271
     1
  0
XRECORD
  5
3EE
102
{ACAD_REACTORS
330
3EA
102
}
330
3EA
100
AcDbXrecord
280
     1
270
     1
271
     1
  0
XRECORD
  5
3F0
102
{ACAD_REACTORS
330
3EA
102
}
330
3EA
100
AcDbXrecord
280
     1
270
     1
271
     1
  0
XRECORD
  5
3ED
102
{ACAD_REACTORS
330
3EA
102
}
330
3EA
100
AcDbXrecord
280
     1
270
     1
271
     1
  0
XRECORD
  5
3FC
102
{ACAD_REACTORS
330
3FA
102
}
330
3FA
100
AcDbXrecord
280
     1
270
     1
271
     1
  0
XRECORD
  5
3FB
102
{ACAD_REACTORS
330
3FA
102
}
330
3FA
100
AcDbXrecord
280
     1
270
     1
271
     1
  0
XRECORD
  5
3FF
102
{ACAD_REACTORS
330
3FA
102
}
330
3FA
100
AcDbXrecord
280
     1
270
     1
271
     1
  0
XRECORD
  5
3FE
102
{ACAD_REACTORS
330
3FA
102
}
330
3FA
100
AcDbXrecord
280
     1
270
     1
271
     1
  0
XRECORD
  5
400
102
{ACAD_REACTORS
330
3FA
102
}
330
3FA
100
AcDbXrecord
280
     1
270
     1
271
     1
  0
XRECORD
  5
3FD
102
{ACAD_REACTORS
330
3FA
102
}
330
3FA
100
AcDbXrecord
280
     1
270
     1
271
     1
  0
CELLSTYLEMAP
  5
6D4
102
{ACAD_REACTORS
330
4E9
102
}
330
4E9
100
AcDbCellStyleMap
 90
        3
300
CELLSTYLE
  1
TABLEFORMAT_BEGIN
 90
        5
170
     1
 91
        0
 92
    32768
 62
   257
 93
        1
300
CONTENTFORMAT
  1
CONTENTFORMAT_BEGIN
 90
        0
 91
        0
 92
      512
 93
        0
300

 40
0.0
140
1.0
 94
        5
 62
     0
340
11
144
0.25
309
CONTENTFORMAT_END
171
     1
301
MARGIN
  1
CELLMARGIN_BEGIN
 40
0.06
 40
0.06
 40
0.06
 40
0.06
 40
0.18
 40
0.18
309
CELLMARGIN_END
 94
        6
 95
        1
302
GRIDFORMAT
  1
GRIDFORMAT_BEGIN
 90
        0
 91
        1
 62
     0
 92
       -2
340
0
 93
        0
 40
0.045
309
GRIDFORMAT_END
 95
        2
302
GRIDFORMAT
  1
GRIDFORMAT_BEGIN
 90
        0
 91
        1
 62
     0
 92
       -2
340
0
 93
        0
 40
0.045
309
GRIDFORMAT_END
 95
        4
302
GRIDFORMAT
  1
GRIDFORMAT_BEGIN
 90
        0
 91
        1
 62
     0
 92
       -2
340
0
 93
        0
 40
0.045
309
GRIDFORMAT_END
 95
        8
302
GRIDFORMAT
  1
GRIDFORMAT_BEGIN
 90
        0
 91
        1
 62
     0
 92
       -2
340
0
 93
        0
 40
0.045
309
GRIDFORMAT_END
 95
       16
302
GRIDFORMAT
  1
GRIDFORMAT_BEGIN
 90
        0
 91
        1
 62
     0
 92
       -2
340
0
 93
        0
 40
0.045
309
GRIDFORMAT_END
 95
       32
302
GRIDFORMAT
  1
GRIDFORMAT_BEGIN
 90
        0
 91
        1
 62
     0
 92
       -2
340
0
 93
        0
 40
0.045
309
GRIDFORMAT_END
309
TABLEFORMAT_END
  1
CELLSTYLE_BEGIN
 90
        1
 91
        1
300
_TITLE
309
CELLSTYLE_END
300
CELLSTYLE
  1
TABLEFORMAT_BEGIN
 90
        5
170
     1
 91
        0
 92
        0
 62
   257
 93
        1
300
CONTENTFORMAT
  1
CONTENTFORMAT_BEGIN
 90
        0
 91
        0
 92
      512
 93
        0
300

 40
0.0
140
1.0
 94
        5
 62
     0
340
11
144
0.18
309
CONTENTFORMAT_END
171
     1
301
MARGIN
  1
CELLMARGIN_BEGIN
 40
0.06
 40
0.06
 40
0.06
 40
0.06
 40
0.18
 40
0.18
309
CELLMARGIN_END
 94
        6
 95
        1
302
GRIDFORMAT
  1
GRIDFORMAT_BEGIN
 90
        0
 91
        1
 62
     0
 92
       -2
340
0
 93
        0
 40
0.045
309
GRIDFORMAT_END
 95
        2
302
GRIDFORMAT
  1
GRIDFORMAT_BEGIN
 90
        0
 91
        1
 62
     0
 92
       -2
340
0
 93
        0
 40
0.045
309
GRIDFORMAT_END
 95
        4
302
GRIDFORMAT
  1
GRIDFORMAT_BEGIN
 90
        0
 91
        1
 62
     0
 92
       -2
340
0
 93
        0
 40
0.045
309
GRIDFORMAT_END
 95
        8
302
GRIDFORMAT
  1
GRIDFORMAT_BEGIN
 90
        0
 91
        1
 62
     0
 92
       -2
340
0
 93
        0
 40
0.045
309
GRIDFORMAT_END
 95
       16
302
GRIDFORMAT
  1
GRIDFORMAT_BEGIN
 90
        0
 91
        1
 62
     0
 92
       -2
340
0
 93
        0
 40
0.045
309
GRIDFORMAT_END
 95
       32
302
GRIDFORMAT
  1
GRIDFORMAT_BEGIN
 90
        0
 91
        1
 62
     0
 92
       -2
340
0
 93
        0
 40
0.045
309
GRIDFORMAT_END
309
TABLEFORMAT_END
  1
CELLSTYLE_BEGIN
 90
        2
 91
        1
300
_HEADER
309
CELLSTYLE_END
300
CELLSTYLE
  1
TABLEFORMAT_BEGIN
 90
        5
170
     1
 91
        0
 92
        0
 62
   257
 93
        1
300
CONTENTFORMAT
  1
CONTENTFORMAT_BEGIN
 90
        0
 91
        0
 92
      512
 93
        0
300

 40
0.0
140
1.0
 94
        2
 62
     0
340
11
144
0.18
309
CONTENTFORMAT_END
171
     1
301
MARGIN
  1
CELLMARGIN_BEGIN
 40
0.06
 40
0.06
 40
0.06
 40
0.06
 40
0.18
 40
0.18
309
CELLMARGIN_END
 94
        6
 95
        1
302
GRIDFORMAT
  1
GRIDFORMAT_BEGIN
 90
        0
 91
        1
 62
     0
 92
       -2
340
0
 93
        0
 40
0.045
309
GRIDFORMAT_END
 95
        2
302
GRIDFORMAT
  1
GRIDFORMAT_BEGIN
 90
        0
 91
        1
 62
     0
 92
       -2
340
0
 93
        0
 40
0.045
309
GRIDFORMAT_END
 95
        4
302
GRIDFORMAT
  1
GRIDFORMAT_BEGIN
 90
        0
 91
        1
 62
     0
 92
       -2
340
0
 93
        0
 40
0.045
309
GRIDFORMAT_END
 95
        8
302
GRIDFORMAT
  1
GRIDFORMAT_BEGIN
 90
        0
 91
        1
 62
     0
 92
       -2
340
0
 93
        0
 40
0.045
309
GRIDFORMAT_END
 95
       16
302
GRIDFORMAT
  1
GRIDFORMAT_BEGIN
 90
        0
 91
        1
 62
     0
 92
       -2
340
0
 93
        0
 40
0.045
309
GRIDFORMAT_END
 95
       32
302
GRIDFORMAT
  1
GRIDFORMAT_BEGIN
 90
        0
 91
        1
 62
     0
 92
       -2
340
0
 93
        0
 40
0.045
309
GRIDFORMAT_END
309
TABLEFORMAT_END
  1
CELLSTYLE_BEGIN
 90
        3
 91
        2
300
_DATA
309
CELLSTYLE_END
  0
ENDSEC
  0
EOF
