  0
SECTION
  2
HEADER
  9
$ACADVER
  1
AC1021
  9
$ACADMAINTVER
 70
    50
  9
$DWGCODEPAGE
  3
ANSI_936
  9
$LASTSAVEDBY
  1
kocb568
  9
$INSBASE
 10
0.0
 20
0.0
 30
0.0
  9
$EXTMIN
 10
-4.192312701399997
 20
0.7176122652
 30
0.0
  9
$EXTMAX
 10
21.6671359343
 20
17.4866251891
 30
0.0
  9
$LIMMIN
 10
0.0
 20
0.0
  9
$LIMMAX
 10
22.0
 20
17.0
  9
$ORTHOMODE
 70
     0
  9
$REGENMODE
 70
     1
  9
$FILLMODE
 70
     1
  9
$QTEXTMODE
 70
     0
  9
$MIRRTEXT
 70
     0
  9
$LTSCALE
 40
1.209999999999997
  9
$ATTMODE
 70
     1
  9
$TEXTSIZE
 40
0.2
  9
$TRACEWID
 40
0.05
  9
$TEXTSTYLE
  7
STANDARD
  9
$CLAYER
  8
0
  9
$CELTYPE
  6
BYLAYER
  9
$CECOLOR
 62
   256
  9
$CELTSCALE
 40
1.0
  9
$DISPSILH
 70
     0
  9
$DIMSCALE
 40
1.0
  9
$DIMASZ
 40
0.12
  9
$DIMEXO
 40
0.05
  9
$DIMDLI
 40
0.5
  9
$DIMRND
 40
0.0
  9
$DIMDLE
 40
0.0
  9
$DIMEXE
 40
0.1
  9
$DIMTP
 40
0.1
  9
$DIMTM
 40
0.1
  9
$DIMTXT
 40
0.12
  9
$DIMCEN
 40
0.0
  9
$DIMTSZ
 40
0.0
  9
$DIMTOL
 70
     0
  9
$DIMLIM
 70
     0
  9
$DIMTIH
 70
     1
  9
$DIMTOH
 70
     1
  9
$DIMSE1
 70
     0
  9
$DIMSE2
 70
     0
  9
$DIMTAD
 70
     0
  9
$DIMZIN
 70
     7
  9
$DIMBLK
  1

  9
$DIMASO
 70
     1
  9
$DIMSHO
 70
     1
  9
$DIMPOST
  1

  9
$DIMAPOST
  1
mm
  9
$DIMALT
 70
     0
  9
$DIMALTD
 70
     2
  9
$DIMALTF
 40
25.4
  9
$DIMLFAC
 40
1.0
  9
$DIMTOFL
 70
     0
  9
$DIMTVP
 40
0.0
  9
$DIMTIX
 70
     0
  9
$DIMSOXD
 70
     0
  9
$DIMSAH
 70
     0
  9
$DIMBLK1
  1

  9
$DIMBLK2
  1

  9
$DIMSTYLE
  2
AM_ANSI
  9
$DIMCLRD
 70
   256
  9
$DIMCLRE
 70
   256
  9
$DIMCLRT
 70
   140
  9
$DIMTFAC
 40
0.71
  9
$DIMGAP
 40
0.06
  9
$DIMJUST
 70
     0
  9
$DIMSD1
 70
     0
  9
$DIMSD2
 70
     0
  9
$DIMTOLJ
 70
     1
  9
$DIMTZIN
 70
     7
  9
$DIMALTZ
 70
     0
  9
$DIMALTTZ
 70
     0
  9
$DIMUPT
 70
     0
  9
$DIMDEC
 70
     4
  9
$DIMTDEC
 70
     4
  9
$DIMALTU
 70
     2
  9
$DIMALTTD
 70
     4
  9
$DIMTXSTY
  7
STANDARD
  9
$DIMAUNIT
 70
     0
  9
$DIMADEC
 70
     0
  9
$DIMALTRND
 40
0.0
  9
$DIMAZIN
 70
     2
  9
$DIMDSEP
 70
    46
  9
$DIMATFIT
 70
     3
  9
$DIMFRAC
 70
     0
  9
$DIMLDRBLK
  1

  9
$DIMLUNIT
 70
     2
  9
$DIMLWD
 70
    -1
  9
$DIMLWE
 70
    -1
  9
$DIMTMOVE
 70
     0
  9
$DIMFXL
 40
1.0
  9
$DIMFXLON
 70
     0
  9
$DIMJOGANG
 40
0.7853981633974483
  9
$DIMTFILL
 70
     0
  9
$DIMTFILLCLR
 70
     0
  9
$DIMARCSYM
 70
     1
  9
$DIMLTYPE
  6
BYBLOCK
  9
$DIMLTEX1
  6
BYBLOCK
  9
$DIMLTEX2
  6
BYBLOCK
  9
$LUNITS
 70
     2
  9
$LUPREC
 70
     4
  9
$SKETCHINC
 40
0.1
  9
$FILLETRAD
 40
0.0
  9
$AUNITS
 70
     0
  9
$AUPREC
 70
     0
  9
$MENU
  1
.
  9
$ELEVATION
 40
0.0
  9
$PELEVATION
 40
0.0
  9
$THICKNESS
 40
0.0
  9
$LIMCHECK
 70
     0
  9
$CHAMFERA
 40
0.0
  9
$CHAMFERB
 40
0.0
  9
$CHAMFERC
 40
0.0
  9
$CHAMFERD
 40
0.0
  9
$SKPOLY
 70
     0
  9
$TDCREATE
 40
2455875.460383820
  9
$TDUCREATE
 40
2455875.127050486
  9
$TDUPDATE
 40
2455875.573185336
  9
$TDUUPDATE
 40
2455875.239852002
  9
$TDINDWG
 40
0.0018589236
  9
$TDUSRTIMER
 40
0.0018589236
  9
$USRTIMER
 70
     1
  9
$ANGBASE
 50
0.0
  9
$ANGDIR
 70
     0
  9
$PDMODE
 70
     3
  9
$PDSIZE
 40
0.3125
  9
$PLINEWID
 40
0.0
  9
$SPLFRAME
 70
     0
  9
$SPLINETYPE
 70
     6
  9
$SPLINESEGS
 70
     8
  9
$HANDSEED
  5
5E5
  9
$SURFTAB1
 70
     6
  9
$SURFTAB2
 70
     6
  9
$SURFTYPE
 70
     6
  9
$SURFU
 70
     6
  9
$SURFV
 70
     6
  9
$UCSBASE
  2

  9
$UCSNAME
  2

  9
$UCSORG
 10
0.0
 20
0.0
 30
0.0
  9
$UCSXDIR
 10
1.0
 20
0.0
 30
0.0
  9
$UCSYDIR
 10
0.0
 20
1.0
 30
0.0
  9
$UCSORTHOREF
  2

  9
$UCSORTHOVIEW
 70
     0
  9
$UCSORGTOP
 10
0.0
 20
0.0
 30
0.0
  9
$UCSORGBOTTOM
 10
0.0
 20
0.0
 30
0.0
  9
$UCSORGLEFT
 10
0.0
 20
0.0
 30
0.0
  9
$UCSORGRIGHT
 10
0.0
 20
0.0
 30
0.0
  9
$UCSORGFRONT
 10
0.0
 20
0.0
 30
0.0
  9
$UCSORGBACK
 10
0.0
 20
0.0
 30
0.0
  9
$PUCSBASE
  2

  9
$PUCSNAME
  2

  9
$PUCSORG
 10
0.0
 20
0.0
 30
0.0
  9
$PUCSXDIR
 10
1.0
 20
0.0
 30
0.0
  9
$PUCSYDIR
 10
0.0
 20
1.0
 30
0.0
  9
$PUCSORTHOREF
  2

  9
$PUCSORTHOVIEW
 70
     0
  9
$PUCSORGTOP
 10
0.0
 20
0.0
 30
0.0
  9
$PUCSORGBOTTOM
 10
0.0
 20
0.0
 30
0.0
  9
$PUCSORGLEFT
 10
0.0
 20
0.0
 30
0.0
  9
$PUCSORGRIGHT
 10
0.0
 20
0.0
 30
0.0
  9
$PUCSORGFRONT
 10
0.0
 20
0.0
 30
0.0
  9
$PUCSORGBACK
 10
0.0
 20
0.0
 30
0.0
  9
$USERI1
 70
     0
  9
$USERI2
 70
     0
  9
$USERI3
 70
     0
  9
$USERI4
 70
     0
  9
$USERI5
 70
     0
  9
$USERR1
 40
0.0
  9
$USERR2
 40
0.0
  9
$USERR3
 40
0.0
  9
$USERR4
 40
0.0
  9
$USERR5
 40
0.0
  9
$WORLDVIEW
 70
     1
  9
$SHADEDGE
 70
     3
  9
$SHADEDIF
 70
    70
  9
$TILEMODE
 70
     1
  9
$MAXACTVP
 70
    64
  9
$PINSBASE
 10
0.0
 20
0.0
 30
0.0
  9
$PLIMCHECK
 70
     0
  9
$PEXTMIN
 10
1.000000000000000E+20
 20
1.000000000000000E+20
 30
1.000000000000000E+20
  9
$PEXTMAX
 10
-1.000000000000000E+20
 20
-1.000000000000000E+20
 30
-1.000000000000000E+20
  9
$PLIMMIN
 10
0.0
 20
0.0
  9
$PLIMMAX
 10
12.0
 20
9.0
  9
$UNITMODE
 70
     0
  9
$VISRETAIN
 70
     1
  9
$PLINEGEN
 70
     0
  9
$PSLTSCALE
 70
     1
  9
$TREEDEPTH
 70
  3020
  9
$CMLSTYLE
  2
Standard
  9
$CMLJUST
 70
     0
  9
$CMLSCALE
 40
1.0
  9
$PROXYGRAPHICS
 70
     1
  9
$MEASUREMENT
 70
     0
  9
$CELWEIGHT
370
    -1
  9
$ENDCAPS
280
     0
  9
$JOINSTYLE
280
     0
  9
$LWDISPLAY
290
     0
  9
$INSUNITS
 70
     1
  9
$HYPERLINKBASE
  1

  9
$STYLESHEET
  1

  9
$XEDIT
290
     1
  9
$CEPSNTYPE
380
     0
  9
$PSTYLEMODE
290
     1
  9
$FINGERPRINTGUID
  2
{ED968EAC-3F46-49AC-8587-931932A05A83}
  9
$VERSIONGUID
  2
{4D3E66BC-5FA8-4518-A59B-91129BDD1810}
  9
$EXTNAMES
290
     1
  9
$PSVPSCALE
 40
0.0
  9
$OLESTARTUP
290
     0
  9
$SORTENTS
280
   127
  9
$INDEXCTL
280
     0
  9
$HIDETEXT
280
     1
  9
$XCLIPFRAME
290
     0
  9
$HALOGAP
280
     0
  9
$OBSCOLOR
 70
   257
  9
$OBSLTYPE
280
     0
  9
$INTERSECTIONDISPLAY
280
     0
  9
$INTERSECTIONCOLOR
 70
   257
  9
$DIMASSOC
280
     2
  9
$PROJECTNAME
  1

  9
$CAMERADISPLAY
290
     0
  9
$LENSLENGTH
 40
50.0
  9
$CAMERAHEIGHT
 40
0.0
  9
$STEPSPERSEC
 40
2.0
  9
$STEPSIZE
 40
6.0
  9
$3DDWFPREC
 40
2.0
  9
$PSOLWIDTH
 40
0.25
  9
$PSOLHEIGHT
 40
4.0
  9
$LOFTANG1
 40
1.570796326794896
  9
$LOFTANG2
 40
1.570796326794896
  9
$LOFTMAG1
 40
0.0
  9
$LOFTMAG2
 40
0.0
  9
$LOFTPARAM
 70
     7
  9
$LOFTNORMALS
280
     1
  9
$LATITUDE
 40
37.795
  9
$LONGITUDE
 40
-122.394
  9
$NORTHDIRECTION
 40
0.0
  9
$TIMEZONE
 70
 -8000
  9
$LIGHTGLYPHDISPLAY
280
     1
  9
$TILEMODELIGHTSYNCH
280
     1
  9
$CMATERIAL
347
3E9
  9
$SOLIDHIST
280
     1
  9
$SHOWHIST
280
     1
  9
$DWFFRAME
280
     2
  9
$DGNFRAME
280
     0
  9
$REALWORLDSCALE
290
     1
  9
$INTERFERECOLOR
 62
     1
  9
$INTERFEREOBJVS
345
40B
  9
$INTERFEREVPVS
346
408
  9
$CSHADOW
280
     0
  9
$SHADOWPLANELOCATION
 40
0.0
  0
ENDSEC
  0
SECTION
  2
CLASSES
  0
CLASS
  1
ACDBDICTIONARYWDFLT
  2
AcDbDictionaryWithDefault
  3
ObjectDBX Classes
 90
        0
 91
        1
280
     0
281
     0
  0
CLASS
  1
MATERIAL
  2
AcDbMaterial
  3
ObjectDBX Classes
 90
     1153
 91
        3
280
     0
281
     0
  0
CLASS
  1
VISUALSTYLE
  2
AcDbVisualStyle
  3
ObjectDBX Classes
 90
     4095
 91
       16
280
     0
281
     0
  0
CLASS
  1
TABLESTYLE
  2
AcDbTableStyle
  3
ObjectDBX Classes
 90
     4095
 91
        1
280
     0
281
     0
  0
CLASS
  1
SCALE
  2
AcDbScale
  3
ObjectDBX Classes
 90
     1153
 91
       33
280
     0
281
     0
  0
CLASS
  1
MLEADERSTYLE
  2
AcDbMLeaderStyle
  3
ACDB_MLEADERSTYLE_CLASS
 90
     4095
 91
        1
280
     0
281
     0
  0
CLASS
  1
AMGSETTINGSOBJ
  2
AmgSettingsObj
  3
"AcadM|Product Description: AutoCAD Mechanical|Company: Autodesk, Inc."
 90
     1024
 91
        2
280
     0
281
     0
  0
CLASS
  1
ACME_DOCUMENT
  2
AcMeDbDoc
  3
AcMeServices
 90
     1024
 91
        1
280
     0
281
     0
  0
CLASS
  1
ACMESCOPE
  2
AcMeScope
  3
AcMeServices
 90
     1024
 91
        1
280
     0
281
     0
  0
CLASS
  1
ACMECOMMANDHISTORY
  2
AcMeCommandHistory
  3
AcMeServices
 90
     1024
 91
        1
280
     0
281
     0
  0
CLASS
  1
ACIMSYSVARMAN
  2
AcImSysVarManager
  3
AcMeServices
 90
     1024
 91
        5
280
     0
281
     0
  0
CLASS
  1
ACIMINTSYSVAR
  2
AcImIntSysVar
  3
AcMeServices
 90
     1024
 91
       27
280
     0
281
     0
  0
CLASS
  1
ACMEDRAWINGMAN
  2
AcMeDrawingMan
  3
AcMeServices
 90
     1024
 91
        1
280
     0
281
     0
  0
CLASS
  1
ACMEVIEW
  2
AcMeView
  3
AcMeServices
 90
     1024
 91
        1
280
     0
281
     0
  0
CLASS
  1
ACDBENTITYCACHE
  2
AcMeEntityCache
  3
AcMeServices
 90
     1024
 91
        1
280
     0
281
     0
  0
CLASS
  1
GSMANAGER
  2
AcMeGSManager
  3
AcMeServices
 90
     1024
 91
        1
280
     0
281
     0
  0
CLASS
  1
AMDTINTERNALREACTOR
  2
AmdtInternalReactor
  3
AcMeServices
 90
     1024
 91
        2
280
     0
281
     0
  0
CLASS
  1
ACMESTATEMGR
  2
AcMeStateMgr
  3
AcMeServices
 90
     1024
 91
        1
280
     0
281
     0
  0
CLASS
  1
ACGREFMASTER
  2
AcGrefMaster
  3
AcAttribServices
 90
     1024
 91
        1
280
     0
281
     0
  0
CLASS
  1
AM_DRAWING_MGR
  2
AcDmDwgMgr
  3
AcMechDwgViewMgmt
 90
     1024
 91
        1
280
     0
281
     0
  0
CLASS
  1
AM_DWG_DOCUMENT
  2
AcDmDwgDocument
  3
AcMechDwgViewMgmt
 90
     1024
 91
        1
280
     0
281
     0
  0
CLASS
  1
AM_DWG_SHEET
  2
AcDmSheet
  3
AcMechDwgViewMgmt
 90
     1024
 91
        1
280
     0
281
     0
  0
CLASS
  1
AM_VIEWDIMPARMAP
  2
AcDmViewDimParMap
  3
AcMechDwgViewMgmt
 90
     1024
 91
        1
280
     0
281
     0
  0
CLASS
  1
ACIMREALSYSVAR
  2
AcImRealSysVar
  3
AcMeServices
 90
     1024
 91
        1
280
     0
281
     0
  0
CLASS
  1
AM_DWGMGR_NAME
  2
AcDmDwgMgrName
  3
AcMechDwgViewMgmt
 90
     1024
 91
        1
280
     0
281
     0
  0
CLASS
  1
ACME_DATABASE
  2
AcMeDbDatabase
  3
AcMeServices
 90
     1024
 91
        1
280
     0
281
     0
  0
CLASS
  1
ACRFINSADJUSTERMGR
  2
AcRfInsAdjusterMgr
  3
AcMeServices
 90
     1024
 91
        1
280
     0
281
     0
  0
CLASS
  1
ACGREFACADMASTER
  2
AcGrefacadMaster
  3
AcGrefServices
 90
     1024
 91
        1
280
     0
281
     0
  0
CLASS
  1
AMDTMENUSTATEMGR
  2
AmdtMenuStateMgr
  3
McadcomServices
 90
     1024
 91
        1
280
     0
281
     0
  0
CLASS
  1
AMDTMCOMMENUSTATE
  2
AmdtMcomMenuState
  3
McadcomServices
 90
     1024
 91
        1
280
     0
281
     0
  0
CLASS
  1
AMIMASTER
  2
AmiMaster
  3
AmiServices
 90
     1024
 91
        1
280
     0
281
     0
  0
CLASS
  1
MAPIAMMOUDLE
  2
MApiAmModule
  3
MApiAmServices
 90
     1024
 91
        1
280
     0
281
     0
  0
CLASS
  1
ACIMSTRSYSVAR
  2
AcImStrSysVar
  3
AcMeServices
 90
     1024
 91
        5
280
     0
281
     0
  0
CLASS
  1
AMDTADMENUSTATE
  2
AmdtAdMenuState
  3
DesignerServices
 90
     1024
 91
        1
280
     0
281
     0
  0
CLASS
  1
ADAPPL
  2
AcAdAppl
  3
DesignerServices
 90
     1024
 91
        1
280
     0
281
     0
  0
CLASS
  1
DEPMGR
  2
AcAdDepMgr
  3
DesignerServices
 90
     1024
 91
        1
280
     0
281
     0
  0
CLASS
  1
PARAMMGR
  2
AcAdParamMgr
  3
DesignerServices
 90
     1024
 91
        1
280
     0
281
     0
  0
CLASS
  1
PARAMSCOPE
  2
AcAdParamScope
  3
DesignerServices
 90
     1024
 91
        1
280
     0
281
     0
  0
CLASS
  1
NAMEDAPPL
  2
AcAdNamedAppl
  3
DesignerServices
 90
     1024
 91
        1
280
     0
281
     0
  0
CLASS
  1
AMDTDMMENUSTATE
  2
AmdtDmMenuState
  3
AcMechDwgViewMgmt
 90
     1024
 91
        1
280
     0
281
     0
  0
CLASS
  1
AMDTAMMENUSTATE
  2
AmdtAmMenuState
  3
DesignerAssemblies
 90
     1024
 91
        1
280
     0
281
     0
  0
CLASS
  1
ACAMPROJECT
  2
AcAmProject
  3
DesignerAssemblies
 90
     1024
 91
        1
280
     0
281
     0
  0
CLASS
  1
ACAMGRCOMPDEF
  2
AcAmGrCompDef
  3
DesignerAssemblies
 90
     1024
 91
        1
280
     0
281
     0
  0
CLASS
  1
ACCMCONTEXT
  2
AcCmContext
  3
DesignerAssemblies
 90
     1024
 91
        1
280
     0
281
     0
  0
CLASS
  1
ACAMCOMPDEF
  2
AcAmCompDef
  3
DesignerAssemblies
 90
     1024
 91
        1
280
     0
281
     0
  0
CLASS
  1
ACAMCOMPDEFMGR
  2
AcAmCompDefMgr
  3
DesignerAssemblies
 90
     1024
 91
        1
280
     0
281
     0
  0
CLASS
  1
AMCONTEXTMGR
  2
AcAmContextMgr
  3
DesignerAssemblies
 90
     1024
 91
        1
280
     0
281
     0
  0
CLASS
  1
ACAMCONTEXTMODELER
  2
AcAmContextModeler
  3
DesignerAssemblies
 90
     1024
 91
        1
280
     0
281
     0
  0
CLASS
  1
ACMDATADICTIONARY
  2
AcmDataDictionary
  3
"AcmSymBB|Product Description: AutoCAD Mechanical|Company: Autodesk, Inc."
 90
     1024
 91
        1
280
     0
281
     0
  0
CLASS
  1
CATALOGSTATE
  2
AcAmCatalogState
  3
DesignerAssemblies
 90
     1024
 91
        1
280
     0
281
     0
  0
CLASS
  1
ACAMGRCOMPDEFSET
  2
AcAmGrCompDefSet
  3
DesignerAssemblies
 90
     1024
 91
        1
280
     0
281
     0
  0
CLASS
  1
AMDTBROWSERDBTAB
  2
AmdtBrowserDbTab
  3
McadcomServices
 90
     1024
 91
        1
280
     0
281
     0
  0
CLASS
  1
CBROWSERAPPOBJECT
  2
CBrowserAppObject
  3
McadcomServices
 90
     1024
 91
        3
280
     0
281
     0
  0
CLASS
  1
DM_PLACEHOLDER
  2
AcDmSelsetPlaceholder
  3
AcMechDwgViewMgmt
 90
     1024
 91
        1
280
     0
281
     0
  0
CLASS
  1
EXACXREFPANELOBJECT
  2
ExAcXREFPanelObject
  3
EXAC_ESW
 90
     1025
 91
        1
280
     0
281
     0
  0
CLASS
  1
NPOCOLLECTION
  2
AcDbImpNonPersistentObjectsCollection
  3
ObjectDBX Classes
 90
     1153
 91
        1
280
     0
281
     0
  0
CLASS
  1
ACMSTANDARDANSI
  2
AcmStandardANSI
  3
"Amdt_StdImp|Product Description: AutoCAD Mechanical|Company: Autodesk, Inc."
 90
     1024
 91
        1
280
     0
281
     0
  0
CLASS
  1
ACMSURFSTANDARDANSI
  2
AcmSurfTextStdANSI
  3
"Amdt_StdImp|Product Description: AutoCAD Mechanical|Company: Autodesk, Inc."
 90
     1024
 91
        1
280
     0
281
     0
  0
CLASS
  1
ACMFCFSTANDARDANSI
  2
AcmFCFStdANSI
  3
"Amdt_StdImp|Product Description: AutoCAD Mechanical|Company: Autodesk, Inc."
 90
     1024
 91
        1
280
     0
281
     0
  0
CLASS
  1
ACMWELDSTANDARDANSI
  2
AcmWeldingStdANSI
  3
"Amdt_StdImp|Product Description: AutoCAD Mechanical|Company: Autodesk, Inc."
 90
     1024
 91
        1
280
     0
281
     0
  0
CLASS
  1
ACMIDSTANDARDANSI
  2
AcmIdStdANSI
  3
"Amdt_StdImp|Product Description: AutoCAD Mechanical|Company: Autodesk, Inc."
 90
     1024
 91
        1
280
     0
281
     0
  0
CLASS
  1
ACMDATUMSTANDARDANSI
  2
AcmDatumStdANSI
  3
"Amdt_StdImp|Product Description: AutoCAD Mechanical|Company: Autodesk, Inc."
 90
     1024
 91
        1
280
     0
281
     0
  0
CLASS
  1
ACMBOMSTANDARDANSI
  2
AcmBOMStdANSI
  3
"Amdt_StdImp|Product Description: AutoCAD Mechanical|Company: Autodesk, Inc."
 90
     1024
 91
        1
280
     0
281
     0
  0
CLASS
  1
ACMDETAILSTANDARDANSI
  2
AmdtDetailSymStdANSI
  3
"Amdt_StdImp|Product Description: AutoCAD Mechanical|Company: Autodesk, Inc."
 90
     1024
 91
        1
280
     0
281
     0
  0
CLASS
  1
ACMSECTIONSTANDARDANSI
  2
AmdtSectionSymStdANSI
  3
"Amdt_StdImp|Product Description: AutoCAD Mechanical|Company: Autodesk, Inc."
 90
     1024
 91
        1
280
     0
281
     0
  0
CLASS
  1
ACMCENTERLINESTANDARDANSI
  2
AmdtCenterLineStdANSI
  3
"Amdt_StdImp|Product Description: AutoCAD Mechanical|Company: Autodesk, Inc."
 90
     1024
 91
        1
280
     0
281
     0
  0
CLASS
  1
ACMTHREADLINESTANDARDANSI
  2
AmdtThreadLineStdANSI
  3
"Amdt_StdImp|Product Description: AutoCAD Mechanical|Company: Autodesk, Inc."
 90
     1024
 91
        1
280
     0
281
     0
  0
CLASS
  1
ACMNOTESTANDARDANSI
  2
AmdtNoteStdANSI
  3
"Amdt_StdImp|Product Description: AutoCAD Mechanical|Company: Autodesk, Inc."
 90
     1024
 91
        1
280
     0
281
     0
  0
CLASS
  1
ACMTAPERSTANDARDANSI
  2
AcmTaperStdANSI
  3
"Amdt_StdImp|Product Description: AutoCAD Mechanical|Company: Autodesk, Inc."
 90
     1024
 91
        1
280
     0
281
     0
  0
CLASS
  1
ACMANOOTATIONVIEWSTANDARDANSI
  2
AmdtAnViewStdANSI
  3
"Amdt_StdImp|Product Description: AutoCAD Mechanical|Company: Autodesk, Inc."
 90
     1024
 91
        1
280
     0
281
     0
  0
CLASS
  1
ACAMGLAYSTD
  2
AcAmgLayStd
  3
"AmgLay|Product Description: AutoCAD Mechanical|Company: Autodesk, Inc."
 90
     1024
 91
        1
280
     0
281
     0
  0
CLASS
  1
ACAMGDIMSTD
  2
AcAmgDimStd
  3
"AmgDim|Product Description: AutoCAD Mechanical|Company: Autodesk, Inc."
 90
     1024
 91
        1
280
     0
281
     0
  0
CLASS
  1
AMGOBJPROPCFG
  2
AmgObjPropCfg
  3
"AmgLay|Product Description: AutoCAD Mechanical|Company: Autodesk, Inc."
 90
     1025
 91
        1
280
     0
281
     0
  0
CLASS
  1
ACAMGHOLECHARTSTDANSI
  2
AcAmgHoleChartStdANSI
  3
AmgDim|Product Description: AutoCAD Mechanical|Company: Autodesk, Inc.
 90
     1024
 91
        1
280
     0
281
     0
  0
CLASS
  1
ACAMGTITLESTD
  2
AcAmgTitleStd
  3
"AmgTitle|Product Description: AutoCAD Mechanical|Company: Autodesk, Inc."
 90
     4095
 91
        1
280
     0
281
     0
  0
CLASS
  1
AMDTNOTETEMPLATEDB
  2
AmdtNoteTemplateDB
  3
AcmSymBB|Product Description: AutoCAD Mechanical|Company: Autodesk, Inc.
 90
     1024
 91
        6
280
     0
281
     0
  0
CLASS
  1
ACAMGFILTERDAT
  2
AcAmgFilterDat
  3
"AcadM|Product Description: AutoCAD Mechanical|Company: Autodesk, Inc."
 90
     1024
 91
        0
280
     0
281
     0
  0
CLASS
  1
DICTIONARYVAR
  2
AcDbDictionaryVar
  3
ObjectDBX Classes
 90
        0
 91
        3
280
     0
281
     0
  0
CLASS
  1
CELLSTYLEMAP
  2
AcDbCellStyleMap
  3
ObjectDBX Classes
 90
     1152
 91
        2
280
     0
281
     0
  0
ENDSEC
  0
SECTION
  2
TABLES
  0
TABLE
  2
VPORT
  5
8
330
0
100
AcDbSymbolTable
 70
     1
  0
VPORT
  5
1F4
330
8
100
AcDbSymbolTableRecord
100
AcDbViewportTableRecord
  2
*ACTIVE
 70
     0
 10
0.0
 20
0.0
 11
1.0
 21
1.0
 12
5.805256876944042
 22
5.88570059566935
 13
0.0
 23
0.0
 14
1.0
 24
1.0
 15
0.0
 25
0.0
 16
0.0
 26
0.0
 36
1.0
 17
0.0
 27
0.0
 37
0.0
 40
18.14073941324384
 41
1.605849582172701
 42
50.0
 43
0.0
 44
0.0
 50
0.0
 51
0.0
 71
     0
 72
   100
 73
     1
 74
     1
 75
     0
 76
     0
 77
     0
 78
     0
281
     0
 65
     0
110
0.0
120
0.0
130
0.0
111
1.0
121
0.0
131
0.0
112
0.0
122
1.0
132
0.0
 79
     0
146
0.0
348
407
 60
     3
 61
     5
292
     1
282
     1
141
0.0
142
0.0
 63
   250
421
  3355443
  0
ENDTAB
  0
TABLE
  2
LTYPE
  5
5
330
0
100
AcDbSymbolTable
 70
    19
  0
LTYPE
  5
14
330
5
100
AcDbSymbolTableRecord
100
AcDbLinetypeTableRecord
  2
BYBLOCK
 70
     0
  3

 72
    65
 73
     0
 40
0.0
  0
LTYPE
  5
15
330
5
100
AcDbSymbolTableRecord
100
AcDbLinetypeTableRecord
  2
BYLAYER
 70
     0
  3

 72
    65
 73
     0
 40
0.0
  0
LTYPE
  5
16
330
5
100
AcDbSymbolTableRecord
100
AcDbLinetypeTableRecord
  2
CONTINUOUS
 70
     0
  3
Solid line
 72
    65
 73
     0
 40
0.0
  0
LTYPE
  5
1F5
330
5
100
AcDbSymbolTableRecord
100
AcDbLinetypeTableRecord
  2
CENTER
 70
     0
  3
____ _ ____ _ ____ _ ____ _ ____ _ ____ _ ____
 72
    65
 73
     4
 40
0.6
 49
0.375
 74
     0
 49
-0.075
 74
     0
 49
0.075
 74
     0
 49
-0.075
 74
     0
  0
LTYPE
  5
1F6
330
5
100
AcDbSymbolTableRecord
100
AcDbLinetypeTableRecord
  2
HIDDEN
 70
     0
  3
- - - - - - - - - - - - - - - - - - - -
 72
    65
 73
     2
 40
0.2
 49
0.1
 74
     0
 49
-0.1
 74
     0
  0
LTYPE
  5
1F7
330
5
100
AcDbSymbolTableRecord
100
AcDbLinetypeTableRecord
  2
PHANTOM
 70
     0
  3
_____ _ _ _____ _ _ _____ _ _ _____
 72
    65
 73
     6
 40
0.8
 49
0.45
 74
     0
 49
-0.05
 74
     0
 49
0.1
 74
     0
 49
-0.05
 74
     0
 49
0.1
 74
     0
 49
-0.05
 74
     0
  0
LTYPE
  5
1F8
330
5
100
AcDbSymbolTableRecord
100
AcDbLinetypeTableRecord
  2
DOT
 70
     0
  3
. . . . . . . . . . . . . . . . . . . .
 72
    65
 73
     2
 40
0.2
 49
0.1
 74
     0
 49
-0.1
 74
     0
  0
LTYPE
  5
1F9
330
5
100
AcDbSymbolTableRecord
100
AcDbLinetypeTableRecord
  2
DASHED
 70
     0
  3
- - - - - - - - - - - - - - - - - - - -
 72
    65
 73
     2
 40
0.2
 49
0.1
 74
     0
 49
-0.1
 74
     0
  0
LTYPE
  5
46F
330
5
100
AcDbSymbolTableRecord
100
AcDbLinetypeTableRecord
  2
PHANTOM2
 70
     0
  3
Phantom (.5x) ___ _ _ ___ _ _ ___ _ _ ___ _ _
 72
    65
 73
     6
 40
1.25
 49
0.625
 74
     0
 49
-0.125
 74
     0
 49
0.125
 74
     0
 49
-0.125
 74
     0
 49
0.125
 74
     0
 49
-0.125
 74
     0
  0
LTYPE
  5
4B6
330
5
100
AcDbSymbolTableRecord
100
AcDbLinetypeTableRecord
  2
AM_ISO02W050
 70
     0
  3
__ __ __ __ __ __ __ __ __ __ __ __ __ __ __
 72
    65
 73
     2
 40
7.5
 49
6.0
 74
     0
 49
-1.5
 74
     0
  0
LTYPE
  5
4B7
330
5
100
AcDbSymbolTableRecord
100
AcDbLinetypeTableRecord
  2
AM_ISO08W050
 70
     0
  3
____ . ____ . ____ . ____ . ____ . ____ . ____
 72
    65
 73
     4
 40
18.0
 49
12.0
 74
     0
 49
-1.5
 74
     0
 49
3.0
 74
     0
 49
-1.5
 74
     0
  0
LTYPE
  5
4B8
330
5
100
AcDbSymbolTableRecord
100
AcDbLinetypeTableRecord
  2
AM_ISO09W050
 70
     0
  3
_____ . . _____ . . _____ . . ____ .. ____
 72
    65
 73
     6
 40
22.5
 49
12.0
 74
     0
 49
-1.5
 74
     0
 49
3.0
 74
     0
 49
-1.5
 74
     0
 49
3.0
 74
     0
 49
-1.5
 74
     0
  0
LTYPE
  5
4B9
330
5
100
AcDbSymbolTableRecord
100
AcDbLinetypeTableRecord
  2
Amconstr
 70
     0
  3
_______________________
 72
    65
 73
     2
 40
9999.0
 49
9999.0
 74
     0
 49
0.0
 74
     0
  0
LTYPE
  5
4BA
330
5
100
AcDbSymbolTableRecord
100
AcDbLinetypeTableRecord
  2
AM_ISO08W050x2
 70
     0
  3
__ . __ . __ . __ . __ . __
 72
    65
 73
     4
 40
9.0
 49
6.0
 74
     0
 49
-0.75
 74
     0
 49
1.5
 74
     0
 49
-0.75
 74
     0
  0
LTYPE
  5
4BB
330
5
100
AcDbSymbolTableRecord
100
AcDbLinetypeTableRecord
  2
AM_ISO02W050x2
 70
     0
  3
 _ _ _ _ _ _ _ _ _ _ _ _
 72
    65
 73
     2
 40
3.75
 49
3.0
 74
     0
 49
-0.75
 74
     0
  0
LTYPE
  5
4BE
330
5
100
AcDbSymbolTableRecord
100
AcDbLinetypeTableRecord
  2
Amzigzag
 70
     0
  3
/\/-/\/-/\/-/\/-/\/-/\/
 72
    65
 73
     2
 40
11.0001
 49
0.0001
 74
     4
 75
   136
340
4BD
 46
0.04
 50
0.0
 44
0.0
 45
0.0
 49
-11.0
 74
     0
  0
LTYPE
  5
4BF
330
5
100
AcDbSymbolTableRecord
100
AcDbLinetypeTableRecord
  2
CENTER2
 70
     0
  3
Center (.5x) ___ _ ___ _ ___ _ ___ _ ___ _ ___
 72
    65
 73
     4
 40
1.125
 49
0.75
 74
     0
 49
-0.125
 74
     0
 49
0.125
 74
     0
 49
-0.125
 74
     0
  0
LTYPE
  5
4C0
330
5
100
AcDbSymbolTableRecord
100
AcDbLinetypeTableRecord
  2
HIDDEN2
 70
     0
  3
Hidden (.5x) _ _ _ _ _ _ _ _ _ _ _ _ _ _ _ _ _
 72
    65
 73
     2
 40
0.1875
 49
0.125
 74
     0
 49
-0.0625
 74
     0
  0
LTYPE
  5
4C1
330
5
100
AcDbSymbolTableRecord
100
AcDbLinetypeTableRecord
  2
Amzigzag2
 70
     0
  3
/\/-/\/-/\/-/\/-/\/-/\/
 72
    65
 73
     2
 40
0.4401
 49
0.0001
 74
     4
 75
   136
340
4BD
 46
0.0016
 50
0.0
 44
0.0
 45
0.0
 49
-0.4400000000000003
 74
     0
  0
LTYPE
  5
4CF
330
5
100
AcDbSymbolTableRecord
100
AcDbLinetypeTableRecord
  2
ACANSTGB
 70
     0
  3
__ . . __ . .
 72
    65
 73
     6
 40
0.35433070866
 49
0.15748031496
 74
     0
 49
-0.03937007874
 74
     0
 49
0.03937007874
 74
     0
 49
-0.03937007874
 74
     0
 49
0.03937007874
 74
     0
 49
-0.03937007874
 74
     0
  0
LTYPE
  5
4D0
330
5
100
AcDbSymbolTableRecord
100
AcDbLinetypeTableRecord
  2
ACANSTGL
 70
     0
  3
_ _ _ _ _
 72
    65
 73
     2
 40
0.11811023622
 49
0.07874015748
 74
     0
 49
-0.03937007874
 74
     0
  0
ENDTAB
  0
TABLE
  2
LAYER
  5
2
330
0
100
AcDbSymbolTable
 70
    15
  0
LAYER
  5
10
330
2
100
AcDbSymbolTableRecord
100
AcDbLayerTableRecord
  2
0
 70
     0
 62
     7
  6
CONTINUOUS
370
    -3
390
F
347
3F9
  0
LAYER
  5
1FA
330
2
100
AcDbSymbolTableRecord
100
AcDbLayerTableRecord
  2
DEFAULT_1
 70
     0
 62
     7
  6
CENTER
370
    -3
390
F
347
3F9
  0
LAYER
  5
1FB
330
2
100
AcDbSymbolTableRecord
100
AcDbLayerTableRecord
  2
DEFAULT_2
 70
     0
 62
     8
  6
HIDDEN
370
    -3
390
F
347
3F9
  0
LAYER
  5
1FC
330
2
100
AcDbSymbolTableRecord
100
AcDbLayerTableRecord
  2
DEFAULT_3
 70
     0
 62
     7
  6
PHANTOM
370
    -3
390
F
347
3F9
  0
LAYER
  5
1FD
330
2
100
AcDbSymbolTableRecord
100
AcDbLayerTableRecord
  2
DATUMS
 70
     0
 62
     7
  6
CONTINUOUS
370
    -3
390
F
347
3F9
  0
LAYER
  5
1FE
330
2
100
AcDbSymbolTableRecord
100
AcDbLayerTableRecord
  2
DATUM_AXIS
 70
     0
 62
     7
  6
CONTINUOUS
370
    -3
390
F
347
3F9
  0
LAYER
  5
1FF
330
2
100
AcDbSymbolTableRecord
100
AcDbLayerTableRecord
  2
DATUM_CSYS
 70
     0
 62
     7
  6
CONTINUOUS
370
    -3
390
F
347
3F9
  0
LAYER
  5
200
330
2
100
AcDbSymbolTableRecord
100
AcDbLayerTableRecord
  2
DATUM_PLANE
 70
     0
 62
     7
  6
CONTINUOUS
370
    -3
390
F
347
3F9
  0
LAYER
  5
201
330
2
100
AcDbSymbolTableRecord
100
AcDbLayerTableRecord
  2
DATUM_POINT
 70
     0
 62
     7
  6
CONTINUOUS
370
    -3
390
F
347
3F9
  0
LAYER
  5
202
330
2
100
AcDbSymbolTableRecord
100
AcDbLayerTableRecord
  2
INTF_9
 70
     0
 62
     7
  6
CONTINUOUS
370
    -3
390
F
347
3F9
  0
LAYER
  5
203
330
2
100
AcDbSymbolTableRecord
100
AcDbLayerTableRecord
  2
RGB____0____0____0__
 70
     0
 62
     7
  6
CONTINUOUS
370
    -3
390
F
347
3F9
  0
LAYER
  5
204
330
2
100
AcDbSymbolTableRecord
100
AcDbLayerTableRecord
  2
_CURVE
 70
     0
 62
     7
  6
CONTINUOUS
370
    -3
390
F
347
3F9
  0
LAYER
  5
205
330
2
100
AcDbSymbolTableRecord
100
AcDbLayerTableRecord
  2
_SURFACE
 70
     0
 62
     7
  6
CONTINUOUS
370
    -3
390
F
347
3F9
  0
LAYER
  5
206
330
2
100
AcDbSymbolTableRecord
100
AcDbLayerTableRecord
  2
__REF_CURVE
 70
     0
 62
     7
  6
CONTINUOUS
370
    -3
390
F
347
3F9
  0
LAYER
  5
207
330
2
100
AcDbSymbolTableRecord
100
AcDbLayerTableRecord
  2
__REF_SURFACE
 70
     0
 62
     7
  6
CONTINUOUS
370
    -3
390
F
347
3F9
  0
ENDTAB
  0
TABLE
  2
STYLE
  5
3
330
0
100
AcDbSymbolTable
 70
     5
  0
STYLE
  5
11
330
3
100
AcDbSymbolTableRecord
100
AcDbTextStyleTableRecord
  2
STANDARD
 70
     0
 40
0.0
 41
0.8
 50
0.0
 71
     0
 42
0.2
  3
txt
  4

  0
STYLE
  5
208
330
3
100
AcDbSymbolTableRecord
100
AcDbTextStyleTableRecord
  2
TEXTSTYLE_1
 70
     0
 40
0.0
 41
0.8
 50
0.0
 71
     0
 42
0.2
  3
gdt
  4

  0
STYLE
  5
4BD
330
3
100
AcDbSymbolTableRecord
100
AcDbTextStyleTableRecord
  2

 70
     1
 40
0.0
 41
1.0
 50
0.0
 71
     0
 42
0.2
  3
genltshp.shx
  4

  0
STYLE
  5
4CD
330
3
100
AcDbSymbolTableRecord
100
AcDbTextStyleTableRecord
  2
ACANSTS
 70
     0
 40
1.0
 41
1.0
 50
0.0
 71
     0
 42
0.2
  3
romans.shx
  4
gbcbig.shx
  0
STYLE
  5
4CE
330
3
100
AcDbSymbolTableRecord
100
AcDbTextStyleTableRecord
  2
ACANSGDT
 70
     0
 40
0.0
 41
1.0
 50
0.0
 71
     0
 42
0.2
  3
amgdt.shx
  4

  0
ENDTAB
  0
TABLE
  2
VIEW
  5
6
330
0
100
AcDbSymbolTable
 70
     0
  0
ENDTAB
  0
TABLE
  2
UCS
  5
7
330
0
100
AcDbSymbolTable
 70
     0
  0
ENDTAB
  0
TABLE
  2
APPID
  5
9
330
0
100
AcDbSymbolTable
 70
     9
  0
APPID
  5
209
330
9
100
AcDbSymbolTableRecord
100
AcDbRegAppTableRecord
  2
ACAD
 70
     0
  0
APPID
  5
439
330
9
100
AcDbSymbolTableRecord
100
AcDbRegAppTableRecord
  2
ACAD_MLEADERVER
 70
     0
  0
APPID
  5
442
330
9
100
AcDbSymbolTableRecord
100
AcDbRegAppTableRecord
  2
MCAD_NO_VIS
 70
     0
  0
APPID
  5
443
330
9
100
AcDbSymbolTableRecord
100
AcDbRegAppTableRecord
  2
ACAD_TEMP_GRAPHIC
 70
     0
  0
APPID
  5
471
330
9
100
AcDbSymbolTableRecord
100
AcDbRegAppTableRecord
  2
AD_DRAW
 70
     0
  0
APPID
  5
474
330
9
100
AcDbSymbolTableRecord
100
AcDbRegAppTableRecord
  2
ACATTRIBSERVICES
 70
     0
  0
APPID
  5
495
330
9
100
AcDbSymbolTableRecord
100
AcDbRegAppTableRecord
  2
DESIGNERASSEMBLIES
 70
     0
  0
APPID
  5
49B
330
9
100
AcDbSymbolTableRecord
100
AcDbRegAppTableRecord
  2
ACADM_DIM_EDIT
 70
     0
  0
APPID
  5
49C
330
9
100
AcDbSymbolTableRecord
100
AcDbRegAppTableRecord
  2
AMDT_DM_ADJ
 70
     0
  0
ENDTAB
  0
TABLE
  2
DIMSTYLE
  5
A
330
0
100
AcDbSymbolTable
 70
     7
100
AcDbDimStyleTable
 71
     1
340
4B4
  0
DIMSTYLE
105
20C
330
A
100
AcDbSymbolTableRecord
100
AcDbDimStyleTableRecord
  2
STANDARD
 70
     0
 41
0.1875
 47
0.01
 48
0.01
 71
     1
 78
     4
140
0.15625
271
     3
272
     3
284
     4
340
11
  0
DIMSTYLE
105
4B4
102
{ACAD_REACTORS
330
5CB
102
}
330
A
100
AcDbSymbolTableRecord
100
AcDbDimStyleTableRecord
  2
AM_ANSI
 70
     0
  4
mm
 41
0.12
 42
0.05
 43
0.5
 44
0.1
 47
0.1
 48
0.1
 78
     7
 79
     2
 90
     1
140
0.12
141
0.0
146
0.71
147
0.06
176
   256
177
   256
178
   140
274
     4
284
     7
340
11
345
14
346
14
347
14
371
    -1
372
    -1
  0
DIMSTYLE
105
4C2
330
A
100
AcDbSymbolTableRecord
100
AcDbDimStyleTableRecord
  2
AM_ANSI$3
 70
     0
  4
mm
 41
0.12
 42
0.05
 43
0.5
 44
0.1
 47
0.1
 48
0.1
 78
     7
 79
     2
 90
     1
140
0.12
141
0.0
146
0.71
147
0.06
176
   256
177
   256
178
   140
274
     4
284
     7
288
     1
289
     0
340
11
345
14
346
14
347
14
371
    -1
372
    -1
  0
DIMSTYLE
105
4C3
330
A
100
AcDbSymbolTableRecord
100
AcDbDimStyleTableRecord
  2
AM_ANSI$4
 70
     0
  4
mm
 41
0.12
 42
0.05
 43
0.5
 44
0.1
 47
0.1
 48
0.1
 78
     7
 79
     2
 90
     1
140
0.12
141
0.0
146
0.71
147
0.06
176
   256
177
   256
178
   140
274
     4
284
     7
340
11
345
14
346
14
347
14
371
    -1
372
    -1
  0
DIMSTYLE
105
4C4
330
A
100
AcDbSymbolTableRecord
100
AcDbDimStyleTableRecord
  2
AM_ANSI$7
 70
     0
  4
mm
 41
0.12
 42
0.05
 43
0.5
 44
0.1
 47
0.1
 48
0.1
 78
     7
 79
     2
 90
     1
140
0.12
141
0.0
146
0.71
147
0.06
176
   256
177
   256
178
   140
274
     4
284
     7
340
11
345
14
346
14
347
14
371
    -1
372
    -1
  0
DIMSTYLE
105
4C5
330
A
100
AcDbSymbolTableRecord
100
AcDbDimStyleTableRecord
  2
AM_ANSI$SF
 70
     0
  4
mm
 41
0.12
 42
0.05
 43
0.5
 44
0.1
 47
0.1
 48
0.1
 75
     1
 76
     1
 78
     7
 79
     2
 90
     1
140
0.12
141
0.0
146
0.71
147
0.06
176
   256
177
   256
178
   140
274
     4
284
     7
340
11
345
14
346
14
347
14
371
    -1
372
    -1
  0
DIMSTYLE
105
4CA
330
A
100
AcDbSymbolTableRecord
100
AcDbDimStyleTableRecord
  2
AM_ANSI$SH
 70
     0
  4
mm
 41
0.12
 42
0.05
 43
0.5
 44
0.1
 47
0.1
 48
0.1
 75
     1
 76
     1
 78
     7
 79
     2
 90
     1
140
0.12
141
0.0
146
0.71
147
0.06
173
     1
176
   256
177
   256
178
   140
274
     4
284
     7
340
11
343
4C6
345
14
346
14
347
14
371
    -1
372
    -1
  0
ENDTAB
  0
TABLE
  2
BLOCK_RECORD
  5
1
330
0
100
AcDbSymbolTable
 70
     2
  0
BLOCK_RECORD
  5
20A
330
1
100
AcDbSymbolTableRecord
100
AcDbBlockTableRecord
  2
*Model_Space
340
3E4
 70
     0
280
     1
281
     0
  0
BLOCK_RECORD
  5
20B
330
1
100
AcDbSymbolTableRecord
100
AcDbBlockTableRecord
  2
*Paper_Space
340
3E5
 70
     0
280
     1
281
     0
  0
BLOCK_RECORD
  5
4C6
330
1
100
AcDbSymbolTableRecord
100
AcDbBlockTableRecord
  2
GENAXEH
340
0
 70
     0
280
     1
281
     0
  0
ENDTAB
  0
ENDSEC
  0
SECTION
  2
BLOCKS
  0
BLOCK
  5
20
330
20A
100
AcDbEntity
  8
0
100
AcDbBlockBegin
  2
*Model_Space
 70
     0
 10
0.0
 20
0.0
 30
0.0
  3
*Model_Space
  1

  0
ENDBLK
  5
21
330
20A
100
AcDbEntity
  8
0
100
AcDbBlockEnd
  0
BLOCK
  5
1C
330
20B
100
AcDbEntity
 67
     1
  8
0
100
AcDbBlockBegin
  2
*Paper_Space
 70
     0
 10
0.0
 20
0.0
 30
0.0
  3
*Paper_Space
  1

  0
ENDBLK
  5
1D
330
20B
100
AcDbEntity
 67
     1
  8
0
100
AcDbBlockEnd
  0
BLOCK
  5
4C8
330
4C6
100
AcDbEntity
  8
0
100
AcDbBlockBegin
  2
GENAXEH
 70
     0
 10
0.0
 20
0.0
 30
0.0
  3
GENAXEH
  1

  0
LINE
  5
4C7
330
4C6
100
AcDbEntity
  8
0
100
AcDbLine
 10
-1.0
 20
0.0
 30
0.0
 11
1.0
 21
0.0
 31
0.0
  0
ENDBLK
  5
4C9
330
4C6
100
AcDbEntity
  8
0
100
AcDbBlockEnd
  0
ENDSEC
  0
SECTION
  2
ENTITIES
  0
LINE
  5
2B6
330
20A
100
AcDbEntity
  8
_SURFACE
  6
Continuous
 62
     7
100
AcDbLine
 10
-4.158576703699996
 20
4.9778673683
 30
0.0
 11
-4.192312701399997
 21
4.6571816402
 31
0.0
  0
LWPOLYLINE
  5
2B7
330
20A
100
AcDbEntity
  8
0
  6
Continuous
 62
     7
100
AcDbPolyline
 90
       50
 70
     0
 43
0.0
 10
-3.432518231099997
 20
4.6571816402
 10
-3.4218527157
 20
4.622271656399997
 10
-3.4026214673
 20
4.558803641299999
 10
-3.383461532799997
 20
4.4950538811
 10
-3.3643768588
 20
4.4310414404
 10
-3.345367366499997
 20
4.366771957799997
 10
-3.3264330872
 20
4.302251241999997
 10
-3.3075780635
 20
4.2374988452
 10
-3.2888023081
 20
4.172520545299997
 10
-3.270105906399998
 20
4.1073220772
 10
-3.2514929643
 20
4.041923105899997
 10
-3.2329636954
 20
3.976329701399997
 10
-3.2145182257
 20
3.910547278399997
 10
-3.1961605067
 20
3.8445946498
 10
-3.1778911723
 20
3.7784786905
 10
-3.159710283099999
 20
3.7122038729
 10
-3.1416209622
 20
3.6457854529
 10
-3.123623847599998
 20
3.5792293054
 10
-3.105719493399997
 20
3.5125406642
 10
-3.087910988299998
 20
3.4457337988
 10
-3.0701977455
 20
3.37880874
 10
-3.0525821557
 20
3.3117762854
 10
-3.035071793999998
 20
3.2446668587
 10
-3.0176625472
 20
3.177465704999999
 10
-3.000360882999998
 20
3.1101981662
 10
-2.983189866499997
 20
3.0429549244
 10
-2.966149273399997
 20
2.975736322399998
 10
-2.9492415337
 20
2.9085524442
 10
-2.9324929088
 20
2.8415086807
 10
-2.9159071045
 20
2.774621560799999
 10
-2.899482243599997
 20
2.707884487499998
 10
-2.8832354899
 20
2.6413680831
 10
-2.867176273399998
 20
2.575112466899998
 10
-2.8512968594
 20
2.5090866093
 10
-2.835588689499997
 20
2.443254213799999
 10
-2.8200547986
 20
2.3776262633
 10
-2.804695081899998
 20
2.312200044299999
 10
-2.789497063699998
 20
2.2469186019
 10
-2.7744629326
 20
2.181786016699998
 10
-2.759594901199998
 20
2.116805946099999
 10
-2.744881489299999
 20
2.051920808799998
 10
-2.730325620599998
 20
1.987134436599998
 10
-2.7159303311
 20
1.9224504591
 10
-2.701685308299999
 20
1.8578110865
 10
-2.687594346999999
 20
1.793220300299999
 10
-2.673661299299999
 20
1.7286815224
 10
-2.659877041
 20
1.664136329899998
 10
-2.6462418999
 20
1.599567823499999
 10
-2.632765192299999
 20
1.5350005062
 10
-2.622667387099999
 20
1.486107502499999
  0
LWPOLYLINE
  5
2B8
330
20A
100
AcDbEntity
  8
0
  6
Continuous
 62
     7
100
AcDbPolyline
 90
      152
 70
     0
 43
0.0
 10
-2.622667387099999
 20
1.486107502499999
 10
-2.621899541499999
 20
1.4825157897
 10
-2.6210972571
 20
1.4789699125
 10
-2.620261940699998
 20
1.4754700749
 10
-2.619394984699999
 20
1.472016452599999
 10
-2.618497290999997
 20
1.4686074306
 10
-2.617570161599998
 20
1.465243146499999
 10
-2.6166148843
 20
1.4619237129
 10
-2.6156321981
 20
1.458647472299998
 10
-2.614623303899997
 20
1.455414507599997
 10
-2.613589389299999
 20
1.4522248796
 10
-2.6125310368
 20
1.449076900699999
 10
-2.611449351
 20
1.445970609499998
 10
-2.6103454235
 20
1.4429060253
 10
-2.609219687299999
 20
1.439881441399998
 10
-2.6080731551
 20
1.4368968612
 10
-2.6069068276
 20
1.433952271599999
 10
-2.6057209953
 20
1.4310459562
 10
-2.604516579499998
 20
1.4281778815
 10
-2.603294498899999
 20
1.425348019799999
 10
-2.602054921999997
 20
1.422554684099998
 10
-2.6007986328
 20
1.419797699999999
 10
-2.599526523499998
 20
1.4170771434
 10
-2.5982388247
 20
1.4143917226
 10
-2.5969362706
 20
1.411741284099998
 10
-2.595619674399999
 20
1.4091258454
 10
-2.5942893085
 20
1.406544385099999
 10
-2.592945896899998
 20
1.403996820099998
 10
-2.5915901566
 20
1.401483060899999
 10
-2.590222284
 20
1.3990020899
 10
-2.588842952199998
 20
1.396553811199999
 10
-2.587452826499998
 20
1.394138120099998
 10
-2.5860520277
 20
1.3917540009
 10
-2.584641180099997
 20
1.3894013468
 10
-2.5832209003
 20
1.3870800434
 10
-2.5817912374
 20
1.384789080699998
 10
-2.580352762399999
 20
1.3825283334
 10
-2.578906052599998
 20
1.3802976911
 10
-2.57745111
 20
1.3780961843
 10
-2.5759884299
 20
1.3759236355
 10
-2.5745185787
 20
1.3737799771
 10
-2.573041615999998
 20
1.3716644221
 10
-2.571558025999999
 20
1.3695768251
 10
-2.5700683146
 20
1.3675170749
 10
-2.5685725321
 20
1.365484448899997
 10
-2.567071143899998
 20
1.3634788166
 10
-2.565564608999999
 20
1.361500042499999
 10
-2.5640529316
 20
1.359547411299999
 10
-2.562536545299999
 20
1.357620789199998
 10
-2.561015878
 20
1.3557200383
 10
-2.5594908896
 20
1.353844451899999
 10
-2.557961983699998
 20
1.351993894999999
 10
-2.556429558899997
 20
1.350168228499998
 10
-2.554893532699999
 20
1.3483667562
 10
-2.553354280399998
 20
1.3465893427
 10
-2.5518121728
 20
1.344835849799999
 10
-2.5502670879
 20
1.3431055935
 10
-2.548719359199997
 20
1.3413984232
 10
-2.547169346
 20
1.339714218899997
 10
-2.545616934899999
 20
1.338052359199997
 10
-2.544062423499998
 20
1.336412683199998
 10
-2.542506158899997
 20
1.3347950841
 10
-2.540948076499998
 20
1.333199036999999
 10
-2.5393884775
 20
1.3316244067
 10
-2.537827664299999
 20
1.3300710617
 10
-2.5362655521
 20
1.3285384942
 10
-2.534702425199998
 20
1.327026573399999
 10
-2.533138563899997
 20
1.325535166099998
 10
-2.5315738565
 20
1.3240637745
 10
-2.5300085687
 20
1.322612269499997
 10
-2.5284429624
 20
1.321180520199999
 10
-2.5268769004
 20
1.319768039299999
 10
-2.525310630699999
 20
1.318374700299999
 10
-2.523744397899998
 20
1.3170003751
 10
-2.5221780407
 20
1.3156445874
 10
-2.5206117902
 20
1.3143072141
 10
-2.5190458749
 20
1.312988130299999
 10
-2.5174801102
 20
1.3116868715
 10
-2.515914706999998
 20
1.310403314099999
 10
-2.514349882899999
 20
1.3091373412
 10
-2.5127854465
 20
1.307888512199999
 10
-2.511221537499999
 20
1.3066566634
 10
-2.5096584154
 20
1.3054417266
 10
-2.5080960543
 20
1.304243414699999
 10
-2.506534602599999
 20
1.303061581299999
 10
-2.504974289499998
 20
1.301896142299999
 10
-2.5034152027
 20
1.300746909
 10
-2.501857522799999
 20
1.299613764399998
 10
-2.500301429699999
 20
1.298496591699997
 10
-2.4987470035
 20
1.297395204699999
 10
-2.4971944171
 20
1.296309485799999
 10
-2.4956438413
 20
1.2952393169
 10
-2.494095346499999
 20
1.2941845125
 10
-2.492549097699999
 20
1.293144954399999
 10
-2.491005257299998
 20
1.292120523799999
 10
-2.489463886699998
 20
1.2911110366
 10
-2.487925142699999
 20
1.290116374199999
 10
-2.486389180099997
 20
1.289136417299999
 10
-2.484856051099999
 20
1.2881709834
 10
-2.4833259051
 20
1.287219953799999
 10
-2.481798889099998
 20
1.2862832092
 10
-2.4802750469
 20
1.2853605688
 10
-2.478754520299998
 20
1.284451914199999
 10
-2.477237449199999
 20
1.2835571262
 10
-2.475723868899998
 20
1.282676025999998
 10
-2.474213913499998
 20
1.281808495299999
 10
-2.472707716499999
 20
1.280954415699999
 10
-2.471205306899999
 20
1.2801136118
 10
-2.469706809399998
 20
1.2792859641
 10
-2.468212353199997
 20
1.2784713564
 10
-2.4667219699
 20
1.2776696213
 10
-2.465235779799999
 20
1.276880640899999
 10
-2.4637539033
 20
1.276104298699999
 10
-2.462276368599999
 20
1.2753404311
 10
-2.460803290699999
 20
1.274588921599999
 10
-2.4593347828
 20
1.273849653899999
 10
-2.457870865899999
 20
1.2731224665
 10
-2.4564116491
 20
1.2724072441
 10
-2.4549572397
 20
1.271703871199999
 10
-2.453507651999998
 20
1.271012188899999
 10
-2.452062989299998
 20
1.270332082799997
 10
-2.4506233532
 20
1.269663438499998
 10
-2.449188751599999
 20
1.269006099899999
 10
-2.447759282199998
 20
1.2683599537
 10
-2.446335040999997
 20
1.267724886899999
 10
-2.444916030099999
 20
1.2671007459
 10
-2.443502342399999
 20
1.266487419299999
 10
-2.442094067899998
 20
1.265884795199998
 10
-2.440691200899999
 20
1.2652927218
 10
-2.4392938591
 20
1.264711101899999
 10
-2.437902097499998
 20
1.2641398121
 10
-2.4365158121
 20
1.263578666799999
 10
-2.4351351261
 20
1.263027575099999
 10
-2.4337600783
 20
1.262486413099997
 10
-2.4323904333
 20
1.2619549525
 10
-2.4310262699
 20
1.2614330923
 10
-2.4296676596
 20
1.260920728699999
 10
-2.428314350299999
 20
1.260417639699999
 10
-2.4269664124
 20
1.2599237276
 10
-2.4256239149
 20
1.259438894999999
 10
-2.4242865982
 20
1.258962928999999
 10
-2.422954527699999
 20
1.258495737
 10
-2.421627767299999
 20
1.258037226299999
 10
-2.4203060508
 20
1.2575871934
 10
-2.4189894386
 20
1.257145550399999
 10
-2.41767799
 20
1.2567122095
 10
-2.4163714329
 20
1.256286976499999
 10
-2.415069823
 20
1.255869768099999
 10
-2.4137732154
 20
1.255460501399997
 10
-2.4124813328
 20
1.2550589914
 10
-2.4111942265
 20
1.2546651596
 10
-2.408634215099997
 20
1.253900119999999
  0
LINE
  5
2B9
330
20A
100
AcDbEntity
  8
0
  6
Continuous
 62
     7
100
AcDbLine
 10
-2.3327930263
 20
1.2416131909
 30
0.0
 11
-2.335286520199999
 21
1.170790931099997
 31
0.0
  0
LINE
  5
2BA
330
20A
100
AcDbEntity
  8
0
  6
Continuous
 62
     7
100
AcDbLine
 10
-0.7671156995000003
 20
1.142809763799998
 30
0.0
 11
-0.7671157551000001
 21
0.7176129134
 31
0.0
  0
LINE
  5
2BB
330
20A
100
AcDbEntity
  8
0
  6
Continuous
 62
     7
100
AcDbLine
 10
5.8301532848
 20
1.252508802799997
 30
0.0
 11
5.832603846499996
 21
1.253196699
 31
0.0
  0
LINE
  5
2BC
330
20A
100
AcDbEntity
  8
0
  6
Continuous
 62
     7
100
AcDbLine
 10
5.827714193099999
 20
1.2518458096
 30
0.0
 11
5.8301532848
 21
1.252508802799997
 31
0.0
  0
LINE
  5
2BD
330
20A
100
AcDbEntity
  8
0
  6
Continuous
 62
     7
100
AcDbLine
 10
5.825287341699999
 20
1.251207469599999
 30
0.0
 11
5.827714193099999
 21
1.2518458096
 31
0.0
  0
LINE
  5
2BE
330
20A
100
AcDbEntity
  8
0
  6
Continuous
 62
     7
100
AcDbLine
 10
5.82287333
 20
1.2505934751
 30
0.0
 11
5.825287341699999
 21
1.251207469599999
 31
0.0
  0
LINE
  5
2BF
330
20A
100
AcDbEntity
  8
0
  6
Continuous
 62
     7
100
AcDbLine
 10
5.8204729095
 20
1.2500035458
 30
0.0
 11
5.82287333
 21
1.2505934751
 31
0.0
  0
LINE
  5
2C0
330
20A
100
AcDbEntity
  8
0
  6
Continuous
 62
     7
100
AcDbLine
 10
5.818086812
 20
1.2494373825
 30
0.0
 11
5.8204729095
 21
1.2500035458
 31
0.0
  0
LINE
  5
2C1
330
20A
100
AcDbEntity
  8
0
  6
Continuous
 62
     7
100
AcDbLine
 10
5.8157156063
 20
1.248894635999999
 30
0.0
 11
5.818086812
 21
1.2494373825
 31
0.0
  0
LINE
  5
2C2
330
20A
100
AcDbEntity
  8
0
  6
Continuous
 62
     7
100
AcDbLine
 10
5.813360004999998
 20
1.248374980499999
 30
0.0
 11
5.8157156063
 21
1.248894635999999
 31
0.0
  0
LINE
  5
2C3
330
20A
100
AcDbEntity
  8
0
  6
Continuous
 62
     7
100
AcDbLine
 10
-2.388804686699999
 20
1.248779878799999
 30
0.0
 11
-2.386411789199998
 21
1.248256439
 31
0.0
  0
LINE
  5
2C4
330
20A
100
AcDbEntity
  8
0
  6
Continuous
 62
     7
100
AcDbLine
 10
-2.391217764799999
 20
1.249328040299997
 30
0.0
 11
-2.388804686699999
 21
1.248779878799999
 31
0.0
  0
LINE
  5
2C5
330
20A
100
AcDbEntity
  8
0
  6
Continuous
 62
     7
100
AcDbLine
 10
-2.393650589499999
 20
1.2499014448
 30
0.0
 11
-2.391217764799999
 21
1.249328040299997
 31
0.0
  0
LINE
  5
2C6
330
20A
100
AcDbEntity
  8
0
  6
Continuous
 62
     7
100
AcDbLine
 10
-2.3961026397
 20
1.2505005919
 30
0.0
 11
-2.393650589499999
 21
1.2499014448
 31
0.0
  0
LINE
  5
2C7
330
20A
100
AcDbEntity
  8
0
  6
Continuous
 62
     7
100
AcDbLine
 10
-2.3985733564
 20
1.2511259692
 30
0.0
 11
-2.3961026397
 21
1.2505005919
 31
0.0
  0
LINE
  5
2C8
330
20A
100
AcDbEntity
  8
0
  6
Continuous
 62
     7
100
AcDbLine
 10
-2.401062256799999
 20
1.2517780799
 30
0.0
 11
-2.3985733564
 21
1.2511259692
 31
0.0
  0
LINE
  5
2C9
330
20A
100
AcDbEntity
  8
0
  6
Continuous
 62
     7
100
AcDbLine
 10
-2.4035686255
 20
1.252457362399999
 30
0.0
 11
-2.401062256799999
 21
1.2517780799
 31
0.0
  0
LINE
  5
2CA
330
20A
100
AcDbEntity
  8
0
  6
Continuous
 62
     7
100
AcDbLine
 10
-2.406092576799998
 20
1.2531644814
 30
0.0
 11
-2.4035686255
 21
1.252457362399999
 31
0.0
  0
LINE
  5
2CB
330
20A
100
AcDbEntity
  8
0
  6
Continuous
 62
     7
100
AcDbLine
 10
-2.408634215099997
 20
1.253900119999999
 30
0.0
 11
-2.406092576799998
 21
1.2531644814
 31
0.0
  0
LINE
  5
2CC
330
20A
100
AcDbEntity
  8
0
  6
Continuous
 62
     7
100
AcDbLine
 10
5.8110207076
 20
1.2478780751
 30
0.0
 11
5.813360004999998
 21
1.248374980499999
 31
0.0
  0
LINE
  5
2CD
330
20A
100
AcDbEntity
  8
0
  6
Continuous
 62
     7
100
AcDbLine
 10
5.8086982596
 20
1.2474035364
 30
0.0
 11
5.8110207076
 21
1.2478780751
 31
0.0
  0
LINE
  5
2CE
330
20A
100
AcDbEntity
  8
0
  6
Continuous
 62
     7
100
AcDbLine
 10
5.8063933498
 20
1.2469510018
 30
0.0
 11
5.8086982596
 21
1.2474035364
 31
0.0
  0
LINE
  5
2CF
330
20A
100
AcDbEntity
  8
0
  6
Continuous
 62
     7
100
AcDbLine
 10
5.804106684799996
 20
1.246520101099998
 30
0.0
 11
5.8063933498
 21
1.2469510018
 31
0.0
  0
LINE
  5
2D0
330
20A
100
AcDbEntity
  8
0
  6
Continuous
 62
     7
100
AcDbLine
 10
5.801838824699999
 20
1.2461104269
 30
0.0
 11
5.804106684799996
 21
1.246520101099998
 31
0.0
  0
LINE
  5
2D1
330
20A
100
AcDbEntity
  8
0
  6
Continuous
 62
     7
100
AcDbLine
 10
5.799590501399999
 20
1.245721593899999
 30
0.0
 11
5.801838824699999
 21
1.2461104269
 31
0.0
  0
LINE
  5
2D2
330
20A
100
AcDbEntity
  8
0
  6
Continuous
 62
     7
100
AcDbLine
 10
5.7973625953
 20
1.2453532294
 30
0.0
 11
5.799590501399999
 21
1.245721593899999
 31
0.0
  0
LINE
  5
2D3
330
20A
100
AcDbEntity
  8
0
  6
Continuous
 62
     7
100
AcDbLine
 10
5.795155691
 20
1.2450048992
 30
0.0
 11
5.7973625953
 21
1.2453532294
 31
0.0
  0
LINE
  5
2D4
330
20A
100
AcDbEntity
  8
0
  6
Continuous
 62
     7
100
AcDbLine
 10
5.792969880199997
 20
1.244676089799999
 30
0.0
 11
5.795155691
 21
1.2450048992
 31
0.0
  0
LINE
  5
2D5
330
20A
100
AcDbEntity
  8
0
  6
Continuous
 62
     7
100
AcDbLine
 10
5.7908090694
 20
1.244366827699999
 30
0.0
 11
5.792969880199997
 21
1.244676089799999
 31
0.0
  0
LINE
  5
2D6
330
20A
100
AcDbEntity
  8
0
  6
Continuous
 62
     7
100
AcDbLine
 10
5.7886758984
 20
1.2440768702
 30
0.0
 11
5.7908090694
 21
1.244366827699999
 31
0.0
  0
LINE
  5
2D7
330
20A
100
AcDbEntity
  8
0
  6
Continuous
 62
     7
100
AcDbLine
 10
5.786574858799997
 20
1.243806144099999
 30
0.0
 11
5.7886758984
 21
1.2440768702
 31
0.0
  0
LINE
  5
2D8
330
20A
100
AcDbEntity
  8
0
  6
Continuous
 62
     7
100
AcDbLine
 10
5.7845099087
 20
1.2435544027
 30
0.0
 11
5.786574858799997
 21
1.243806144099999
 31
0.0
  0
LINE
  5
2D9
330
20A
100
AcDbEntity
  8
0
  6
Continuous
 62
     7
100
AcDbLine
 10
5.7824837525
 20
1.2433211681
 30
0.0
 11
5.7845099087
 21
1.2435544027
 31
0.0
  0
LWPOLYLINE
  5
2DA
330
20A
100
AcDbEntity
  8
0
  6
Continuous
 62
     7
100
AcDbPolyline
 90
        3
 70
     0
 43
0.0
 10
5.7795258732
 20
1.243005117099998
 10
5.7805002083
 20
1.2431060266
 10
5.7824837525
 20
1.2433211681
  0
LINE
  5
2DB
330
20A
100
AcDbEntity
  8
0
  6
Continuous
 62
     7
100
AcDbLine
 10
4.193514166199998
 20
0.7176122652
 30
0.0
 11
3.642333063799997
 21
0.7176123372
 31
0.0
  0
LINE
  5
2DC
330
20A
100
AcDbEntity
  8
0
  6
Continuous
 62
     7
100
AcDbLine
 10
-0.2159346527
 20
0.7176128414000002
 30
0.0
 11
-0.7671157551000001
 21
0.7176129134
 31
0.0
  0
LINE
  5
2DD
330
20A
100
AcDbEntity
  8
0
  6
Continuous
 62
     7
100
AcDbLine
 10
-2.3543921638
 20
1.243136685999999
 30
0.0
 11
-2.352443577199998
 21
1.242936143999999
 31
0.0
  0
LINE
  5
2DE
330
20A
100
AcDbEntity
  8
0
  6
Continuous
 62
     7
100
AcDbLine
 10
-2.356388451499999
 20
1.243355170999999
 30
0.0
 11
-2.3543921638
 21
1.243136685999999
 31
0.0
  0
LINE
  5
2DF
330
20A
100
AcDbEntity
  8
0
  6
Continuous
 62
     7
100
AcDbLine
 10
-2.358428352199998
 20
1.243592086299998
 30
0.0
 11
-2.356388451499999
 21
1.243355170999999
 31
0.0
  0
LINE
  5
2E0
330
20A
100
AcDbEntity
  8
0
  6
Continuous
 62
     7
100
AcDbLine
 10
-2.360507958499999
 20
1.2438478574
 30
0.0
 11
-2.358428352199998
 21
1.243592086299998
 31
0.0
  0
LINE
  5
2E1
330
20A
100
AcDbEntity
  8
0
  6
Continuous
 62
     7
100
AcDbLine
 10
-2.3626244912
 20
1.2441229751
 30
0.0
 11
-2.360507958499999
 21
1.2438478574
 31
0.0
  0
LINE
  5
2E2
330
20A
100
AcDbEntity
  8
0
  6
Continuous
 62
     7
100
AcDbLine
 10
-2.364773823799998
 20
1.244417682599999
 30
0.0
 11
-2.3626244912
 21
1.2441229751
 31
0.0
  0
LINE
  5
2E3
330
20A
100
AcDbEntity
  8
0
  6
Continuous
 62
     7
100
AcDbLine
 10
-2.3669512333
 20
1.2447320343
 30
0.0
 11
-2.364773823799998
 21
1.244417682599999
 31
0.0
  0
LINE
  5
2E4
330
20A
100
AcDbEntity
  8
0
  6
Continuous
 62
     7
100
AcDbLine
 10
-2.3691545048
 20
1.2450663518
 30
0.0
 11
-2.3669512333
 21
1.2447320343
 31
0.0
  0
LINE
  5
2E5
330
20A
100
AcDbEntity
  8
0
  6
Continuous
 62
     7
100
AcDbLine
 10
-2.371381502799998
 20
1.2454209173
 30
0.0
 11
-2.3691545048
 21
1.2450663518
 31
0.0
  0
LINE
  5
2E6
330
20A
100
AcDbEntity
  8
0
  6
Continuous
 62
     7
100
AcDbLine
 10
-2.3736321071
 20
1.2457963054
 30
0.0
 11
-2.371381502799998
 21
1.2454209173
 31
0.0
  0
LINE
  5
2E7
330
20A
100
AcDbEntity
  8
0
  6
Continuous
 62
     7
100
AcDbLine
 10
-2.3759059061
 20
1.2461930477
 30
0.0
 11
-2.3736321071
 21
1.2457963054
 31
0.0
  0
LINE
  5
2E8
330
20A
100
AcDbEntity
  8
0
  6
Continuous
 62
     7
100
AcDbLine
 10
-2.378202338799999
 20
1.2466116481
 30
0.0
 11
-2.3759059061
 21
1.2461930477
 31
0.0
  0
LINE
  5
2E9
330
20A
100
AcDbEntity
  8
0
  6
Continuous
 62
     7
100
AcDbLine
 10
-2.3805209493
 20
1.247052626699999
 30
0.0
 11
-2.378202338799999
 21
1.2466116481
 31
0.0
  0
LINE
  5
2EA
330
20A
100
AcDbEntity
  8
0
  6
Continuous
 62
     7
100
AcDbLine
 10
-2.382861346299999
 20
1.2475165153
 30
0.0
 11
-2.3805209493
 21
1.247052626699999
 31
0.0
  0
LWPOLYLINE
  5
2EB
330
20A
100
AcDbEntity
  8
0
  6
Continuous
 62
     7
100
AcDbPolyline
 90
        3
 70
     0
 43
0.0
 10
-2.386411789199998
 20
1.248256439
 10
-2.3852230743
 20
1.248003833199998
 10
-2.382861346299999
 20
1.2475165153
  0
LINE
  5
2EC
330
20A
100
AcDbEntity
  8
0
  6
Continuous
 62
     7
100
AcDbLine
 10
-0.2159345986
 20
1.1314886043
 30
0.0
 11
-0.2159346527
 21
0.7176128414000002
 31
0.0
  0
LINE
  5
2ED
330
20A
100
AcDbEntity
  8
0
  6
Continuous
 62
     7
100
AcDbLine
 10
5.7776130132
 20
1.242816131899999
 30
0.0
 11
5.7795258732
 21
1.243005117099998
 31
0.0
  0
LINE
  5
2EE
330
20A
100
AcDbEntity
  8
0
  6
Continuous
 62
     7
100
AcDbLine
 10
5.7757543319
 20
1.242644062899999
 30
0.0
 11
5.7776130132
 21
1.242816131899999
 31
0.0
  0
LINE
  5
2EF
330
20A
100
AcDbEntity
  8
0
  6
Continuous
 62
     7
100
AcDbLine
 10
5.773957166099996
 20
1.242488507
 30
0.0
 11
5.7757543319
 21
1.242644062899999
 31
0.0
  0
LINE
  5
2F0
330
20A
100
AcDbEntity
  8
0
  6
Continuous
 62
     7
100
AcDbLine
 10
5.7722375416
 20
1.2423496034
 30
0.0
 11
5.773957166099996
 21
1.242488507
 31
0.0
  0
LINE
  5
2F1
330
20A
100
AcDbEntity
  8
0
  6
Continuous
 62
     7
100
AcDbLine
 10
5.7706118863
 20
1.2422272153
 30
0.0
 11
5.7722375416
 21
1.2423496034
 31
0.0
  0
LINE
  5
2F2
330
20A
100
AcDbEntity
  8
0
  6
Continuous
 62
     7
100
AcDbLine
 10
5.769088862799997
 20
1.2421204125
 30
0.0
 11
5.7706118863
 21
1.2422272153
 31
0.0
  0
LINE
  5
2F3
330
20A
100
AcDbEntity
  8
0
  6
Continuous
 62
     7
100
AcDbLine
 10
5.7676820059
 20
1.2420285012
 30
0.0
 11
5.769088862799997
 21
1.2421204125
 31
0.0
  0
LINE
  5
2F4
330
20A
100
AcDbEntity
  8
0
  6
Continuous
 62
     7
100
AcDbLine
 10
5.765767871
 20
1.241913835799999
 30
0.0
 11
5.7676820059
 21
1.2420285012
 31
0.0
  0
LINE
  5
2F5
330
20A
100
AcDbEntity
  8
0
  6
Continuous
 62
     7
100
AcDbLine
 10
5.764053085099997
 20
1.2418212626
 30
0.0
 11
5.765767871
 21
1.241913835799999
 31
0.0
  0
LINE
  5
2F6
330
20A
100
AcDbEntity
  8
0
  6
Continuous
 62
     7
100
AcDbLine
 10
5.7624967344
 20
1.241745529899999
 30
0.0
 11
5.764053085099997
 21
1.2418212626
 31
0.0
  0
LINE
  5
2F7
330
20A
100
AcDbEntity
  8
0
  6
Continuous
 62
     7
100
AcDbLine
 10
5.761069325299997
 20
1.2416829888
 30
0.0
 11
5.7624967344
 21
1.241745529899999
 31
0.0
  0
LINE
  5
2F8
330
20A
100
AcDbEntity
  8
0
  6
Continuous
 62
     7
100
AcDbLine
 10
5.7597501422
 20
1.2416310579
 30
0.0
 11
5.761069325299997
 21
1.2416829888
 31
0.0
  0
LINE
  5
2F9
330
20A
100
AcDbEntity
  8
0
  6
Continuous
 62
     7
100
AcDbLine
 10
5.7591913285
 20
1.241610770499999
 30
0.0
 11
5.7597501422
 21
1.2416310579
 31
0.0
  0
LINE
  5
2FA
330
20A
100
AcDbEntity
  8
0
  6
Continuous
 62
     7
100
AcDbLine
 10
2.134173620399999
 20
1.0430707475
 30
0.0
 11
3.642333113299998
 21
1.096170167499997
 31
0.0
  0
LINE
  5
2FB
330
20A
100
AcDbEntity
  8
0
  6
Continuous
 62
     7
100
AcDbLine
 10
4.193514218199998
 20
1.1155761999
 30
0.0
 11
5.761615331299997
 21
1.1707860395
 31
0.0
  0
LINE
  5
2FC
330
20A
100
AcDbEntity
  8
0
  6
Continuous
 62
     7
100
AcDbLine
 10
1.429734602799999
 20
1.035134382699999
 30
0.0
 11
1.996663614199998
 21
1.035134382699999
 31
0.0
  0
LINE
  5
2FD
330
20A
100
AcDbEntity
  8
0
  6
Continuous
 62
     7
100
AcDbLine
 10
4.193514184999997
 20
1.142809115499999
 30
0.0
 11
3.8310315491
 21
1.1428091629
 31
0.0
  0
LINE
  5
2FE
330
20A
100
AcDbEntity
  8
0
  6
Continuous
 62
     7
100
AcDbLine
 10
-0.4046506378000001
 20
1.142809716499999
 30
0.0
 11
-0.7671156625
 21
1.142809763799998
 31
0.0
  0
LINE
  5
2FF
330
20A
100
AcDbEntity
  8
0
  6
Continuous
 62
     7
100
AcDbLine
 10
-2.335217114399998
 20
1.1707860395
 30
0.0
 11
-0.7671157031
 21
1.1155761894
 31
0.0
  0
LINE
  5
300
330
20A
100
AcDbEntity
  8
0
  6
Continuous
 62
     7
100
AcDbLine
 10
-0.2159346032
 20
1.096170157199999
 30
0.0
 11
1.292224596599998
 21
1.0430707475
 31
0.0
  0
LINE
  5
301
330
20A
100
AcDbEntity
  8
0
  6
Continuous
 62
     7
100
AcDbLine
 10
-2.3347950268
 20
1.241688156299999
 30
0.0
 11
-2.332793111199999
 21
1.241610781599999
 31
0.0
  0
LINE
  5
302
330
20A
100
AcDbEntity
  8
0
  6
Continuous
 62
     7
100
AcDbLine
 10
-2.336241307099998
 20
1.241752149999999
 30
0.0
 11
-2.3347950268
 21
1.241688156299999
 31
0.0
  0
LINE
  5
303
330
20A
100
AcDbEntity
  8
0
  6
Continuous
 62
     7
100
AcDbLine
 10
-2.337816415399998
 20
1.241829574999999
 30
0.0
 11
-2.336241307099998
 21
1.241752149999999
 31
0.0
  0
LINE
  5
304
330
20A
100
AcDbEntity
  8
0
  6
Continuous
 62
     7
100
AcDbLine
 10
-2.3395501536
 20
1.2419241378
 30
0.0
 11
-2.337816415399998
 21
1.241829574999999
 31
0.0
  0
LINE
  5
305
330
20A
100
AcDbEntity
  8
0
  6
Continuous
 62
     7
100
AcDbLine
 10
-2.341484085999999
 20
1.2420411917
 30
0.0
 11
-2.3395501536
 21
1.2419241378
 31
0.0
  0
LINE
  5
306
330
20A
100
AcDbEntity
  8
0
  6
Continuous
 62
     7
100
AcDbLine
 10
-2.3429046685
 20
1.242134962299999
 30
0.0
 11
-2.341484085999999
 21
1.2420411917
 31
0.0
  0
LINE
  5
307
330
20A
100
AcDbEntity
  8
0
  6
Continuous
 62
     7
100
AcDbLine
 10
-2.3444409392
 20
1.2422438043
 30
0.0
 11
-2.3429046685
 21
1.242134962299999
 31
0.0
  0
LINE
  5
308
330
20A
100
AcDbEntity
  8
0
  6
Continuous
 62
     7
100
AcDbLine
 10
-2.3460790806
 20
1.242368387199999
 30
0.0
 11
-2.3444409392
 21
1.2422438043
 31
0.0
  0
LINE
  5
309
330
20A
100
AcDbEntity
  8
0
  6
Continuous
 62
     7
100
AcDbLine
 10
-2.347810342499998
 20
1.2425096275
 30
0.0
 11
-2.3460790806
 21
1.242368387199999
 31
0.0
  0
LINE
  5
30A
330
20A
100
AcDbEntity
  8
0
  6
Continuous
 62
     7
100
AcDbLine
 10
-2.3496182419
 20
1.24266764
 30
0.0
 11
-2.347810342499998
 21
1.2425096275
 31
0.0
  0
LWPOLYLINE
  5
30B
330
20A
100
AcDbEntity
  8
0
  6
Continuous
 62
     7
100
AcDbPolyline
 90
        3
 70
     0
 43
0.0
 10
-2.352443577199998
 20
1.242936143999999
 10
-2.351487704399997
 20
1.2428423556
 10
-2.3496182419
 20
1.24266764
  0
LINE
  5
30C
330
20A
100
AcDbEntity
  8
0
  6
Continuous
 62
     7
100
AcDbLine
 10
0.9631991084999999
 20
4.4192327952
 30
0.0
 11
0.9631991084999999
 21
4.543642244099999
 31
0.0
  0
LINE
  5
30D
330
20A
100
AcDbEntity
  8
0
  6
Continuous
 62
     7
100
AcDbLine
 10
1.7131991085
 20
4.3940359448
 30
0.0
 11
1.7131991085
 21
4.568839094499999
 31
0.0
  0
LINE
  5
30E
330
20A
100
AcDbEntity
  8
0
  6
Continuous
 62
     7
100
AcDbLine
 10
1.7131991085
 20
4.977867418799998
 30
0.0
 11
1.7131991085
 21
5.0483696055
 31
0.0
  0
LINE
  5
30F
330
20A
100
AcDbEntity
  8
0
  6
Continuous
 62
     7
100
AcDbLine
 10
1.7131978803
 20
1.4658487649
 30
0.0
 11
1.7131991085
 21
1.0430719523
 31
0.0
  0
LINE
  5
310
330
20A
100
AcDbEntity
  8
0
  6
Continuous
 62
     7
100
AcDbLine
 10
2.4631991085
 20
4.543642244099999
 30
0.0
 11
2.4631991085
 21
4.4192327952
 31
0.0
  0
LINE
  5
311
330
20A
100
AcDbEntity
  8
0
  6
Continuous
 62
     7
100
AcDbLine
 10
2.4380022581
 20
4.3940359448
 30
0.0
 11
0.9883959588999999
 21
4.3940359448
 31
0.0
  0
LINE
  5
312
330
20A
100
AcDbEntity
  8
0
  6
Continuous
 62
     7
100
AcDbLine
 10
0.9883959588999999
 20
4.568839094499999
 30
0.0
 11
2.4380022581
 21
4.568839094499999
 31
0.0
  0
LINE
  5
313
330
20A
100
AcDbEntity
  8
0
  6
Continuous
 62
     7
100
AcDbLine
 10
3.6423331179
 20
1.1314886098
 30
0.0
 11
3.642333063799997
 21
0.7176123372
 31
0.0
  0
LINE
  5
314
330
20A
100
AcDbEntity
  8
0
  6
Continuous
 62
     7
100
AcDbLine
 10
7.6187109184
 20
4.6571816402
 30
0.0
 11
-4.192312701399997
 21
4.6571816402
 31
0.0
  0
LINE
  5
315
330
20A
100
AcDbEntity
  8
0
  6
Continuous
 62
     7
100
AcDbLine
 10
7.5849749208
 20
4.9778673673
 30
0.0
 11
-4.158576703799997
 21
4.9778673673
 31
0.0
  0
LINE
  5
316
330
20A
100
AcDbEntity
  8
0
  6
Continuous
 62
     7
100
AcDbLine
 10
4.1935142218
 20
1.142809115499999
 30
0.0
 11
4.193514166199998
 21
0.7176122652
 31
0.0
  0
LWPOLYLINE
  5
317
330
20A
100
AcDbEntity
  8
_SURFACE
  6
Continuous
 62
     7
100
AcDbPolyline
 90
       61
 70
     0
 43
0.0
 10
-4.0802691477
 20
5.0483696055
 10
-4.0822055814
 20
5.0483457909
 10
-4.084142371399997
 20
5.048274285999998
 10
-4.0860775656
 20
5.048155078799998
 10
-4.0880084616
 20
5.0479883367
 10
-4.0899338504
 20
5.0477742235
 10
-4.0918540598
 20
5.0475127083
 10
-4.0937672118
 20
5.047204023099999
 10
-4.095671406
 20
5.046848505799998
 10
-4.0975670036
 20
5.046446090999999
 10
-4.0994522682
 20
5.0459971136
 10
-4.1013252847
 20
5.045502048899999
 10
-4.103186185899997
 20
5.044960861399998
 10
-4.105033228399998
 20
5.0443740319
 10
-4.106864634599998
 20
5.043742149999999
 10
-4.1086805016
 20
5.043065185299997
 10
-4.1104791255
 20
5.042343750599997
 10
-4.112258828299999
 20
5.0415785475
 10
-4.114019739199997
 20
5.040769522299997
 10
-4.115760258999998
 20
5.0399173818
 10
-4.117478746099997
 20
5.039022952199998
 10
-4.1191752397
 20
5.0380862129
 10
-4.120848191499997
 20
5.0371079919
 10
-4.122496058399997
 20
5.036089215599997
 10
-4.124118844399998
 20
5.035029882399999
 10
-4.125715058399998
 20
5.0339309406
 10
-4.1272832575
 20
5.0327934113
 10
-4.128823458999997
 20
5.0316172827
 10
-4.1303342575
 20
5.0304036004
 10
-4.131814285499998
 20
5.029153490299997
 10
-4.133263541199998
 20
5.0278669542
 10
-4.134680687799997
 20
5.026545150599997
 10
-4.136064459199998
 20
5.025189290899999
 10
-4.137414868699996
 20
5.0237993614
 10
-4.1387306682
 20
5.0223766147
 10
-4.140010677699997
 20
5.020922357699999
 10
-4.141254908399997
 20
5.0194365761
 10
-4.1424622035
 20
5.0179206155
 10
-4.1436314756
 20
5.0163758754
 10
-4.1447627243
 20
5.0148023566
 10
-4.1458548636
 20
5.013201537499997
 10
-4.146906935699997
 20
5.0115748691
 10
-4.147919000199999
 20
5.009922258999997
 10
-4.1488900788
 20
5.008245260799998
 10
-4.1498193026
 20
5.0065454224
 10
-4.150706743199997
 20
5.004822606
 10
-4.151551537499997
 20
5.0030784262
 10
-4.152352906299999
 20
5.0013145393
 10
-4.153110888699997
 20
4.9995308535
 10
-4.153824714799998
 20
4.9977291249
 10
-4.154493748399997
 20
4.9959110379
 10
-4.155118061299997
 20
4.994076399899999
 10
-4.1556969911
 20
4.992227097999998
 10
-4.1562300363
 20
4.9903648468
 10
-4.1567173147
 20
4.9884892235
 10
-4.1571583032
 20
4.9866021067
 10
-4.157552585199997
 20
4.9847053782
 10
-4.157900229
 20
4.982798678199999
 10
-4.1582009535
 20
4.9808832055
 10
-4.158454329999997
 20
4.978961686799999
 10
-4.158577188599998
 20
4.977867418199998
  0
LINE
  5
318
330
20A
100
AcDbEntity
  8
0
  6
Continuous
 62
     7
100
AcDbLine
 10
7.5066673646
 20
5.0483696055
 30
0.0
 11
1.7131991085
 21
5.0483696055
 31
0.0
  0
LINE
  5
319
330
20A
100
AcDbEntity
  8
_SURFACE
  6
Continuous
 62
     7
100
AcDbLine
 10
1.7131991085
 20
5.0483696055
 30
0.0
 11
-4.0802691477
 21
5.0483696055
 31
0.0
  0
LWPOLYLINE
  5
31A
330
20A
100
AcDbEntity
  8
0
  6
Continuous
 62
     7
100
AcDbPolyline
 90
      144
 70
     0
 43
0.0
 10
5.8500538494
 20
1.258740775599999
 10
5.8513235087
 20
1.2591893784
 10
5.852597199199999
 20
1.2596457126
 10
5.8538748678
 20
1.260109848899997
 10
5.855156460599999
 20
1.2605818579
 10
5.8564424824
 20
1.261062020699998
 10
5.857732874699999
 20
1.261550415599999
 10
5.8590275782
 20
1.262047120699999
 10
5.8603270894
 20
1.2625524323
 10
5.861631344199999
 20
1.263066436299999
 10
5.862940277299999
 20
1.263589218699999
 10
5.864254376099996
 20
1.264121091
 10
5.865573570199997
 20
1.264662147099999
 10
5.8668977878
 20
1.2652124806
 10
5.868227506599997
 20
1.265772418899999
 10
5.869562649099997
 20
1.2663420636
 10
5.870903136599997
 20
1.2669215166
 10
5.872249436099996
 20
1.267511120699998
 10
5.873601461799999
 20
1.2681109856
 10
5.8749591283
 20
1.2687212215
 10
5.8763228927
 20
1.269342188199999
 10
5.877692575399999
 20
1.2699739638
 10
5.879068168899999
 20
1.270616705899999
 10
5.880450377
 20
1.2712709141
 10
5.881838928899997
 20
1.2719366381
 10
5.8832338869
 20
1.2726140876
 10
5.884636437799997
 20
1.2733040343
 10
5.8860464433
 20
1.274006619199999
 10
5.8874638008
 20
1.2747220029
 10
5.888889727599997
 20
1.2754510267
 10
5.890324086599997
 20
1.2761938633
 10
5.891766737699997
 20
1.276950685699999
 10
5.893218867599999
 20
1.2777223785
 10
5.8946804936
 20
1.278509231499999
 10
5.8961512796
 20
1.279311347799997
 10
5.8976318595
 20
1.2801293672
 10
5.899122565499999
 20
1.2809637856
 10
5.900622709099997
 20
1.281814533599997
 10
5.902131386499997
 20
1.282681404999999
 10
5.903648510499999
 20
1.283564652799997
 10
5.905173806399997
 20
1.2844644237
 10
5.9067061011
 20
1.2853803237
 10
5.9082452153
 20
1.286312534899999
 10
5.9097909663
 20
1.287261239899998
 10
5.911342191699999
 20
1.288226009299999
 10
5.9128987133
 20
1.289207007799997
 10
5.9144603496
 20
1.2902043991
 10
5.916025950899999
 20
1.291217718099999
 10
5.9175953413
 20
1.2922471101
 10
5.9191683419
 20
1.293292719899999
 10
5.9207438177
 20
1.294354044999999
 10
5.922321596599997
 20
1.295431210999999
 10
5.923901503799997
 20
1.296524342499999
 10
5.925482420999999
 20
1.297632899099999
 10
5.927064124199999
 20
1.298756945
 10
5.928646502
 20
1.299896624599998
 10
5.9302286246
 20
1.3010514836
 10
5.931810040499999
 20
1.3022213943
 10
5.9333908769
 20
1.3034066547
 10
5.9349710786
 20
1.304607434899998
 10
5.9365503848
 20
1.305823750699999
 10
5.9381287157
 20
1.3070557567
 10
5.9397062774
 20
1.308303839199999
 10
5.941282888399999
 20
1.3095680883
 10
5.9428583652
 20
1.3108485931
 10
5.9444328959
 20
1.3121457509
 10
5.946006286599997
 20
1.313459655499999
 10
5.947578341299997
 20
1.3147903993
 10
5.949149228799997
 20
1.316138390299999
 10
5.9507187422
 20
1.317503725299999
 10
5.9522866722
 20
1.3188864998
 10
5.9538531676
 20
1.320287132
 10
5.955418007499997
 20
1.3217057214
 10
5.956980968399999
 20
1.3231423659
 10
5.9585421782
 20
1.3245974935
 10
5.9601014013
 20
1.326071205999999
 10
5.961658399299999
 20
1.327563602899999
 10
5.963213277899999
 20
1.3290751218
 10
5.964765786
 20
1.330605865699999
 10
5.9663156696
 20
1.332155935799999
 10
5.9678630112
 20
1.3337257781
 10
5.9694075432
 20
1.3353154967
 10
5.970948995199997
 20
1.336925193399999
 10
5.972487425299997
 20
1.338555321999999
 10
5.9740225402
 20
1.3402059776
 10
5.9755540608
 20
1.3418772713
 10
5.977082045099997
 20
1.343569692199999
 10
5.9786060423
 20
1.3452831778
 10
5.980125895599999
 20
1.3470179944
 10
5.9816420698
 20
1.348775146299999
 10
5.983154107699999
 20
1.3505546013
 10
5.9846617957
 20
1.3523566137
 10
5.986165906699999
 20
1.3541826553
 10
5.9876660587
 20
1.356032851299999
 10
5.9891618722
 20
1.3579073324
 10
5.9906540539
 20
1.3598076262
 10
5.992142177499999
 20
1.3617338772
 10
5.9936258111
 20
1.363686225899999
 10
5.9951055773
 20
1.3656662393
 10
5.9965809983
 20
1.367674075
 10
5.9980515889
 20
1.369709885699998
 10
5.9995178824
 20
1.371775275099998
 10
6.000979411499997
 20
1.3738705083
 10
6.002435565199997
 20
1.3759956522
 10
6.003886585399999
 20
1.378152051
 10
6.005332062
 20
1.380340147499999
 10
6.006771216199997
 20
1.382559838099999
 10
6.008203684299999
 20
1.384811663899998
 10
6.0096288719
 20
1.3870958299
 10
6.011046116799999
 20
1.389412440099998
 10
6.0124549241
 20
1.391761883799998
 10
6.013854637399996
 20
1.3941443005
 10
6.0152445915
 20
1.396559821399999
 10
6.0166242519
 20
1.399008819799999
 10
6.0179929287
 20
1.401491413899998
 10
6.0193499232
 20
1.404007713
 10
6.020694660299997
 20
1.4065580711
 10
6.022026413999997
 20
1.409142577799999
 10
6.0233444541
 20
1.411761321999998
 10
6.024648171199999
 20
1.4144146491
 10
6.0259367085
 20
1.4171024187
 10
6.027209401599996
 20
1.419824892799999
 10
6.0284658809
 20
1.4225830202
 10
6.029705207799997
 20
1.4253765558
 10
6.030926694199999
 20
1.4282058203
 10
6.032130253099999
 20
1.431072628799999
 10
6.033314981599997
 20
1.4339769893
 10
6.0344799844
 20
1.436918938799998
 10
6.0356250583
 20
1.4399003599
 10
6.0367492194
 20
1.4429212603
 10
6.037851472199996
 20
1.4459816316
 10
6.038931461499997
 20
1.4490833518
 10
6.039988107899999
 20
1.452226398899999
 10
6.0410203197
 20
1.455410731999998
 10
6.042027581799999
 20
1.458638214499998
 10
6.043008713899999
 20
1.461908785399999
 10
6.0439625227
 20
1.465222361799997
 10
6.044888325299996
 20
1.468580781
 10
6.045784835599999
 20
1.471983932599999
 10
6.0466507534
 20
1.475431680999998
 10
6.047485220599999
 20
1.478925824499999
 10
6.048286840199997
 20
1.4824661912
 10
6.049054200499999
 20
1.4860525806
 10
6.059163409299999
 20
1.535000506399998
  0
LINE
  5
31B
330
20A
100
AcDbEntity
  8
0
  6
Continuous
 62
     7
100
AcDbLine
 10
5.847525136599997
 20
1.2578659028
 30
0.0
 11
5.8500538494
 21
1.258740775599999
 31
0.0
  0
LINE
  5
31C
330
20A
100
AcDbEntity
  8
0
  6
Continuous
 62
     7
100
AcDbLine
 10
5.845010321799999
 20
1.257020197699999
 30
0.0
 11
5.847525136599997
 21
1.2578659028
 31
0.0
  0
LINE
  5
31D
330
20A
100
AcDbEntity
  8
0
  6
Continuous
 62
     7
100
AcDbLine
 10
5.842508073999997
 20
1.2562026197
 30
0.0
 11
5.845010321799999
 21
1.257020197699999
 31
0.0
  0
LINE
  5
31E
330
20A
100
AcDbEntity
  8
0
  6
Continuous
 62
     7
100
AcDbLine
 10
5.840016981199998
 20
1.2554121702
 30
0.0
 11
5.842508073999997
 21
1.2562026197
 31
0.0
  0
LINE
  5
31F
330
20A
100
AcDbEntity
  8
0
  6
Continuous
 62
     7
100
AcDbLine
 10
5.837536382699997
 20
1.2546481461
 30
0.0
 11
5.840016981199998
 21
1.2554121702
 31
0.0
  0
LINE
  5
320
330
20A
100
AcDbEntity
  8
0
  6
Continuous
 62
     7
100
AcDbLine
 10
5.8350650584
 20
1.2539097176
 30
0.0
 11
5.837536382699997
 21
1.2546481461
 31
0.0
  0
LINE
  5
321
330
20A
100
AcDbEntity
  8
0
  6
Continuous
 62
     7
100
AcDbLine
 10
5.832603846499996
 20
1.253196699
 30
0.0
 11
5.8350650584
 21
1.2539097176
 31
0.0
  0
LINE
  5
322
330
20A
100
AcDbEntity
  8
0
  6
Continuous
 62
     7
100
AcDbLine
 10
5.7616847372
 20
1.170790931099997
 30
0.0
 11
5.7591912433
 21
1.2416131909
 31
0.0
  0
LWPOLYLINE
  5
323
330
20A
100
AcDbEntity
  8
0
  6
Continuous
 62
     7
100
AcDbPolyline
 90
       49
 70
     0
 43
0.0
 10
6.059163409299999
 20
1.535000506399998
 10
6.0726401169
 20
1.599567824
 10
6.086275258099999
 20
1.6641363305
 10
6.1000595165
 20
1.7286815233
 10
6.113992564199999
 20
1.793220301399998
 10
6.128083525599999
 20
1.8578110878
 10
6.1423285484
 20
1.9224504605
 10
6.156723837899999
 20
1.9871344383
 10
6.171279706699999
 20
2.051920810699999
 10
6.185993118699999
 20
2.1168059482
 10
6.200861150099997
 20
2.181786019
 10
6.215895281299999
 20
2.246918604399998
 10
6.2310932995
 20
2.3122000471
 10
6.2464530162
 20
2.3776262662
 10
6.2619869072
 20
2.443254216899997
 10
6.2776950771
 20
2.509086612599999
 10
6.2935744913
 20
2.5751124705
 10
6.309633707799997
 20
2.6413680869
 10
6.325880461599997
 20
2.7078844916
 10
6.342305322499997
 20
2.774621565099999
 10
6.3588911269
 20
2.841508685199998
 10
6.375639751799999
 20
2.908552448899997
 10
6.392547491599997
 20
2.975736327399998
 10
6.4095880848
 20
3.042954929599997
 10
6.4267591013
 20
3.1101981716
 10
6.444060765599999
 20
3.177465710699998
 10
6.4614700125
 20
3.244666864599997
 10
6.478980374299999
 20
3.311776291499997
 10
6.496595964099997
 20
3.378808746299998
 10
6.514309207
 20
3.445733805199997
 10
6.5321177122
 20
3.512540670799998
 10
6.550022066499997
 20
3.5792293123
 10
6.568019181
 20
3.645785459999998
 10
6.5861085021
 20
3.712203880199997
 10
6.6042893913
 20
3.778478698
 10
6.6225587258
 20
3.8445946575
 10
6.6409164449
 20
3.910547286199998
 10
6.6593619146
 20
3.976329709499998
 10
6.677891183599999
 20
4.0419231141
 10
6.6965041257
 20
4.107322085599999
 10
6.7152005275
 20
4.1725205538
 10
6.733976283099999
 20
4.2374988539
 10
6.752831306699999
 20
4.302251251
 10
6.771765586199999
 20
4.3667719669
 10
6.7907750786
 20
4.4310414497
 10
6.809859752599997
 20
4.4950538905
 10
6.8290196872
 20
4.558803650899998
 10
6.8482509357
 20
4.622271666199997
 10
6.858916448099999
 20
4.6571816402
  0
LINE
  5
324
330
20A
100
AcDbEntity
  8
0
  6
Continuous
 62
     7
100
AcDbLine
 10
7.6187109184
 20
4.6571816402
 30
0.0
 11
7.5849749207
 21
4.9778673683
 31
0.0
  0
LWPOLYLINE
  5
325
330
20A
100
AcDbEntity
  8
0
  6
Continuous
 62
     7
100
AcDbPolyline
 90
       61
 70
     0
 43
0.0
 10
7.584975405499999
 20
4.977867418199998
 10
7.584852547
 20
4.978961686799999
 10
7.584599170399999
 20
4.9808832055
 10
7.5842984459
 20
4.982798678199999
 10
7.5839508022
 20
4.9847053782
 10
7.5835565202
 20
4.9866021067
 10
7.583115531699999
 20
4.9884892235
 10
7.5826282533
 20
4.9903648468
 10
7.582095208099999
 20
4.992227097999998
 10
7.5815162783
 20
4.994076399899999
 10
7.580891965399999
 20
4.9959110379
 10
7.580222931799999
 20
4.9977291249
 10
7.5795091057
 20
4.9995308535
 10
7.5787511233
 20
5.0013145393
 10
7.5779497545
 20
5.0030784262
 10
7.577104960199997
 20
5.004822606
 10
7.5762175195
 20
5.0065454224
 10
7.5752882958
 20
5.008245260799998
 10
7.574317217199999
 20
5.009922258999997
 10
7.573305152699997
 20
5.0115748691
 10
7.572253080599999
 20
5.013201537499997
 10
7.571160941199997
 20
5.0148023566
 10
7.5700296925
 20
5.0163758754
 10
7.568860420399999
 20
5.0179206155
 10
7.567653125399999
 20
5.0194365761
 10
7.5664088947
 20
5.020922357699999
 10
7.5651288851
 20
5.0223766147
 10
7.5638130857
 20
5.0237993614
 10
7.5624626761
 20
5.025189290899999
 10
7.5610789047
 20
5.026545150599997
 10
7.559661758099999
 20
5.0278669542
 10
7.558212502499999
 20
5.029153490299997
 10
7.5567324745
 20
5.0304036004
 10
7.555221676
 20
5.0316172827
 10
7.5536814745
 20
5.0327934113
 10
7.552113275299997
 20
5.0339309406
 10
7.550517061399999
 20
5.035029882399999
 10
7.548894275399999
 20
5.036089215599997
 10
7.5472464085
 20
5.0371079919
 10
7.545573456699999
 20
5.0380862129
 10
7.543876963099999
 20
5.039022952199998
 10
7.542158476
 20
5.0399173818
 10
7.540417956199997
 20
5.040769522299997
 10
7.538657045199999
 20
5.0415785475
 10
7.5368773424
 20
5.042343750599997
 10
7.5350787186
 20
5.043065185299997
 10
7.533262851499997
 20
5.043742149999999
 10
7.531431445299997
 20
5.0443740319
 10
7.529584402899999
 20
5.044960861399998
 10
7.527723501699999
 20
5.045502048899999
 10
7.5258504851
 20
5.0459971136
 10
7.523965220599999
 20
5.046446090999999
 10
7.522069622899999
 20
5.046848505799998
 10
7.5201654288
 20
5.047204023099999
 10
7.518252276799999
 20
5.0475127083
 10
7.5163320673
 20
5.0477742235
 10
7.5144066786
 20
5.0479883367
 10
7.5124757826
 20
5.048155078799998
 10
7.5105405884
 20
5.048274285999998
 10
7.5086037984
 20
5.0483457909
 10
7.5066673646
 20
5.0483696055
  0
ARC
  5
34D
330
20A
100
AcDbEntity
  8
0
  6
Continuous
 62
     7
100
AcDbCircle
 10
2.0741797529
 20
-36.9769316791
 30
0.0
 40
41.0687526011
100
AcDbArc
 50
89.91221169899999
 51
90.0752082272
  0
ARC
  5
34E
330
20A
100
AcDbEntity
  8
0
  6
Continuous
 62
     7
100
AcDbCircle
 10
1.352218464
 20
-36.9769316741
 30
0.0
 40
41.0687525961
100
AcDbArc
 50
89.92479177280001
 51
90.087788301
  0
ARC
  5
34F
330
20A
100
AcDbEntity
  8
0
  6
Continuous
 62
     7
100
AcDbCircle
 10
2.470079432899999
 20
4.485236321
 30
0.0
 40
0.3943676621
100
AcDbArc
 50
293.8411275408
 51
296.9391956082
  0
ARC
  5
350
330
20A
100
AcDbEntity
  8
0
  6
Continuous
 62
     7
100
AcDbCircle
 10
0.9563187841000001
 20
4.485236321
 30
0.0
 40
0.3943676621
100
AcDbArc
 50
243.0608043915
 51
246.158872459
  0
ARC
  5
351
330
20A
100
AcDbEntity
  8
0
  6
Continuous
 62
     7
100
AcDbCircle
 10
0.9558290471999999
 20
4.484254821499999
 30
0.0
 40
0.3932707946
100
AcDbArc
 50
229.4112932742
 51
243.0596288691
  0
ARC
  5
352
330
20A
100
AcDbEntity
  8
0
  6
Continuous
 62
     7
100
AcDbCircle
 10
2.470569184799999
 20
4.484254798
 30
0.0
 40
0.3932707669
100
AcDbArc
 50
296.940370727
 51
310.5887736659
  0
ARC
  5
353
330
20A
100
AcDbEntity
  8
0
  6
Continuous
 62
     7
100
AcDbCircle
 10
0.9539552904999998
 20
4.479212809599999
 30
0.0
 40
0.3879029056
100
AcDbArc
 50
246.1185635055
 51
269.733635677
  0
ARC
  5
354
330
20A
100
AcDbEntity
  8
0
  6
Continuous
 62
     7
100
AcDbCircle
 10
2.4724453771
 20
4.4792052567
 30
0.0
 40
0.3878950072
100
AcDbArc
 50
270.2659803478
 51
293.8815571725
  0
ARC
  5
355
330
20A
100
AcDbEntity
  8
0
  6
Continuous
 62
     7
100
AcDbCircle
 10
2.4729460027
 20
4.4557993293
 30
0.0
 40
0.3644872188
100
AcDbArc
 50
269.827577272
 51
270.2043651987
  0
ARC
  5
356
330
20A
100
AcDbEntity
  8
0
  6
Continuous
 62
     7
100
AcDbCircle
 10
0.9534014224999999
 20
4.455710587599999
 30
0.0
 40
0.3643986339
100
AcDbArc
 50
269.803542161
 51
270.1804508622
  0
ARC
  5
357
330
20A
100
AcDbEntity
  8
0
  6
Continuous
 62
     7
100
AcDbCircle
 10
0.9563538554
 20
4.4803611105
 30
0.0
 40
0.2280288515
100
AcDbArc
 50
179.7295316297
 51
234.1799064869
  0
ARC
  5
358
330
20A
100
AcDbEntity
  8
0
  6
Continuous
 62
     7
100
AcDbCircle
 10
2.470044352299999
 20
4.4803611152
 30
0.0
 40
0.2280288513
100
AcDbArc
 50
305.8200947136
 51
0.2704671693
  0
ARC
  5
359
330
20A
100
AcDbEntity
  8
0
  6
Continuous
 62
     7
100
AcDbCircle
 10
2.4708943297
 20
4.480396414499999
 30
0.0
 40
0.227173503
100
AcDbArc
 50
0.2625764429
 51
51.0983786399
  0
ARC
  5
35A
330
20A
100
AcDbEntity
  8
0
  6
Continuous
 62
     7
100
AcDbCircle
 10
0.9555038765999999
 20
4.480396419599999
 30
0.0
 40
0.2271735029
100
AcDbArc
 50
128.9016200704
 51
179.7374248455
  0
ARC
  5
35B
330
20A
100
AcDbEntity
  8
0
  6
Continuous
 62
     7
100
AcDbCircle
 10
0.4845505436
 20
4.4823067636
 30
0.0
 40
0.0800694287
100
AcDbArc
 50
358.4823994742
 51
359.4434758906
  0
ARC
  5
35C
330
20A
100
AcDbEntity
  8
0
  6
Continuous
 62
     7
100
AcDbCircle
 10
2.941847673299998
 20
4.4823067636
 30
0.0
 40
0.0800694286
100
AcDbArc
 50
180.5565241092
 51
181.5176005259
  0
ARC
  5
35D
330
20A
100
AcDbEntity
  8
0
  6
Continuous
 62
     7
100
AcDbCircle
 10
1.4297345416
 20
1.106000524399999
 30
0.0
 40
0.0708661417
100
AcDbArc
 50
242.6262618061
 51
270.0
  0
ARC
  5
35E
330
20A
100
AcDbEntity
  8
0
  6
Continuous
 62
     7
100
AcDbCircle
 10
1.996663675399999
 20
1.106000524399999
 30
0.0
 40
0.0708661417
100
AcDbArc
 50
270.0
 51
297.3737381939
  0
ARC
  5
35F
330
20A
100
AcDbEntity
  8
0
  6
Continuous
 62
     7
100
AcDbCircle
 10
2.4380022581
 20
4.543642244099999
 30
0.0
 40
0.0251968504
100
AcDbArc
 50
0.0
 51
90.0
  0
ARC
  5
360
330
20A
100
AcDbEntity
  8
0
  6
Continuous
 62
     7
100
AcDbCircle
 10
2.4380022581
 20
4.4192327952
 30
0.0
 40
0.0251968504
100
AcDbArc
 50
270.0
 51
360.0
  0
ARC
  5
361
330
20A
100
AcDbEntity
  8
0
  6
Continuous
 62
     7
100
AcDbCircle
 10
0.9883959588999999
 20
4.543642244099999
 30
0.0
 40
0.0251968504
100
AcDbArc
 50
90.0
 51
180.0
  0
ARC
  5
362
330
20A
100
AcDbEntity
  8
0
  6
Continuous
 62
     7
100
AcDbCircle
 10
0.9883959588999999
 20
4.4192327952
 30
0.0
 40
0.0251968504
100
AcDbArc
 50
180.0
 51
270.0
  0
LINE
  5
3AB
330
20A
100
AcDbEntity
  8
0
  6
Continuous
 62
     7
100
AcDbLine
 10
1.292224596599998
 20
1.043070748599999
 30
0.0
 11
1.7131991085
 21
1.0430719523
 31
0.0
  0
LINE
  5
3AC
330
20A
100
AcDbEntity
  8
0
  6
Continuous
 62
     7
100
AcDbLine
 10
2.134173620399999
 20
1.043070748599999
 30
0.0
 11
1.7131991085
 21
1.0430719523
 31
0.0
  0
SPLINE
  5
3AD
330
20A
100
AcDbEntity
  8
0
  6
Continuous
 62
     7
100
AcDbSpline
210
0.0
220
0.0
230
1.0
 70
    24
 71
     3
 72
     8
 73
     4
 74
     0
 42
0.0000000001
 43
0.0000000001
 40
0.0
 40
0.0
 40
0.0
 40
0.0
 40
1.0
 40
1.0
 40
1.0
 40
1.0
 10
2.134080882899997
 20
1.0430707496
 30
0.0
 10
2.134111795399999
 20
1.043070749299999
 30
0.0
 10
2.134142707899997
 20
1.043070748899999
 30
0.0
 10
2.134173620399999
 20
1.043070748599999
 30
0.0
  0
LINE
  5
3AE
330
20A
100
AcDbEntity
  8
0
  6
Continuous
 62
     7
100
AcDbLine
 10
5.7591912433
 20
1.2416131918
 30
0.0
 11
5.758782831799999
 21
1.2416250194
 31
0.0
  0
LINE
  5
3AF
330
20A
100
AcDbEntity
  8
0
  6
Continuous
 62
     7
100
AcDbLine
 10
5.758782831799999
 20
1.2416250194
 30
0.0
 11
1.713200219099999
 21
1.2424386998
 31
0.0
  0
LINE
  5
3B0
330
20A
100
AcDbEntity
  8
0
  6
Continuous
 62
     7
100
AcDbLine
 10
2.603496697599998
 20
4.2954615929
 30
0.0
 11
2.600922287199999
 21
4.293611973299998
 31
0.0
  0
SPLINE
  5
3B1
330
20A
100
AcDbEntity
  8
0
  6
Continuous
 62
     7
100
AcDbSpline
210
0.0
220
0.0
230
1.0
 70
     8
 71
     3
 72
    10
 73
     6
 74
     0
 42
0.0000000001
 43
0.0000000001
 40
0.0
 40
0.0
 40
0.0
 40
0.0
 40
0.4993890292
 40
0.7496937309
 40
1.0
 40
1.0
 40
1.0
 40
1.0
 10
2.600922287199999
 20
4.293611973299998
 30
0.0
 10
2.5835323014
 20
4.2814107537
 30
0.0
 10
2.5546384127
 20
4.266665696499997
 30
0.0
 10
2.5134728658
 20
4.255593094399999
 30
0.0
 10
2.4922511752
 20
4.252983369099998
 30
0.0
 10
2.4816201579
 20
4.252387287699997
 30
0.0
  0
SPLINE
  5
3B2
330
20A
100
AcDbEntity
  8
0
  6
Continuous
 62
     7
100
AcDbSpline
210
0.0
220
0.0
230
1.0
 70
     8
 71
     3
 72
     8
 73
     4
 74
     0
 42
0.0000000001
 43
0.0000000001
 40
0.0
 40
0.0
 40
0.0
 40
0.0
 40
1.0
 40
1.0
 40
1.0
 40
1.0
 10
2.4816201579
 20
4.252387287699997
 30
0.0
 10
2.475899537
 20
4.2520667303
 30
0.0
 10
2.4701642049
 20
4.252031322099997
 30
0.0
 10
2.464434646399999
 20
4.252051811999997
 30
0.0
  0
LINE
  5
3B3
330
20A
100
AcDbEntity
  8
0
  6
Continuous
 62
     7
100
AcDbLine
 10
2.464434646399999
 20
4.252051811999997
 30
0.0
 11
2.333342852999999
 21
4.2521940012
 31
0.0
  0
SPLINE
  5
3B4
330
20A
100
AcDbEntity
  8
0
  6
Continuous
 62
     7
100
AcDbSpline
210
0.0
220
0.0
230
1.0
 70
     8
 71
     3
 72
    11
 73
     7
 74
     0
 42
0.0000000001
 43
0.0000000001
 40
0.0
 40
0.0
 40
0.0
 40
0.0
 40
0.25000003
 40
0.5000001359000003
 40
0.7500000327
 40
1.0
 40
1.0
 40
1.0
 40
1.0
 10
2.333342852999999
 20
4.2521940012
 30
0.0
 10
2.2816644228
 20
4.2523840097
 30
0.0
 10
2.178306469
 20
4.2525045687
 30
0.0
 10
2.023270608
 20
4.252084048
 30
0.0
 10
1.868235261399999
 20
4.2515338269
 30
0.0
 10
1.764877830399998
 20
4.2513597572
 30
0.0
 10
1.7131991085
 20
4.251291828899997
 30
0.0
  0
SPLINE
  5
3B5
330
20A
100
AcDbEntity
  8
0
  6
Continuous
 62
     7
100
AcDbSpline
210
0.0
220
0.0
230
1.0
 70
     8
 71
     3
 72
    11
 73
     7
 74
     0
 42
0.0000000001
 43
0.0000000001
 40
0.0
 40
0.0
 40
0.0
 40
0.0
 40
0.2500000301
 40
0.5000001359000003
 40
0.7500000327
 40
1.0
 40
1.0
 40
1.0
 40
1.0
 10
1.093055454
 20
4.252193854499997
 30
0.0
 10
1.144733876599999
 20
4.252383907499997
 30
0.0
 10
1.2480918154
 20
4.252504560299997
 30
0.0
 10
1.403127654
 20
4.252084067799997
 30
0.0
 10
1.558162978
 20
4.251533817599997
 30
0.0
 10
1.661520394
 20
4.2513597572
 30
0.0
 10
1.7131991085
 20
4.251291828899997
 30
0.0
  0
LINE
  5
3B6
330
20A
100
AcDbEntity
  8
0
  6
Continuous
 62
     7
100
AcDbLine
 10
0.9619635706
 20
4.252051811999997
 30
0.0
 11
1.093055454
 21
4.252193854499997
 31
0.0
  0
SPLINE
  5
3B7
330
20A
100
AcDbEntity
  8
0
  6
Continuous
 62
     7
100
AcDbSpline
210
0.0
220
0.0
230
1.0
 70
     8
 71
     3
 72
     8
 73
     4
 74
     0
 42
0.0000000001
 43
0.0000000001
 40
0.0
 40
0.0
 40
0.0
 40
0.0
 40
1.0
 40
1.0
 40
1.0
 40
1.0
 10
0.9447780591
 20
4.252387287699997
 30
0.0
 10
0.9504986800000001
 20
4.2520667302
 30
0.0
 10
0.9562340119999999
 20
4.252031321999997
 30
0.0
 10
0.9619635706
 20
4.252051811999997
 30
0.0
  0
SPLINE
  5
3B8
330
20A
100
AcDbEntity
  8
0
  6
Continuous
 62
     7
100
AcDbSpline
210
0.0
220
0.0
230
1.0
 70
     8
 71
     3
 72
    10
 73
     6
 74
     0
 42
0.0000000001
 43
0.0000000001
 40
0.0
 40
0.0
 40
0.0
 40
0.0
 40
0.4993890291
 40
0.7496937309
 40
1.0
 40
1.0
 40
1.0
 40
1.0
 10
0.8254759296999999
 20
4.293611973299998
 30
0.0
 10
0.8428659156
 20
4.2814107536
 30
0.0
 10
0.8717598042
 20
4.266665696499997
 30
0.0
 10
0.9129253512
 20
4.255593094399999
 30
0.0
 10
0.9341470417
 20
4.252983369099998
 30
0.0
 10
0.9447780591
 20
4.252387287699997
 30
0.0
  0
LINE
  5
3B9
330
20A
100
AcDbEntity
  8
0
  6
Continuous
 62
     7
100
AcDbLine
 10
0.8229015193
 20
4.2954615929
 30
0.0
 11
0.8254759296999999
 21
4.293611973299998
 31
0.0
  0
LINE
  5
3BA
330
20A
100
AcDbEntity
  8
0
  6
Continuous
 62
     7
100
AcDbLine
 10
2.0202716429
 20
4.0917855413
 30
0.0
 11
1.713198757899998
 21
4.091800102099997
 31
0.0
  0
SPLINE
  5
3BB
330
20A
100
AcDbEntity
  8
0
  6
Continuous
 62
     7
100
AcDbSpline
210
0.0
220
0.0
230
1.0
 70
     8
 71
     3
 72
    13
 73
     9
 74
     0
 42
0.0000000001
 43
0.0000000001
 40
0.0
 40
0.0
 40
0.0
 40
0.0
 40
0.2491980761
 40
0.4989786228
 40
0.6240649109000001
 40
0.7492680523999999
 40
0.8745819147
 40
1.0
 40
1.0
 40
1.0
 40
1.0
 10
2.471849136799999
 20
4.091313761
 30
0.0
 10
2.444043292699999
 20
4.0913821927
 30
0.0
 10
2.388366530799999
 20
4.091484795199997
 30
0.0
 10
2.318732478099998
 20
4.091614512999997
 30
0.0
 10
2.262933827199999
 20
4.0916549557
 30
0.0
 10
2.221023652399999
 20
4.091803872099998
 30
0.0
 10
2.179076372699999
 20
4.0919440717
 30
0.0
 10
2.151099124399999
 20
4.0918630899
 30
0.0
 10
2.1371050615
 20
4.0917727151
 30
0.0
  0
SPLINE
  5
3BC
330
20A
100
AcDbEntity
  8
0
  6
Continuous
 62
     7
100
AcDbSpline
210
0.0
220
0.0
230
1.0
 70
     8
 71
     3
 72
    14
 73
    10
 74
     0
 42
0.0000000001
 43
0.0000000001
 40
0.0
 40
0.0
 40
0.0
 40
0.0
 40
0.2491241408
 40
0.4989227468000001
 40
0.74919903
 40
0.8119033675
 40
0.8746099099
 40
0.9373114994999999
 40
1.0
 40
1.0
 40
1.0
 40
1.0
 10
2.726441148899999
 20
4.185605448299997
 30
0.0
 10
2.7458792636
 20
4.2022688924
 30
0.0
 10
2.7816207014
 20
4.2395855494
 30
0.0
 10
2.823142658399997
 20
4.304983545299998
 30
0.0
 10
2.8439765844
 20
4.359417270199998
 30
0.0
 10
2.8531533955
 20
4.396929688999997
 30
0.0
 10
2.856782114399998
 20
4.4159262302
 30
0.0
 10
2.859546146599997
 20
4.435070226399999
 30
0.0
 10
2.860517060299997
 20
4.447927223599998
 30
0.0
 10
2.8609361477
 20
4.454356190099999
 30
0.0
  0
LINE
  5
3BD
330
20A
100
AcDbEntity
  8
0
  6
Continuous
 62
     7
100
AcDbLine
 10
2.8609361477
 20
4.454356190099999
 30
0.0
 11
2.861268285599998
 21
4.4599674233
 31
0.0
  0
LINE
  5
3BE
330
20A
100
AcDbEntity
  8
0
  6
Continuous
 62
     7
100
AcDbLine
 10
2.861268285599998
 20
4.4599674233
 30
0.0
 11
2.8613783091
 21
4.462212680799999
 31
0.0
  0
LINE
  5
3BF
330
20A
100
AcDbEntity
  8
0
  6
Continuous
 62
     7
100
AcDbLine
 10
2.8613783091
 20
4.462212680799999
 30
0.0
 11
2.861475289499998
 21
4.464458473599997
 31
0.0
  0
LINE
  5
3C0
330
20A
100
AcDbEntity
  8
0
  6
Continuous
 62
     7
100
AcDbLine
 10
2.861475289499998
 20
4.464458473599997
 30
0.0
 11
2.8615592204
 21
4.4667047235
 31
0.0
  0
LINE
  5
3C1
330
20A
100
AcDbEntity
  8
0
  6
Continuous
 62
     7
100
AcDbLine
 10
2.8615592204
 20
4.4667047235
 30
0.0
 11
2.861630096499998
 21
4.468951352599999
 31
0.0
  0
LINE
  5
3C2
330
20A
100
AcDbEntity
  8
0
  6
Continuous
 62
     7
100
AcDbLine
 10
2.861630096499998
 20
4.468951352599999
 30
0.0
 11
2.861687913599997
 21
4.471198282499997
 31
0.0
  0
LINE
  5
3C3
330
20A
100
AcDbEntity
  8
0
  6
Continuous
 62
     7
100
AcDbLine
 10
2.861687913599997
 20
4.471198282499997
 30
0.0
 11
2.861775313199998
 21
4.476817422599999
 31
0.0
  0
LINE
  5
3C4
330
20A
100
AcDbEntity
  8
0
  6
Continuous
 62
     7
100
AcDbLine
 10
2.861775313199998
 20
4.476817422599999
 30
0.0
 11
2.861806330099998
 21
4.480186202599999
 31
0.0
  0
SPLINE
  5
3C5
330
20A
100
AcDbEntity
  8
0
  6
Continuous
 62
     7
100
AcDbSpline
210
0.0
220
0.0
230
1.0
 70
     8
 71
     3
 72
    11
 73
     7
 74
     0
 42
0.0000000001
 43
0.0000000001
 40
0.0
 40
0.0
 40
0.0
 40
0.0
 40
0.2493103541
 40
0.4991084505
 40
0.7493580720000002
 40
1.0
 40
1.0
 40
1.0
 40
1.0
 10
2.8180633938
 20
4.657183328799997
 30
0.0
 10
2.825069408999997
 20
4.643722723199998
 30
0.0
 10
2.837533142499998
 20
4.6159259054
 30
0.0
 10
2.8511769061
 20
4.572302464199998
 30
0.0
 10
2.8596746736
 20
4.527286197099999
 30
0.0
 10
2.861493195999997
 20
4.4967820824
 30
0.0
 10
2.861782021799998
 20
4.4815290472
 30
0.0
  0
SPLINE
  5
3C6
330
20A
100
AcDbEntity
  8
0
  6
Continuous
 62
     7
100
AcDbSpline
210
0.0
220
0.0
230
1.0
 70
     8
 71
     3
 72
    11
 73
     7
 74
     0
 42
0.0000000001
 43
0.0000000001
 40
0.0
 40
0.0
 40
0.0
 40
0.0
 40
0.277372874
 40
0.5431357147
 40
0.786262281
 40
1.0
 40
1.0
 40
1.0
 40
1.0
 10
2.6487456023
 20
4.1336623561
 30
0.0
 10
2.6343934943
 20
4.146117916499997
 30
0.0
 10
2.6059242811
 20
4.1700946812
 30
0.0
 10
2.563146747799998
 20
4.2028780043
 30
0.0
 10
2.5222558386
 20
4.23081757
 30
0.0
 10
2.494930335999999
 20
4.246282231899997
 30
0.0
 10
2.4816201579
 20
4.252387287699997
 30
0.0
  0
SPLINE
  5
3C7
330
20A
100
AcDbEntity
  8
0
  6
Continuous
 62
     7
100
AcDbSpline
210
0.0
220
0.0
230
1.0
 70
     8
 71
     3
 72
    12
 73
     8
 74
     0
 42
0.0000000001
 43
0.0000000001
 40
0.0
 40
0.0
 40
0.0
 40
0.0
 40
0.2797395855
 40
0.545908805
 40
0.6704693925000002
 40
0.7881851163000002
 40
1.0
 40
1.0
 40
1.0
 40
1.0
 10
2.629483614999998
 20
4.124520144999999
 30
0.0
 10
2.6154189888
 20
4.1380418912
 30
0.0
 10
2.5874883977
 20
4.163937748899997
 30
0.0
 10
2.55158639
 20
4.193939187599998
 30
0.0
 10
2.5233372886
 20
4.215391623799997
 30
0.0
 10
2.497458641599997
 20
4.2336348711
 30
0.0
 10
2.477733888399999
 20
4.2456199224
 30
0.0
 10
2.464434646399999
 20
4.252051811999997
 30
0.0
  0
SPLINE
  5
3C8
330
20A
100
AcDbEntity
  8
0
  6
Continuous
 62
     7
100
AcDbSpline
210
0.0
220
0.0
230
1.0
 70
     8
 71
     3
 72
    14
 73
    10
 74
     0
 42
0.0000000001
 43
0.0000000001
 40
0.0
 40
0.0
 40
0.0
 40
0.0
 40
0.2551433005
 40
0.381162034
 40
0.5049482192000001
 40
0.6271712149999999
 40
0.7492978562000002
 40
0.8731958042
 40
1.0
 40
1.0
 40
1.0
 40
1.0
 10
2.4742460708
 20
4.091314428399997
 30
0.0
 10
2.4652200545
 20
4.107268972199998
 30
0.0
 10
2.450830499899999
 20
4.1306342867
 30
0.0
 10
2.429225987299997
 20
4.159800566499997
 30
0.0
 10
2.412104097899999
 20
4.1803428754
 30
0.0
 10
2.3941219431
 20
4.1997533019
 30
0.0
 10
2.375219069199999
 20
4.2182762141
 30
0.0
 10
2.3551736859
 20
4.2360692098
 30
0.0
 10
2.3407993068
 20
4.246959717
 30
0.0
 10
2.333342852999999
 20
4.2521940012
 30
0.0
  0
LINE
  5
3C9
330
20A
100
AcDbEntity
  8
0
  6
Continuous
 62
     7
100
AcDbLine
 10
1.713199074799998
 20
4.091800102099997
 30
0.0
 11
1.713199074199998
 21
1.465848769099999
 31
0.0
  0
SPLINE
  5
3CA
330
20A
100
AcDbEntity
  8
0
  6
Continuous
 62
     7
100
AcDbSpline
210
0.0
220
0.0
230
1.0
 70
     8
 71
     3
 72
    11
 73
     7
 74
     0
 42
0.0000000001
 43
0.0000000001
 40
0.0
 40
0.0
 40
0.0
 40
0.0
 40
0.2493103541
 40
0.4991084505
 40
0.7493580720000002
 40
1.0
 40
1.0
 40
1.0
 40
1.0
 10
0.6083348231
 20
4.657183328799997
 30
0.0
 10
0.6013288079
 20
4.643722723199998
 30
0.0
 10
0.5888650744000003
 20
4.6159259054
 30
0.0
 10
0.5752213109000001
 20
4.572302464199998
 30
0.0
 10
0.5667235434000001
 20
4.527286197099999
 30
0.0
 10
0.5649050209000001
 20
4.4967820824
 30
0.0
 10
0.5646161952000001
 20
4.4815290472
 30
0.0
  0
LINE
  5
3CB
330
20A
100
AcDbEntity
  8
0
  6
Continuous
 62
     7
100
AcDbLine
 10
0.5646229038000003
 20
4.476817422599999
 30
0.0
 11
0.5645918868999999
 21
4.480186202599999
 31
0.0
  0
LINE
  5
3CC
330
20A
100
AcDbEntity
  8
0
  6
Continuous
 62
     7
100
AcDbLine
 10
0.5647103034000001
 20
4.471198282499997
 30
0.0
 11
0.5646229038000003
 21
4.476817422599999
 31
0.0
  0
LINE
  5
3CD
330
20A
100
AcDbEntity
  8
0
  6
Continuous
 62
     7
100
AcDbLine
 10
0.5647681204000003
 20
4.468951352599999
 30
0.0
 11
0.5647103034000001
 21
4.471198282499997
 31
0.0
  0
LINE
  5
3CE
330
20A
100
AcDbEntity
  8
0
  6
Continuous
 62
     7
100
AcDbLine
 10
0.5648389965999999
 20
4.4667047235
 30
0.0
 11
0.5647681204000003
 21
4.468951352599999
 31
0.0
  0
LINE
  5
3CF
330
20A
100
AcDbEntity
  8
0
  6
Continuous
 62
     7
100
AcDbLine
 10
0.5649229275
 20
4.464458473599997
 30
0.0
 11
0.5648389965999999
 21
4.4667047235
 31
0.0
  0
LINE
  5
3D0
330
20A
100
AcDbEntity
  8
0
  6
Continuous
 62
     7
100
AcDbLine
 10
0.5650199079
 20
4.462212680799999
 30
0.0
 11
0.5649229275
 21
4.464458473599997
 31
0.0
  0
LINE
  5
3D1
330
20A
100
AcDbEntity
  8
0
  6
Continuous
 62
     7
100
AcDbLine
 10
0.5651299314
 20
4.4599674233
 30
0.0
 11
0.5650199079
 21
4.462212680799999
 31
0.0
  0
LINE
  5
3D2
330
20A
100
AcDbEntity
  8
0
  6
Continuous
 62
     7
100
AcDbLine
 10
0.5653898028000001
 20
4.454351771799998
 30
0.0
 11
0.5651299314
 21
4.4599674233
 31
0.0
  0
SPLINE
  5
3D3
330
20A
100
AcDbEntity
  8
0
  6
Continuous
 62
     7
100
AcDbSpline
210
0.0
220
0.0
230
1.0
 70
     8
 71
     3
 72
    14
 73
    10
 74
     0
 42
0.0000000001
 43
0.0000000001
 40
0.0
 40
0.0
 40
0.0
 40
0.0
 40
0.249055041
 40
0.4987843547
 40
0.6240041481000001
 40
0.7493066838
 40
0.8746433538999999
 40
0.9373276435999999
 40
1.0
 40
1.0
 40
1.0
 40
1.0
 10
0.6999574139
 20
4.185605151799998
 30
0.0
 10
0.6805191652
 20
4.202268671399997
 30
0.0
 10
0.6447816996000002
 20
4.239571592099999
 30
0.0
 10
0.6101726785000002
 20
4.2941091226
 30
0.0
 10
0.5893779390999999
 20
4.3412235775
 30
0.0
 10
0.5773633425
 20
4.378018394899998
 30
0.0
 10
0.5705158595000001
 20
4.409548908799997
 30
0.0
 10
0.5668777366
 20
4.4350736553
 30
0.0
 10
0.5658253446
 20
4.4479237329
 30
0.0
 10
0.5653898028000001
 20
4.454351771799998
 30
0.0
  0
SPLINE
  5
3D4
330
20A
100
AcDbEntity
  8
0
  6
Continuous
 62
     7
100
AcDbSpline
210
0.0
220
0.0
230
1.0
 70
     8
 71
     3
 72
    13
 73
     9
 74
     0
 42
0.0000000001
 43
0.0000000001
 40
0.0
 40
0.0
 40
0.0
 40
0.0
 40
0.2491980761
 40
0.4989786228
 40
0.6240649109000001
 40
0.7492680523999999
 40
0.8745819147
 40
1.0
 40
1.0
 40
1.0
 40
1.0
 10
0.9545490801999999
 20
4.091313761
 30
0.0
 10
0.9823549242
 20
4.0913821927
 30
0.0
 10
1.0380316861
 20
4.091484795199997
 30
0.0
 10
1.107665738899997
 20
4.091614512999997
 30
0.0
 10
1.1634643898
 20
4.0916549557
 30
0.0
 10
1.2053745646
 20
4.091803872099998
 30
0.0
 10
1.2473218442
 20
4.0919440717
 30
0.0
 10
1.2752990925
 20
4.0918630899
 30
0.0
 10
1.2892931555
 20
4.0917727151
 30
0.0
  0
LINE
  5
3D5
330
20A
100
AcDbEntity
  8
0
  6
Continuous
 62
     7
100
AcDbLine
 10
1.406126574099999
 20
4.0917855413
 30
0.0
 11
1.713199459099999
 21
4.091800102099997
 31
0.0
  0
SPLINE
  5
3D6
330
20A
100
AcDbEntity
  8
0
  6
Continuous
 62
     7
100
AcDbSpline
210
0.0
220
0.0
230
1.0
 70
     8
 71
     3
 72
    11
 73
     7
 74
     0
 42
0.0000000001
 43
0.0000000001
 40
0.0
 40
0.0
 40
0.0
 40
0.0
 40
0.277372874
 40
0.5431357147
 40
0.786262281
 40
1.0
 40
1.0
 40
1.0
 40
1.0
 10
0.7776526147000001
 20
4.1336623561
 30
0.0
 10
0.7920047227
 20
4.146117916499997
 30
0.0
 10
0.8204739359000001
 20
4.1700946812
 30
0.0
 10
0.8632514692
 20
4.2028780043
 30
0.0
 10
0.9041423782999999
 20
4.23081757
 30
0.0
 10
0.9314678809
 20
4.246282231899997
 30
0.0
 10
0.9447780591
 20
4.252387287699997
 30
0.0
  0
SPLINE
  5
3D7
330
20A
100
AcDbEntity
  8
0
  6
Continuous
 62
     7
100
AcDbSpline
210
0.0
220
0.0
230
1.0
 70
     8
 71
     3
 72
    12
 73
     8
 74
     0
 42
0.0000000001
 43
0.0000000001
 40
0.0
 40
0.0
 40
0.0
 40
0.0
 40
0.2797395855
 40
0.545908805
 40
0.6704693924000003
 40
0.7881851163000002
 40
1.0
 40
1.0
 40
1.0
 40
1.0
 10
0.7969146019
 20
4.124520144999999
 30
0.0
 10
0.8109792281999999
 20
4.1380418912
 30
0.0
 10
0.8389098193
 20
4.163937748899997
 30
0.0
 10
0.8748118268999999
 20
4.193939187599998
 30
0.0
 10
0.9030609283
 20
4.215391623799997
 30
0.0
 10
0.9289395753
 20
4.2336348711
 30
0.0
 10
0.9486643285999999
 20
4.2456199224
 30
0.0
 10
0.9619635706
 20
4.252051811999997
 30
0.0
  0
LINE
  5
3D8
330
20A
100
AcDbEntity
  8
0
  6
Continuous
 62
     7
100
AcDbLine
 10
1.7131991085
 20
4.251291828899997
 30
0.0
 11
1.7131991084
 21
4.242733350399998
 31
0.0
  0
LINE
  5
3D9
330
20A
100
AcDbEntity
  8
0
  6
Continuous
 62
     7
100
AcDbLine
 10
1.7131990528
 20
4.242733350399998
 30
0.0
 11
1.7131989493
 21
4.1892947098
 31
0.0
  0
LINE
  5
3DA
330
20A
100
AcDbEntity
  8
0
  6
Continuous
 62
     7
100
AcDbLine
 10
1.7131995858
 20
4.1892947098
 30
0.0
 11
1.7131992849
 21
4.0918990677
 31
0.0
  0
SPLINE
  5
3DB
330
20A
100
AcDbEntity
  8
0
  6
Continuous
 62
     7
100
AcDbSpline
210
0.0
220
0.0
230
1.0
 70
     8
 71
     3
 72
    14
 73
    10
 74
     0
 42
0.0000000001
 43
0.0000000001
 40
0.0
 40
0.0
 40
0.0
 40
0.0
 40
0.2551432904
 40
0.3811620555
 40
0.5049482682999999
 40
0.6271712735000003
 40
0.7492979040000001
 40
0.8731958276999998
 40
1.0
 40
1.0
 40
1.0
 40
1.0
 10
0.9521519617999999
 20
4.091314095799997
 30
0.0
 10
0.9611780127999999
 20
4.107268650299998
 30
0.0
 10
0.9755676114999999
 20
4.130633986
 30
0.0
 10
0.9971721672000001
 20
4.1598003049
 30
0.0
 10
1.0142940873
 20
4.180342646
 30
0.0
 10
1.032276267699999
 20
4.1997531046
 30
0.0
 10
1.0511791661
 20
4.2182760454
 30
0.0
 10
1.071224579499999
 20
4.2360690606
 30
0.0
 10
1.0855989828
 20
4.2469595752
 30
0.0
 10
1.093055454
 20
4.252193855099998
 30
0.0
  0
LINE
  5
3DC
330
20A
100
AcDbEntity
  8
0
  6
Continuous
 62
     7
100
AcDbLine
 10
5.7616847372
 20
1.170790930899999
 30
0.0
 11
1.7131991085
 21
1.171616565599999
 31
0.0
  0
SPLINE
  5
3DD
330
20A
100
AcDbEntity
  8
0
  6
Continuous
 62
     7
100
AcDbSpline
210
0.0
220
0.0
230
1.0
 70
     8
 71
     3
 72
    40
 73
    36
 74
     0
 42
0.0000000001
 43
0.0000000001
 40
0.0
 40
0.0
 40
0.0
 40
0.0
 40
0.0001048982
 40
0.0003496555
 40
0.0007421299
 40
0.0012837256
 40
0.0019748844
 40
0.0028157593
 40
0.0038063925
 40
0.0049467712
 40
0.0076762004
 40
0.0110023702
 40
0.0149233598
 40
0.0194371229
 40
0.0245410213
 40
0.0302316814
 40
0.0365056097
 40
0.0433593621
 40
0.0587894944
 40
0.076483972
 40
0.0964009635
 40
0.1184914363
 40
0.1427029083
 40
0.1689764908
 40
0.1972492491
 40
0.2274524363
 40
0.2933559907
 40
0.366052602
 40
0.444842927
 40
0.5289693854
 40
0.6176234133000002
 40
0.7099531684999999
 40
0.8050715980999999
 40
0.9020646920999999
 40
1.0
 40
1.0
 40
1.0
 40
1.0
 10
6.049182545099997
 20
1.486673665699998
 30
0.0
 10
6.049151990599999
 20
1.486525154699999
 30
0.0
 10
6.0485484049
 20
1.486340149099999
 30
0.0
 10
6.0476051774
 20
1.4861142884
 30
0.0
 10
6.0458596284
 20
1.485879729099998
 30
0.0
 10
6.043547651599997
 20
1.485636500399998
 30
0.0
 10
6.040550677999999
 20
1.485391843399999
 30
0.0
 10
6.0369160399
 20
1.4851457737
 30
0.0
 10
6.0326262635
 20
1.484899550699999
 30
0.0
 10
6.0256100604
 20
1.484549846399997
 30
0.0
 10
6.015217053799997
 20
1.484125409199998
 30
0.0
 10
6.0008049472
 20
1.483640335399998
 30
0.0
 10
5.983812285399999
 20
1.483156786299999
 30
0.0
 10
5.964249192599997
 20
1.482675484699997
 30
0.0
 10
5.942127447599999
 20
1.482196264099999
 30
0.0
 10
5.917460961099996
 20
1.4817195034
 30
0.0
 10
5.8902647224
 20
1.4812460073
 30
0.0
 10
5.848991906599997
 20
1.480594618199998
 30
0.0
 10
5.7912119166
 20
1.479799981999998
 30
0.0
 10
5.714549982799997
 20
1.478896830399999
 30
0.0
 10
5.6282603308
 20
1.4780094012
 30
0.0
 10
5.5325502847
 20
1.4771416085
 30
0.0
 10
5.4276518171
 20
1.476293146999998
 30
0.0
 10
5.313816938199997
 20
1.475467236299999
 30
0.0
 10
5.191321176199997
 20
1.474663577899999
 30
0.0
 10
5.0115441339
 20
1.4735938308
 30
0.0
 10
4.7675561219
 20
1.4723389146
 30
0.0
 10
4.4533391585
 20
1.470982846399999
 30
0.0
 10
4.1127818173
 20
1.469748601899999
 30
0.0
 10
3.7491587907
 20
1.468648524799998
 30
0.0
 10
3.365965159499998
 20
1.4676984265
 30
0.0
 10
2.9668831388
 20
1.466915754299997
 30
0.0
 10
2.5557473521
 20
1.466321624
 30
0.0
 10
2.136508948399999
 20
1.4659408076
 30
0.0
 10
1.854756159399999
 20
1.4658486633
 30
0.0
 10
1.7131988222
 20
1.465848769099999
 30
0.0
  0
LINE
  5
3DE
330
20A
100
AcDbEntity
  8
0
  6
Continuous
 62
     7
100
AcDbLine
 10
1.713200216799998
 20
1.2424386998
 30
0.0
 11
-2.332746822199998
 21
1.241617168599999
 31
0.0
  0
SPLINE
  5
3DF
330
20A
100
AcDbEntity
  8
0
  6
Continuous
 62
     7
100
AcDbSpline
210
0.0
220
0.0
230
1.0
 70
    24
 71
     3
 72
     8
 73
     4
 74
     0
 42
0.0000000001
 43
0.0000000001
 40
0.0
 40
0.0
 40
0.0
 40
0.0
 40
1.0
 40
1.0
 40
1.0
 40
1.0
 10
-2.332746822199998
 20
1.241617168599999
 30
0.0
 10
-2.3327622236
 20
1.241615840999999
 30
0.0
 10
-2.332777624999998
 20
1.2416145134
 30
0.0
 10
-2.332793026399997
 20
1.241613185799999
 30
0.0
  0
SPLINE
  5
3E0
330
20A
100
AcDbEntity
  8
0
  6
Continuous
 62
     7
100
AcDbSpline
210
0.0
220
0.0
230
1.0
 70
     8
 71
     3
 72
    40
 73
    36
 74
     0
 42
0.0000000001
 43
0.0000000001
 40
0.0
 40
0.0
 40
0.0
 40
0.0
 40
0.0001048982
 40
0.0003496555
 40
0.0007421299
 40
0.0012837256
 40
0.0019748844
 40
0.0028157593
 40
0.0038063925
 40
0.0049467712
 40
0.0076762004
 40
0.0110023702
 40
0.0149233598
 40
0.0194371229
 40
0.0245410213
 40
0.0302316814
 40
0.0365056097
 40
0.0433593621
 40
0.0587894944
 40
0.076483972
 40
0.0964009635
 40
0.1184914363
 40
0.1427029083
 40
0.1689764908
 40
0.1972492491
 40
0.2274524363
 40
0.2933559907
 40
0.366052602
 40
0.444842927
 40
0.5289693854
 40
0.6176234133000002
 40
0.7099531684999999
 40
0.8050715980999999
 40
0.9020646920999999
 40
1.0
 40
1.0
 40
1.0
 40
1.0
 10
-2.622784328099998
 20
1.486673665699998
 30
0.0
 10
-2.622753773699999
 20
1.486525154699999
 30
0.0
 10
-2.622150187899999
 20
1.486340149099999
 30
0.0
 10
-2.621206960499999
 20
1.4861142884
 30
0.0
 10
-2.619461411399997
 20
1.485879729099998
 30
0.0
 10
-2.617149434599999
 20
1.485636500399998
 30
0.0
 10
-2.6141524611
 20
1.485391843399999
 30
0.0
 10
-2.610517822899999
 20
1.4851457737
 30
0.0
 10
-2.6062280466
 20
1.484899550699999
 30
0.0
 10
-2.599211843399999
 20
1.484549846399997
 30
0.0
 10
-2.588818836899998
 20
1.484125409199998
 30
0.0
 10
-2.5744067303
 20
1.483640335399998
 30
0.0
 10
-2.557414068399999
 20
1.483156786299999
 30
0.0
 10
-2.5378509756
 20
1.482675484699997
 30
0.0
 10
-2.515729230599998
 20
1.482196264099999
 30
0.0
 10
-2.491062744199997
 20
1.4817195034
 30
0.0
 10
-2.463866505399999
 20
1.4812460073
 30
0.0
 10
-2.422593689699997
 20
1.480594618199998
 30
0.0
 10
-2.364813699599999
 20
1.479799981999998
 30
0.0
 10
-2.2881517658
 20
1.478896830399999
 30
0.0
 10
-2.201862113799998
 20
1.4780094012
 30
0.0
 10
-2.1061520677
 20
1.4771416085
 30
0.0
 10
-2.0012536001
 20
1.476293146999998
 30
0.0
 10
-1.887418721299999
 20
1.475467236299999
 30
0.0
 10
-1.764922959299997
 20
1.474663577899999
 30
0.0
 10
-1.585145916899999
 20
1.4735938308
 30
0.0
 10
-1.341157904899999
 20
1.4723389146
 30
0.0
 10
-1.0269409415
 20
1.470982846399999
 30
0.0
 10
-0.6863836004000003
 20
1.469748601899999
 30
0.0
 10
-0.3227605737
 20
1.468648524799998
 30
0.0
 10
0.0604330575
 20
1.467698426299999
 30
0.0
 10
0.4595150781
 20
1.466915754799997
 30
0.0
 10
0.8706508648000001
 20
1.466321622299999
 30
0.0
 10
1.289889268499998
 20
1.465940814099998
 30
0.0
 10
1.571642057599999
 20
1.465848649299998
 30
0.0
 10
1.713199394799999
 20
1.465848769099999
 30
0.0
  0
LINE
  5
3E1
330
20A
100
AcDbEntity
  8
0
  6
Continuous
 62
     7
100
AcDbLine
 10
-2.335286520199999
 20
1.170790930899999
 30
0.0
 11
1.7131991085
 21
1.171616565599999
 31
0.0
  0
SPLINE
  5
3E2
330
20A
100
AcDbEntity
  8
0
  6
Continuous
 62
     7
100
AcDbSpline
210
0.0
220
0.0
230
1.0
 70
     8
 71
     3
 72
    22
 73
    18
 74
     0
 42
0.0000000001
 43
0.0000000001
 40
0.0
 40
0.0
 40
0.0
 40
0.0
 40
0.0018956338
 40
0.0055852604
 40
0.0113668892
 40
0.0192986283
 40
0.0416424069
 40
0.072564004
 40
0.1119003498
 40
0.15942337
 40
0.2148497603
 40
0.277845744
 40
0.348030075
 40
0.4249773097
 40
0.5972529978
 40
0.7904921004000001
 40
1.0
 40
1.0
 40
1.0
 40
1.0
 10
-0.2159346022
 20
1.131486633399997
 30
0.0
 10
-0.2159345594
 20
1.131606276999999
 30
0.0
 10
-0.2162430004
 20
1.131885884599999
 30
0.0
 10
-0.2168869745
 20
1.132127513199999
 30
0.0
 10
-0.2179572919
 20
1.132439700399999
 30
0.0
 10
-0.2201790814
 20
1.1328964956
 30
0.0
 10
-0.2240070706
 20
1.1334687651
 30
0.0
 10
-0.2298108227
 20
1.134135686899998
 30
0.0
 10
-0.2372132608
 20
1.134834571999999
 30
0.0
 10
-0.2461644393
 20
1.135555588399999
 30
0.0
 10
-0.2566124321999999
 20
1.1362929466
 30
0.0
 10
-0.2684929395
 20
1.137040779999997
 30
0.0
 10
-0.2817338903
 20
1.1377939993
 30
0.0
 10
-0.3018663774
 20
1.138838499899998
 30
0.0
 10
-0.3297640592
 20
1.1401055328
 30
0.0
 10
-0.3660291964
 20
1.141525496899999
 30
0.0
 10
-0.391434164
 20
1.142389057599999
 30
0.0
 10
-0.4046506378000001
 20
1.142809716499999
 30
0.0
  0
SPLINE
  5
3E3
330
20A
100
AcDbEntity
  8
0
  6
Continuous
 62
     7
100
AcDbSpline
210
0.0
220
0.0
230
1.0
 70
     8
 71
     3
 72
    22
 73
    18
 74
     0
 42
0.0000000001
 43
0.0000000001
 40
0.0
 40
0.0
 40
0.0
 40
0.0
 40
0.2095105334
 40
0.4027506586
 40
0.5750262411
 40
0.6519731442
 40
0.7221570284000001
 40
0.7851524984
 40
0.8405783543
 40
0.8881008590999998
 40
0.9274367438999997
 40
0.9583579634999999
 40
0.9807014729
 40
0.9886331251999999
 40
0.9944147032
 40
0.9981043211999999
 40
1.0
 40
1.0
 40
1.0
 40
1.0
 10
3.8310315491
 20
1.1428091629
 30
0.0
 10
3.8178161397
 20
1.142388512199999
 30
0.0
 10
3.792413306799998
 20
1.1415249749
 30
0.0
 10
3.7561513225
 20
1.140105061699999
 30
0.0
 10
3.7282562022
 20
1.138838085499999
 30
0.0
 10
3.7081256463
 20
1.137793637699999
 30
0.0
 10
3.694886010799998
 20
1.1370404598
 30
0.0
 10
3.683006705099998
 20
1.1362926693
 30
0.0
 10
3.672559784999998
 20
1.1355553548
 30
0.0
 10
3.6636095368
 20
1.134834381999999
 30
0.0
 10
3.6562078754
 20
1.134135539599999
 30
0.0
 10
3.6504047356
 20
1.133468657999999
 30
0.0
 10
3.646577153099998
 20
1.1328964236
 30
0.0
 10
3.644355598199997
 20
1.132439654399999
 30
0.0
 10
3.643285395499998
 20
1.132127486399999
 30
0.0
 10
3.6426414819
 20
1.1318858673
 30
0.0
 10
3.6423330797
 20
1.131606277299999
 30
0.0
 10
3.642333121499997
 20
1.131486642
 30
0.0
  0
ENDSEC
  0
SECTION
  2
OBJECTS
  0
DICTIONARY
  5
C
330
0
100
AcDbDictionary
281
     1
  3
ACAD_COLOR
350
412
  3
ACAD_GROUP
350
D
  3
ACAD_LAYOUT
350
1A
  3
ACAD_MATERIAL
350
3E8
  3
ACAD_MLEADERSTYLE
350
437
  3
ACAD_MLINESTYLE
350
17
  3
ACAD_PLOTSETTINGS
350
19
  3
ACAD_PLOTSTYLENAME
350
E
  3
ACAD_SCALELIST
350
415
  3
ACAD_TABLESTYLE
350
413
  3
ACAD_VISUALSTYLE
350
401
  3
ACDB_RECOMPOSE_DATA
350
4E4
  3
AcDbVariableDictionary
350
4DE
  3
AcmDictionary
350
496
  3
AMG
350
43D
  3
AMGSNAPSETTINGS
350
4D7
  0
DICTIONARY
  5
412
102
{ACAD_REACTORS
330
C
102
}
330
C
100
AcDbDictionary
281
     1
  0
DICTIONARY
  5
D
102
{ACAD_REACTORS
330
C
102
}
330
C
100
AcDbDictionary
281
     1
  0
DICTIONARY
  5
1A
102
{ACAD_REACTORS
330
C
102
}
330
C
100
AcDbDictionary
281
     1
  3
Layout1
350
3E5
  3
Model
350
3E4
  0
DICTIONARY
  5
3E8
102
{ACAD_REACTORS
330
C
102
}
330
C
100
AcDbDictionary
281
     1
  3
ByBlock
350
3F1
  3
ByLayer
350
3E9
  3
Global
350
3F9
  0
DICTIONARY
  5
437
102
{ACAD_REACTORS
330
C
102
}
330
C
100
AcDbDictionary
281
     1
  3
Standard
350
438
  0
DICTIONARY
  5
17
102
{ACAD_REACTORS
330
C
102
}
330
C
100
AcDbDictionary
281
     1
  3
Standard
350
18
  0
DICTIONARY
  5
19
102
{ACAD_REACTORS
330
C
102
}
330
C
100
AcDbDictionary
281
     1
  0
ACDBDICTIONARYWDFLT
  5
E
102
{ACAD_REACTORS
330
C
102
}
330
C
100
AcDbDictionary
281
     1
  3
Normal
350
F
100
AcDbDictionaryWithDefault
340
F
  0
DICTIONARY
  5
415
102
{ACAD_REACTORS
330
C
102
}
330
C
100
AcDbDictionary
281
     1
  3
A0
350
416
  3
A1
350
417
  3
A2
350
418
  3
A3
350
419
  3
A4
350
41A
  3
A5
350
41B
  3
A6
350
41C
  3
A7
350
41D
  3
A8
350
41E
  3
A9
350
41F
  3
B0
350
420
  3
B1
350
421
  3
B2
350
422
  3
B3
350
423
  3
B4
350
424
  3
B5
350
425
  3
B6
350
426
  3
B7
350
427
  3
B8
350
428
  3
B9
350
429
  3
C0
350
42A
  3
C1
350
42B
  3
C2
350
42C
  3
C3
350
42D
  3
C4
350
42E
  3
C5
350
42F
  3
C6
350
430
  3
C7
350
431
  3
C8
350
432
  3
C9
350
433
  3
D0
350
434
  3
D1
350
435
  3
D2
350
436
  0
DICTIONARY
  5
413
102
{ACAD_REACTORS
330
C
102
}
330
C
100
AcDbDictionary
281
     1
  3
Standard
350
414
  0
DICTIONARY
  5
401
102
{ACAD_REACTORS
330
C
102
}
330
C
100
AcDbDictionary
281
     1
  3
2dWireframe
350
407
  3
3D Hidden
350
409
  3
3dWireframe
350
408
  3
Basic
350
406
  3
Brighten
350
40D
  3
ColorChange
350
411
  3
Conceptual
350
40A
  3
Dim
350
40C
  3
Facepattern
350
410
  3
Flat
350
402
  3
FlatWithEdges
350
403
  3
Gouraud
350
404
  3
GouraudWithEdges
350
405
  3
Linepattern
350
40F
  3
Realistic
350
40B
  3
Thicken
350
40E
  0
XRECORD
  5
4E4
102
{ACAD_REACTORS
330
C
102
}
330
C
100
AcDbXrecord
280
     1
 90
        1
330
414
  0
DICTIONARY
  5
4DE
102
{ACAD_REACTORS
330
C
102
}
330
C
100
AcDbDictionary
281
     1
  3
CANNOSCALE
350
4E1
  3
CMLEADERSTYLE
350
4E0
  3
CTABLESTYLE
350
4DF
  0
DICTIONARY
  5
496
102
{ACAD_REACTORS
330
C
102
}
330
C
100
AcDbDictionary
281
     1
  3
AcmStdDictionary
350
4A3
  0
DICTIONARY
  5
43D
102
{ACAD_REACTORS
330
C
102
}
330
C
100
AcDbDictionary
281
     1
  0
DICTIONARY
  5
4D7
102
{ACAD_REACTORS
330
C
102
}
330
C
100
AcDbDictionary
281
     1
  0
LAYOUT
  5
3E5
102
{ACAD_REACTORS
330
1A
102
}
330
1A
100
AcDbPlotSettings
  1

  2
none_device
  4
ANSI_C_(22.00_x_17.00_Inches)
  6

 40
0.0
 41
0.0
 42
0.0
 43
0.0
 44
558.8
 45
431.8
 46
0.0
 47
0.0
 48
0.0
 49
0.0
140
0.0
141
0.0
142
1.0
143
1.0
 70
     0
 72
     0
 73
     0
 74
     0
  7

 75
     0
147
1.0
 76
     0
 77
     2
 78
   300
148
0.0
149
0.0
100
AcDbLayout
  1
Layout1
 70
     1
 71
     1
 10
0.0
 20
0.0
 11
12.0
 21
9.0
 12
0.0
 22
0.0
 32
0.0
 14
1.000000000000000E+20
 24
1.000000000000000E+20
 34
1.000000000000000E+20
 15
-1.000000000000000E+20
 25
-1.000000000000000E+20
 35
-1.000000000000000E+20
146
0.0
 13
0.0
 23
0.0
 33
0.0
 16
1.0
 26
0.0
 36
0.0
 17
0.0
 27
1.0
 37
0.0
 76
     0
330
20B
  0
LAYOUT
  5
3E4
102
{ACAD_REACTORS
330
1A
102
}
330
1A
100
AcDbPlotSettings
  1

  2
none_device
  4
ANSI_C_(22.00_x_17.00_Inches)
  6

 40
0.0
 41
0.0
 42
0.0
 43
0.0
 44
558.8
 45
431.8
 46
0.0
 47
0.0
 48
0.0
 49
0.0
140
0.0
141
0.0
142
1.0
143
1.0
 70
  1024
 72
     0
 73
     0
 74
     0
  7

 75
     0
147
1.0
 76
     0
 77
     2
 78
   300
148
0.0
149
0.0
100
AcDbLayout
  1
Model
 70
     0
 71
     0
 10
0.0
 20
0.0
 11
22.0
 21
17.0
 12
0.0
 22
0.0
 32
0.0
 14
0.0
 24
0.0
 34
0.0
 15
0.0
 25
0.0
 35
0.0
146
0.0
 13
0.0
 23
0.0
 33
0.0
 16
1.0
 26
0.0
 36
0.0
 17
0.0
 27
1.0
 37
0.0
 76
     0
330
20A
331
1F4
  0
MATERIAL
  5
3F1
102
{ACAD_XDICTIONARY
360
3F2
102
}
102
{ACAD_REACTORS
330
3E8
102
}
330
3E8
100
AcDbMaterial
  1
ByBlock
 72
     0
 43
0.0208333333333333
 43
0.0
 43
0.0
 43
0.0
 43
0.0
 43
0.0208333333333333
 43
0.0
 43
0.0
 43
0.0
 43
0.0
 43
1.0
 43
0.0
 43
0.0
 43
0.0
 43
0.0
 43
1.0
 77
     0
 47
0.0208333333333333
 47
0.0
 47
0.0
 47
0.0
 47
0.0
 47
0.0208333333333333
 47
0.0
 47
0.0
 47
0.0
 47
0.0
 47
1.0
 47
0.0
 47
0.0
 47
0.0
 47
0.0
 47
1.0
171
     0
 49
0.0208333333333333
 49
0.0
 49
0.0
 49
0.0
 49
0.0
 49
0.0208333333333333
 49
0.0
 49
0.0
 49
0.0
 49
0.0
 49
1.0
 49
0.0
 49
0.0
 49
0.0
 49
0.0
 49
1.0
175
     0
142
0.0208333333333333
142
0.0
142
0.0
142
0.0
142
0.0
142
0.0208333333333333
142
0.0
142
0.0
142
0.0
142
0.0
142
1.0
142
0.0
142
0.0
142
0.0
142
0.0
142
1.0
179
     0
144
0.0208333333333333
144
0.0
144
0.0
144
0.0
144
0.0
144
0.0208333333333333
144
0.0
144
0.0
144
0.0
144
0.0
144
1.0
144
0.0
144
0.0
144
0.0
144
0.0
144
1.0
147
0.0208333333333333
147
0.0
147
0.0
147
0.0
147
0.0
147
0.0208333333333333
147
0.0
147
0.0
147
0.0
147
0.0
147
1.0
147
0.0
147
0.0
147
0.0
147
0.0
147
1.0
  0
MATERIAL
  5
3E9
102
{ACAD_XDICTIONARY
360
3EA
102
}
102
{ACAD_REACTORS
330
3E8
102
}
330
3E8
100
AcDbMaterial
  1
ByLayer
 72
     0
 43
0.0208333333333333
 43
0.0
 43
0.0
 43
0.0
 43
0.0
 43
0.0208333333333333
 43
0.0
 43
0.0
 43
0.0
 43
0.0
 43
1.0
 43
0.0
 43
0.0
 43
0.0
 43
0.0
 43
1.0
 77
     0
 47
0.0208333333333333
 47
0.0
 47
0.0
 47
0.0
 47
0.0
 47
0.0208333333333333
 47
0.0
 47
0.0
 47
0.0
 47
0.0
 47
1.0
 47
0.0
 47
0.0
 47
0.0
 47
0.0
 47
1.0
171
     0
 49
0.0208333333333333
 49
0.0
 49
0.0
 49
0.0
 49
0.0
 49
0.0208333333333333
 49
0.0
 49
0.0
 49
0.0
 49
0.0
 49
1.0
 49
0.0
 49
0.0
 49
0.0
 49
0.0
 49
1.0
175
     0
142
0.0208333333333333
142
0.0
142
0.0
142
0.0
142
0.0
142
0.0208333333333333
142
0.0
142
0.0
142
0.0
142
0.0
142
1.0
142
0.0
142
0.0
142
0.0
142
0.0
142
1.0
179
     0
144
0.0208333333333333
144
0.0
144
0.0
144
0.0
144
0.0
144
0.0208333333333333
144
0.0
144
0.0
144
0.0
144
0.0
144
1.0
144
0.0
144
0.0
144
0.0
144
0.0
144
1.0
147
0.0208333333333333
147
0.0
147
0.0
147
0.0
147
0.0
147
0.0208333333333333
147
0.0
147
0.0
147
0.0
147
0.0
147
1.0
147
0.0
147
0.0
147
0.0
147
0.0
147
1.0
  0
MATERIAL
  5
3F9
102
{ACAD_XDICTIONARY
360
3FA
102
}
102
{ACAD_REACTORS
330
3E8
102
}
330
3E8
100
AcDbMaterial
  1
Global
 72
     0
 43
0.0208333333333333
 43
0.0
 43
0.0
 43
0.0
 43
0.0
 43
0.0208333333333333
 43
0.0
 43
0.0
 43
0.0
 43
0.0
 43
1.0
 43
0.0
 43
0.0
 43
0.0
 43
0.0
 43
1.0
 77
     0
 47
0.0208333333333333
 47
0.0
 47
0.0
 47
0.0
 47
0.0
 47
0.0208333333333333
 47
0.0
 47
0.0
 47
0.0
 47
0.0
 47
1.0
 47
0.0
 47
0.0
 47
0.0
 47
0.0
 47
1.0
171
     0
 49
0.0208333333333333
 49
0.0
 49
0.0
 49
0.0
 49
0.0
 49
0.0208333333333333
 49
0.0
 49
0.0
 49
0.0
 49
0.0
 49
1.0
 49
0.0
 49
0.0
 49
0.0
 49
0.0
 49
1.0
175
     0
142
0.0208333333333333
142
0.0
142
0.0
142
0.0
142
0.0
142
0.0208333333333333
142
0.0
142
0.0
142
0.0
142
0.0
142
1.0
142
0.0
142
0.0
142
0.0
142
0.0
142
1.0
179
     0
144
0.0208333333333333
144
0.0
144
0.0
144
0.0
144
0.0
144
0.0208333333333333
144
0.0
144
0.0
144
0.0
144
0.0
144
1.0
144
0.0
144
0.0
144
0.0
144
0.0
144
1.0
147
0.0208333333333333
147
0.0
147
0.0
147
0.0
147
0.0
147
0.0208333333333333
147
0.0
147
0.0
147
0.0
147
0.0
147
1.0
147
0.0
147
0.0
147
0.0
147
0.0
147
1.0
  0
MLEADERSTYLE
  5
438
102
{ACAD_REACTORS
330
437
102
}
330
437
100
AcDbMLeaderStyle
170
     2
171
     1
172
     0
 90
        2
 40
0.0
 41
0.0
173
     1
 91
-1056964608
340
14
 92
       -2
290
     1
 42
0.09
291
     1
 43
0.36
  3
Standard
 44
0.18
300

342
11
174
     1
178
     6
175
     1
176
     0
 93
-1056964608
 45
0.18
292
     0
297
     0
 46
0.18
 94
-1056964608
 47
1.0
 49
1.0
140
1.0
293
     1
141
0.0
294
     1
177
     0
142
1.0
295
     0
296
     0
143
0.125
1001
ACAD_MLEADERVER
1070
     2
  0
MLINESTYLE
  5
18
102
{ACAD_REACTORS
330
17
102
}
330
17
100
AcDbMlineStyle
  2
STANDARD
 70
     0
  3

 62
   256
 51
90.0
 52
90.0
 71
     2
 49
0.5
 62
   256
  6
BYLAYER
 49
-0.5
 62
   256
  6
BYLAYER
  0
ACDBPLACEHOLDER
  5
F
102
{ACAD_REACTORS
330
E
102
}
330
E
  0
SCALE
  5
416
102
{ACAD_REACTORS
330
415
102
}
330
415
100
AcDbScale
 70
     0
300
1:1
140
1.0
141
1.0
290
     1
  0
SCALE
  5
417
102
{ACAD_REACTORS
330
415
102
}
330
415
100
AcDbScale
 70
     0
300
1:2
140
1.0
141
2.0
290
     0
  0
SCALE
  5
418
102
{ACAD_REACTORS
330
415
102
}
330
415
100
AcDbScale
 70
     0
300
1:4
140
1.0
141
4.0
290
     0
  0
SCALE
  5
419
102
{ACAD_REACTORS
330
415
102
}
330
415
100
AcDbScale
 70
     0
300
1:5
140
1.0
141
5.0
290
     0
  0
SCALE
  5
41A
102
{ACAD_REACTORS
330
415
102
}
330
415
100
AcDbScale
 70
     0
300
1:8
140
1.0
141
8.0
290
     0
  0
SCALE
  5
41B
102
{ACAD_REACTORS
330
415
102
}
330
415
100
AcDbScale
 70
     0
300
1:10
140
1.0
141
10.0
290
     0
  0
SCALE
  5
41C
102
{ACAD_REACTORS
330
415
102
}
330
415
100
AcDbScale
 70
     0
300
1:16
140
1.0
141
16.0
290
     0
  0
SCALE
  5
41D
102
{ACAD_REACTORS
330
415
102
}
330
415
100
AcDbScale
 70
     0
300
1:20
140
1.0
141
20.0
290
     0
  0
SCALE
  5
41E
102
{ACAD_REACTORS
330
415
102
}
330
415
100
AcDbScale
 70
     0
300
1:30
140
1.0
141
30.0
290
     0
  0
SCALE
  5
41F
102
{ACAD_REACTORS
330
415
102
}
330
415
100
AcDbScale
 70
     0
300
1:40
140
1.0
141
40.0
290
     0
  0
SCALE
  5
420
102
{ACAD_REACTORS
330
415
102
}
330
415
100
AcDbScale
 70
     0
300
1:50
140
1.0
141
50.0
290
     0
  0
SCALE
  5
421
102
{ACAD_REACTORS
330
415
102
}
330
415
100
AcDbScale
 70
     0
300
1:100
140
1.0
141
100.0
290
     0
  0
SCALE
  5
422
102
{ACAD_REACTORS
330
415
102
}
330
415
100
AcDbScale
 70
     0
300
2:1
140
2.0
141
1.0
290
     0
  0
SCALE
  5
423
102
{ACAD_REACTORS
330
415
102
}
330
415
100
AcDbScale
 70
     0
300
4:1
140
4.0
141
1.0
290
     0
  0
SCALE
  5
424
102
{ACAD_REACTORS
330
415
102
}
330
415
100
AcDbScale
 70
     0
300
8:1
140
8.0
141
1.0
290
     0
  0
SCALE
  5
425
102
{ACAD_REACTORS
330
415
102
}
330
415
100
AcDbScale
 70
     0
300
10:1
140
10.0
141
1.0
290
     0
  0
SCALE
  5
426
102
{ACAD_REACTORS
330
415
102
}
330
415
100
AcDbScale
 70
     0
300
100:1
140
100.0
141
1.0
290
     0
  0
SCALE
  5
427
102
{ACAD_REACTORS
330
415
102
}
330
415
100
AcDbScale
 70
     0
300
1/128" = 1'-0"
140
0.0078125
141
12.0
290
     0
  0
SCALE
  5
428
102
{ACAD_REACTORS
330
415
102
}
330
415
100
AcDbScale
 70
     0
300
1/64" = 1'-0"
140
0.015625
141
12.0
290
     0
  0
SCALE
  5
429
102
{ACAD_REACTORS
330
415
102
}
330
415
100
AcDbScale
 70
     0
300
1/32" = 1'-0"
140
0.03125
141
12.0
290
     0
  0
SCALE
  5
42A
102
{ACAD_REACTORS
330
415
102
}
330
415
100
AcDbScale
 70
     0
300
1/16" = 1'-0"
140
0.0625
141
12.0
290
     0
  0
SCALE
  5
42B
102
{ACAD_REACTORS
330
415
102
}
330
415
100
AcDbScale
 70
     0
300
3/32" = 1'-0"
140
0.09375
141
12.0
290
     0
  0
SCALE
  5
42C
102
{ACAD_REACTORS
330
415
102
}
330
415
100
AcDbScale
 70
     0
300
1/8" = 1'-0"
140
0.125
141
12.0
290
     0
  0
SCALE
  5
42D
102
{ACAD_REACTORS
330
415
102
}
330
415
100
AcDbScale
 70
     0
300
3/16" = 1'-0"
140
0.1875
141
12.0
290
     0
  0
SCALE
  5
42E
102
{ACAD_REACTORS
330
415
102
}
330
415
100
AcDbScale
 70
     0
300
1/4" = 1'-0"
140
0.25
141
12.0
290
     0
  0
SCALE
  5
42F
102
{ACAD_REACTORS
330
415
102
}
330
415
100
AcDbScale
 70
     0
300
3/8" = 1'-0"
140
0.375
141
12.0
290
     0
  0
SCALE
  5
430
102
{ACAD_REACTORS
330
415
102
}
330
415
100
AcDbScale
 70
     0
300
1/2" = 1'-0"
140
0.5
141
12.0
290
     0
  0
SCALE
  5
431
102
{ACAD_REACTORS
330
415
102
}
330
415
100
AcDbScale
 70
     0
300
3/4" = 1'-0"
140
0.75
141
12.0
290
     0
  0
SCALE
  5
432
102
{ACAD_REACTORS
330
415
102
}
330
415
100
AcDbScale
 70
     0
300
1" = 1'-0"
140
1.0
141
12.0
290
     0
  0
SCALE
  5
433
102
{ACAD_REACTORS
330
415
102
}
330
415
100
AcDbScale
 70
     0
300
1-1/2" = 1'-0"
140
1.5
141
12.0
290
     0
  0
SCALE
  5
434
102
{ACAD_REACTORS
330
415
102
}
330
415
100
AcDbScale
 70
     0
300
3" = 1'-0"
140
3.0
141
12.0
290
     0
  0
SCALE
  5
435
102
{ACAD_REACTORS
330
415
102
}
330
415
100
AcDbScale
 70
     0
300
6" = 1'-0"
140
6.0
141
12.0
290
     0
  0
SCALE
  5
436
102
{ACAD_REACTORS
330
415
102
}
330
415
100
AcDbScale
 70
     0
300
1'-0" = 1'-0"
140
12.0
141
12.0
290
     0
  0
TABLESTYLE
  5
414
102
{ACAD_XDICTIONARY
360
4E2
102
}
102
{ACAD_REACTORS
330
413
102
}
330
413
100
AcDbTableStyle
  3
Standard
 70
     0
 71
     0
 40
0.06
 41
0.06
280
     0
281
     0
  7
STANDARD
140
0.18
170
     2
 62
     0
 63
     7
283
     0
 90
      512
 91
        0
  1

274
    -2
284
     1
 64
     0
275
    -2
285
     1
 65
     0
276
    -2
286
     1
 66
     0
277
    -2
287
     1
 67
     0
278
    -2
288
     1
 68
     0
279
    -2
289
     1
 69
     0
  7
STANDARD
140
0.25
170
     5
 62
     0
 63
     7
283
     0
 90
      512
 91
        0
  1

274
    -2
284
     1
 64
     0
275
    -2
285
     1
 65
     0
276
    -2
286
     1
 66
     0
277
    -2
287
     1
 67
     0
278
    -2
288
     1
 68
     0
279
    -2
289
     1
 69
     0
  7
STANDARD
140
0.18
170
     5
 62
     0
 63
     7
283
     0
 90
      512
 91
        0
  1

274
    -2
284
     1
 64
     0
275
    -2
285
     1
 65
     0
276
    -2
286
     1
 66
     0
277
    -2
287
     1
 67
     0
278
    -2
288
     1
 68
     0
279
    -2
289
     1
 69
     0
  0
VISUALSTYLE
  5
407
102
{ACAD_REACTORS
330
401
102
}
330
401
100
AcDbVisualStyle
  2
2dWireframe
 70
     4
 71
     0
 72
     2
 73
     0
 90
        0
 40
-0.6
 41
-30.0
 62
     5
 63
     7
421
 16777215
 74
     1
 91
        4
 64
     7
 65
   257
 75
     1
175
     1
 42
1.0
 92
        0
 66
   257
 43
1.0
 76
     1
 77
     6
 78
     2
 67
     7
 79
     5
170
     0
171
     0
290
     0
174
     0
 93
        1
 44
0.0
173
     0
291
     0
 45
0.0
  0
VISUALSTYLE
  5
409
102
{ACAD_REACTORS
330
401
102
}
330
401
100
AcDbVisualStyle
  2
3D Hidden
 70
     6
 71
     1
 72
     2
 73
     2
 90
        0
 40
-0.6
 41
-30.0
 62
     5
 63
     7
421
 16777215
 74
     2
 91
        2
 64
     7
 65
   257
 75
     2
175
     1
 42
40.0
 92
        0
 66
   257
 43
1.0
 76
     1
 77
     6
 78
     2
 67
     7
 79
     3
170
     0
171
     0
290
     0
174
     0
 93
        1
 44
0.0
173
     0
291
     0
 45
0.0
  0
VISUALSTYLE
  5
408
102
{ACAD_REACTORS
330
401
102
}
330
401
100
AcDbVisualStyle
  2
3dWireframe
 70
     5
 71
     0
 72
     2
 73
     0
 90
        0
 40
-0.6
 41
-30.0
 62
     5
 63
     7
421
 16777215
 74
     1
 91
        4
 64
     7
 65
   257
 75
     1
175
     1
 42
1.0
 92
        0
 66
   257
 43
1.0
 76
     1
 77
     6
 78
     2
 67
     7
 79
     5
170
     0
171
     0
290
     0
174
     0
 93
        1
 44
0.0
173
     0
291
     0
 45
0.0
  0
VISUALSTYLE
  5
406
102
{ACAD_REACTORS
330
401
102
}
330
401
100
AcDbVisualStyle
  2
Basic
 70
     7
 71
     1
 72
     0
 73
     1
 90
        0
 40
-0.6
 41
-30.0
 62
     5
 63
     7
421
 16777215
 74
     0
 91
        4
 64
     7
 65
   257
 75
     1
175
     1
 42
1.0
 92
        8
 66
     7
 43
1.0
 76
     1
 77
     6
 78
     2
 67
     7
 79
     5
170
     0
171
     0
290
     0
174
     0
 93
        1
 44
0.0
173
     0
291
     1
 45
0.0
  0
VISUALSTYLE
  5
40D
102
{ACAD_REACTORS
330
401
102
}
330
401
100
AcDbVisualStyle
  2
Brighten
 70
    12
 71
     2
 72
     2
 73
     0
 90
        0
 40
-0.6
 41
-30.0
 62
     5
 63
     7
421
 16777215
 74
     1
 91
        4
 64
     7
 65
   257
 75
     1
175
     1
 42
1.0
 92
        8
 66
     7
 43
1.0
 76
     1
 77
     6
 78
     2
 67
     7
 79
     5
170
     0
171
     0
290
     0
174
     0
 93
        1
 44
50.0
173
     0
291
     1
 45
0.0
  0
VISUALSTYLE
  5
411
102
{ACAD_REACTORS
330
401
102
}
330
401
100
AcDbVisualStyle
  2
ColorChange
 70
    16
 71
     2
 72
     2
 73
     3
 90
        0
 40
-0.6
 41
-30.0
 62
     5
 63
     8
421
  8421504
 74
     1
 91
        4
 64
     7
 65
   257
 75
     1
175
     1
 42
1.0
 92
        8
 66
     8
424
  8421504
 43
1.0
 76
     1
 77
     6
 78
     2
 67
     7
 79
     5
170
     0
171
     0
290
     0
174
     0
 93
        1
 44
0.0
173
     0
291
     1
 45
0.0
  0
VISUALSTYLE
  5
40A
102
{ACAD_REACTORS
330
401
102
}
330
401
100
AcDbVisualStyle
  2
Conceptual
 70
     9
 71
     3
 72
     2
 73
     0
 90
        0
 40
-0.6
 41
-30.0
 62
     5
 63
     7
421
 16777215
 74
     2
 91
        2
 64
     7
 65
   257
 75
     1
175
     1
 42
40.0
 92
        8
 66
     7
 43
1.0
 76
     1
 77
     6
 78
     2
 67
     7
 79
     3
170
     0
171
     0
290
     0
174
     0
 93
        1
 44
0.0
173
     0
291
     0
 45
0.0
  0
VISUALSTYLE
  5
40C
102
{ACAD_REACTORS
330
401
102
}
330
401
100
AcDbVisualStyle
  2
Dim
 70
    11
 71
     2
 72
     2
 73
     0
 90
        0
 40
-0.6
 41
-30.0
 62
     5
 63
     7
421
 16777215
 74
     1
 91
        4
 64
     7
 65
   257
 75
     1
175
     1
 42
1.0
 92
        8
 66
     7
 43
1.0
 76
     1
 77
     6
 78
     2
 67
     7
 79
     5
170
     0
171
     0
290
     0
174
     0
 93
        1
 44
-50.0
173
     0
291
     1
 45
0.0
  0
VISUALSTYLE
  5
410
102
{ACAD_REACTORS
330
401
102
}
330
401
100
AcDbVisualStyle
  2
Facepattern
 70
    15
 71
     2
 72
     2
 73
     0
 90
        0
 40
-0.6
 41
-30.0
 62
     5
 63
     7
421
 16777215
 74
     1
 91
        4
 64
     7
 65
   257
 75
     1
175
     1
 42
1.0
 92
        8
 66
     7
 43
1.0
 76
     1
 77
     6
 78
     2
 67
     7
 79
     5
170
     0
171
     0
290
     0
174
     0
 93
        1
 44
0.0
173
     0
291
     1
 45
0.0
  0
VISUALSTYLE
  5
402
102
{ACAD_REACTORS
330
401
102
}
330
401
100
AcDbVisualStyle
  2
Flat
 70
     0
 71
     2
 72
     1
 73
     1
 90
        2
 40
-0.6
 41
30.0
 62
     5
 63
     7
421
 16777215
 74
     0
 91
        4
 64
     7
 65
   257
 75
     1
175
     1
 42
1.0
 92
        8
 66
     7
 43
1.0
 76
     1
 77
     6
 78
     2
 67
     7
 79
     5
170
     0
171
     0
290
     0
174
     0
 93
       13
 44
0.0
173
     0
291
     1
 45
0.0
  0
VISUALSTYLE
  5
403
102
{ACAD_REACTORS
330
401
102
}
330
401
100
AcDbVisualStyle
  2
FlatWithEdges
 70
     1
 71
     2
 72
     1
 73
     1
 90
        2
 40
-0.6
 41
30.0
 62
     5
 63
     7
421
 16777215
 74
     1
 91
        4
 64
     7
 65
   257
 75
     1
175
     1
 42
1.0
 92
        0
 66
   257
 43
1.0
 76
     1
 77
     6
 78
     2
 67
     7
 79
     5
170
     0
171
     0
290
     0
174
     0
 93
       13
 44
0.0
173
     0
291
     1
 45
0.0
  0
VISUALSTYLE
  5
404
102
{ACAD_REACTORS
330
401
102
}
330
401
100
AcDbVisualStyle
  2
Gouraud
 70
     2
 71
     2
 72
     2
 73
     1
 90
        2
 40
-0.6
 41
30.0
 62
     5
 63
     7
421
 16777215
 74
     0
 91
        4
 64
     7
 65
   257
 75
     1
175
     1
 42
1.0
 92
        0
 66
     7
 43
1.0
 76
     1
 77
     6
 78
     2
 67
     7
 79
     5
170
     0
171
     0
290
     0
174
     0
 93
       13
 44
0.0
173
     0
291
     1
 45
0.0
  0
VISUALSTYLE
  5
405
102
{ACAD_REACTORS
330
401
102
}
330
401
100
AcDbVisualStyle
  2
GouraudWithEdges
 70
     3
 71
     2
 72
     2
 73
     1
 90
        2
 40
-0.6
 41
30.0
 62
     5
 63
     7
421
 16777215
 74
     1
 91
        4
 64
     7
 65
   257
 75
     1
175
     1
 42
1.0
 92
        0
 66
   257
 43
1.0
 76
     1
 77
     6
 78
     2
 67
     7
 79
     5
170
     0
171
     0
290
     0
174
     0
 93
       13
 44
0.0
173
     0
291
     1
 45
0.0
  0
VISUALSTYLE
  5
40F
102
{ACAD_REACTORS
330
401
102
}
330
401
100
AcDbVisualStyle
  2
Linepattern
 70
    14
 71
     2
 72
     2
 73
     0
 90
        0
 40
-0.6
 41
-30.0
 62
     5
 63
     7
421
 16777215
 74
     1
 91
        4
 64
     7
 65
   257
 75
     7
175
     7
 42
1.0
 92
        8
 66
     7
 43
1.0
 76
     1
 77
     6
 78
     2
 67
     7
 79
     5
170
     0
171
     0
290
     0
174
     0
 93
        1
 44
0.0
173
     0
291
     1
 45
0.0
  0
VISUALSTYLE
  5
40B
102
{ACAD_REACTORS
330
401
102
}
330
401
100
AcDbVisualStyle
  2
Realistic
 70
     8
 71
     2
 72
     2
 73
     0
 90
        0
 40
-0.6
 41
-30.0
 62
     5
 63
     7
421
 16777215
 74
     1
 91
        0
 64
     7
 65
   257
 75
     1
175
     1
 42
1.0
 92
        8
 66
     8
424
  7895160
 43
1.0
 76
     1
 77
     6
 78
     2
 67
     7
 79
     5
170
     0
171
     0
290
     0
174
     0
 93
       13
 44
0.0
173
     0
291
     0
 45
0.0
  0
VISUALSTYLE
  5
40E
102
{ACAD_REACTORS
330
401
102
}
330
401
100
AcDbVisualStyle
  2
Thicken
 70
    13
 71
     2
 72
     2
 73
     0
 90
        0
 40
-0.6
 41
-30.0
 62
     5
 63
     7
421
 16777215
 74
     1
 91
        4
 64
     7
 65
   257
 75
     1
175
     1
 42
1.0
 92
       12
 66
     7
 43
1.0
 76
     1
 77
     6
 78
     2
 67
     7
 79
     5
170
     0
171
     0
290
     0
174
     0
 93
        1
 44
0.0
173
     0
291
     1
 45
0.0
  0
DICTIONARYVAR
  5
4E1
102
{ACAD_REACTORS
330
4DE
102
}
330
4DE
100
DictionaryVariables
280
     0
  1
1:1
  0
DICTIONARYVAR
  5
4E0
102
{ACAD_REACTORS
330
4DE
102
}
330
4DE
100
DictionaryVariables
280
     0
  1
STANDARD
  0
DICTIONARYVAR
  5
4DF
102
{ACAD_REACTORS
330
4DE
102
}
330
4DE
100
DictionaryVariables
280
     0
  1
STANDARD
  0
DICTIONARY
  5
4A3
102
{ACAD_REACTORS
330
496
102
}
330
496
100
AcDbDictionary
281
     1
  0
DICTIONARY
  5
3F2
330
3F1
100
AcDbDictionary
280
     1
281
     1
  3
BUMPTILE
360
3F4
  3
DIFFUSETILE
360
3F3
  3
OPACITYTILE
360
3F7
  3
REFLECTIONTILE
360
3F6
  3
REFRACTIONTILE
360
3F8
  3
SPECULARTILE
360
3F5
  0
DICTIONARY
  5
3EA
330
3E9
100
AcDbDictionary
280
     1
281
     1
  3
BUMPTILE
360
3EC
  3
DIFFUSETILE
360
3EB
  3
OPACITYTILE
360
3EF
  3
REFLECTIONTILE
360
3EE
  3
REFRACTIONTILE
360
3F0
  3
SPECULARTILE
360
3ED
  0
DICTIONARY
  5
3FA
330
3F9
100
AcDbDictionary
280
     1
281
     1
  3
BUMPTILE
360
3FC
  3
DIFFUSETILE
360
3FB
  3
OPACITYTILE
360
3FF
  3
REFLECTIONTILE
360
3FE
  3
REFRACTIONTILE
360
400
  3
SPECULARTILE
360
3FD
  0
DICTIONARY
  5
4E2
330
414
100
AcDbDictionary
280
     1
281
     1
  3
ACAD_ROUNDTRIP_2008_TABLESTYLE_CELLSTYLEMAP
360
5E4
  0
XRECORD
  5
3F4
102
{ACAD_REACTORS
330
3F2
102
}
330
3F2
100
AcDbXrecord
280
     1
270
     1
271
     1
  0
XRECORD
  5
3F3
102
{ACAD_REACTORS
330
3F2
102
}
330
3F2
100
AcDbXrecord
280
     1
270
     1
271
     1
  0
XRECORD
  5
3F7
102
{ACAD_REACTORS
330
3F2
102
}
330
3F2
100
AcDbXrecord
280
     1
270
     1
271
     1
  0
XRECORD
  5
3F6
102
{ACAD_REACTORS
330
3F2
102
}
330
3F2
100
AcDbXrecord
280
     1
270
     1
271
     1
  0
XRECORD
  5
3F8
102
{ACAD_REACTORS
330
3F2
102
}
330
3F2
100
AcDbXrecord
280
     1
270
     1
271
     1
  0
XRECORD
  5
3F5
102
{ACAD_REACTORS
330
3F2
102
}
330
3F2
100
AcDbXrecord
280
     1
270
     1
271
     1
  0
XRECORD
  5
3EC
102
{ACAD_REACTORS
330
3EA
102
}
330
3EA
100
AcDbXrecord
280
     1
270
     1
271
     1
  0
XRECORD
  5
3EB
102
{ACAD_REACTORS
330
3EA
102
}
330
3EA
100
AcDbXrecord
280
     1
270
     1
271
     1
  0
XRECORD
  5
3EF
102
{ACAD_REACTORS
330
3EA
102
}
330
3EA
100
AcDbXrecord
280
     1
270
     1
271
     1
  0
XRECORD
  5
3EE
102
{ACAD_REACTORS
330
3EA
102
}
330
3EA
100
AcDbXrecord
280
     1
270
     1
271
     1
  0
XRECORD
  5
3F0
102
{ACAD_REACTORS
330
3EA
102
}
330
3EA
100
AcDbXrecord
280
     1
270
     1
271
     1
  0
XRECORD
  5
3ED
102
{ACAD_REACTORS
330
3EA
102
}
330
3EA
100
AcDbXrecord
280
     1
270
     1
271
     1
  0
XRECORD
  5
3FC
102
{ACAD_REACTORS
330
3FA
102
}
330
3FA
100
AcDbXrecord
280
     1
270
     1
271
     1
  0
XRECORD
  5
3FB
102
{ACAD_REACTORS
330
3FA
102
}
330
3FA
100
AcDbXrecord
280
     1
270
     1
271
     1
  0
XRECORD
  5
3FF
102
{ACAD_REACTORS
330
3FA
102
}
330
3FA
100
AcDbXrecord
280
     1
270
     1
271
     1
  0
XRECORD
  5
3FE
102
{ACAD_REACTORS
330
3FA
102
}
330
3FA
100
AcDbXrecord
280
     1
270
     1
271
     1
  0
XRECORD
  5
400
102
{ACAD_REACTORS
330
3FA
102
}
330
3FA
100
AcDbXrecord
280
     1
270
     1
271
     1
  0
XRECORD
  5
3FD
102
{ACAD_REACTORS
330
3FA
102
}
330
3FA
100
AcDbXrecord
280
     1
270
     1
271
     1
  0
CELLSTYLEMAP
  5
5E4
102
{ACAD_REACTORS
330
4E2
102
}
330
4E2
100
AcDbCellStyleMap
 90
        3
300
CELLSTYLE
  1
TABLEFORMAT_BEGIN
 90
        5
170
     1
 91
        0
 92
    32768
 62
   257
 93
        1
300
CONTENTFORMAT
  1
CONTENTFORMAT_BEGIN
 90
        0
 91
        0
 92
      512
 93
        0
300

 40
0.0
140
1.0
 94
        5
 62
     0
340
11
144
0.25
309
CONTENTFORMAT_END
171
     1
301
MARGIN
  1
CELLMARGIN_BEGIN
 40
0.06
 40
0.06
 40
0.06
 40
0.06
 40
0.18
 40
0.18
309
CELLMARGIN_END
 94
        6
 95
        1
302
GRIDFORMAT
  1
GRIDFORMAT_BEGIN
 90
        0
 91
        1
 62
     0
 92
       -2
340
0
 93
        0
 40
0.045
309
GRIDFORMAT_END
 95
        2
302
GRIDFORMAT
  1
GRIDFORMAT_BEGIN
 90
        0
 91
        1
 62
     0
 92
       -2
340
0
 93
        0
 40
0.045
309
GRIDFORMAT_END
 95
        4
302
GRIDFORMAT
  1
GRIDFORMAT_BEGIN
 90
        0
 91
        1
 62
     0
 92
       -2
340
0
 93
        0
 40
0.045
309
GRIDFORMAT_END
 95
        8
302
GRIDFORMAT
  1
GRIDFORMAT_BEGIN
 90
        0
 91
        1
 62
     0
 92
       -2
340
0
 93
        0
 40
0.045
309
GRIDFORMAT_END
 95
       16
302
GRIDFORMAT
  1
GRIDFORMAT_BEGIN
 90
        0
 91
        1
 62
     0
 92
       -2
340
0
 93
        0
 40
0.045
309
GRIDFORMAT_END
 95
       32
302
GRIDFORMAT
  1
GRIDFORMAT_BEGIN
 90
        0
 91
        1
 62
     0
 92
       -2
340
0
 93
        0
 40
0.045
309
GRIDFORMAT_END
309
TABLEFORMAT_END
  1
CELLSTYLE_BEGIN
 90
        1
 91
        1
300
_TITLE
309
CELLSTYLE_END
300
CELLSTYLE
  1
TABLEFORMAT_BEGIN
 90
        5
170
     1
 91
        0
 92
        0
 62
   257
 93
        1
300
CONTENTFORMAT
  1
CONTENTFORMAT_BEGIN
 90
        0
 91
        0
 92
      512
 93
        0
300

 40
0.0
140
1.0
 94
        5
 62
     0
340
11
144
0.18
309
CONTENTFORMAT_END
171
     1
301
MARGIN
  1
CELLMARGIN_BEGIN
 40
0.06
 40
0.06
 40
0.06
 40
0.06
 40
0.18
 40
0.18
309
CELLMARGIN_END
 94
        6
 95
        1
302
GRIDFORMAT
  1
GRIDFORMAT_BEGIN
 90
        0
 91
        1
 62
     0
 92
       -2
340
0
 93
        0
 40
0.045
309
GRIDFORMAT_END
 95
        2
302
GRIDFORMAT
  1
GRIDFORMAT_BEGIN
 90
        0
 91
        1
 62
     0
 92
       -2
340
0
 93
        0
 40
0.045
309
GRIDFORMAT_END
 95
        4
302
GRIDFORMAT
  1
GRIDFORMAT_BEGIN
 90
        0
 91
        1
 62
     0
 92
       -2
340
0
 93
        0
 40
0.045
309
GRIDFORMAT_END
 95
        8
302
GRIDFORMAT
  1
GRIDFORMAT_BEGIN
 90
        0
 91
        1
 62
     0
 92
       -2
340
0
 93
        0
 40
0.045
309
GRIDFORMAT_END
 95
       16
302
GRIDFORMAT
  1
GRIDFORMAT_BEGIN
 90
        0
 91
        1
 62
     0
 92
       -2
340
0
 93
        0
 40
0.045
309
GRIDFORMAT_END
 95
       32
302
GRIDFORMAT
  1
GRIDFORMAT_BEGIN
 90
        0
 91
        1
 62
     0
 92
       -2
340
0
 93
        0
 40
0.045
309
GRIDFORMAT_END
309
TABLEFORMAT_END
  1
CELLSTYLE_BEGIN
 90
        2
 91
        1
300
_HEADER
309
CELLSTYLE_END
300
CELLSTYLE
  1
TABLEFORMAT_BEGIN
 90
        5
170
     1
 91
        0
 92
        0
 62
   257
 93
        1
300
CONTENTFORMAT
  1
CONTENTFORMAT_BEGIN
 90
        0
 91
        0
 92
      512
 93
        0
300

 40
0.0
140
1.0
 94
        2
 62
     0
340
11
144
0.18
309
CONTENTFORMAT_END
171
     1
301
MARGIN
  1
CELLMARGIN_BEGIN
 40
0.06
 40
0.06
 40
0.06
 40
0.06
 40
0.18
 40
0.18
309
CELLMARGIN_END
 94
        6
 95
        1
302
GRIDFORMAT
  1
GRIDFORMAT_BEGIN
 90
        0
 91
        1
 62
     0
 92
       -2
340
0
 93
        0
 40
0.045
309
GRIDFORMAT_END
 95
        2
302
GRIDFORMAT
  1
GRIDFORMAT_BEGIN
 90
        0
 91
        1
 62
     0
 92
       -2
340
0
 93
        0
 40
0.045
309
GRIDFORMAT_END
 95
        4
302
GRIDFORMAT
  1
GRIDFORMAT_BEGIN
 90
        0
 91
        1
 62
     0
 92
       -2
340
0
 93
        0
 40
0.045
309
GRIDFORMAT_END
 95
        8
302
GRIDFORMAT
  1
GRIDFORMAT_BEGIN
 90
        0
 91
        1
 62
     0
 92
       -2
340
0
 93
        0
 40
0.045
309
GRIDFORMAT_END
 95
       16
302
GRIDFORMAT
  1
GRIDFORMAT_BEGIN
 90
        0
 91
        1
 62
     0
 92
       -2
340
0
 93
        0
 40
0.045
309
GRIDFORMAT_END
 95
       32
302
GRIDFORMAT
  1
GRIDFORMAT_BEGIN
 90
        0
 91
        1
 62
     0
 92
       -2
340
0
 93
        0
 40
0.045
309
GRIDFORMAT_END
309
TABLEFORMAT_END
  1
CELLSTYLE_BEGIN
 90
        3
 91
        2
300
_DATA
309
CELLSTYLE_END
  0
ENDSEC
  0
EOF
