  0
SECTION
  2
HEADER
  9
$ACADVER
  1
AC1021
  9
$ACADMAINTVER
 70
    50
  9
$DWGCODEPAGE
  3
ANSI_936
  9
$LASTSAVEDBY
  1
ko69185
  9
$CUSTOMPROPERTYTAG
  1
AmdtFileType
  9
$CUSTOMPROPERTY
  1
84
  9
$INSBASE
 10
0.0
 20
0.0
 30
0.0
  9
$EXTMIN
 10
17.12044425207452
 20
19.09747291013713
 30
0.0
  9
$EXTMAX
 10
37.63186183057452
 20
27.69599230693713
 30
0.0
  9
$LIMMIN
 10
0.0
 20
0.0
  9
$LIMMAX
 10
17.0
 20
11.0
  9
$ORTHOMODE
 70
     0
  9
$REGENMODE
 70
     1
  9
$FILLMODE
 70
     1
  9
$QTEXTMODE
 70
     0
  9
$MIRRTEXT
 70
     1
  9
$LTSCALE
 40
1.0
  9
$ATTMODE
 70
     1
  9
$TEXTSIZE
 40
0.2
  9
$TRACEWID
 40
0.05
  9
$TEXTSTYLE
  7
STANDARD
  9
$CLAYER
  8
0
  9
$CELTYPE
  6
ByLayer
  9
$CECOLOR
 62
   256
  9
$CELTSCALE
 40
1.0
  9
$DISPSILH
 70
     0
  9
$DIMSCALE
 40
1.0
  9
$DIMASZ
 40
0.12
  9
$DIMEXO
 40
0.05
  9
$DIMDLI
 40
0.5
  9
$DIMRND
 40
0.0
  9
$DIMDLE
 40
0.0
  9
$DIMEXE
 40
0.1
  9
$DIMTP
 40
0.1
  9
$DIMTM
 40
0.1
  9
$DIMTXT
 40
0.12
  9
$DIMCEN
 40
0.0
  9
$DIMTSZ
 40
0.0
  9
$DIMTOL
 70
     0
  9
$DIMLIM
 70
     0
  9
$DIMTIH
 70
     1
  9
$DIMTOH
 70
     1
  9
$DIMSE1
 70
     0
  9
$DIMSE2
 70
     0
  9
$DIMTAD
 70
     0
  9
$DIMZIN
 70
     7
  9
$DIMBLK
  1

  9
$DIMASO
 70
     1
  9
$DIMSHO
 70
     1
  9
$DIMPOST
  1

  9
$DIMAPOST
  1
mm
  9
$DIMALT
 70
     0
  9
$DIMALTD
 70
     2
  9
$DIMALTF
 40
25.4
  9
$DIMLFAC
 40
1.0
  9
$DIMTOFL
 70
     0
  9
$DIMTVP
 40
0.0
  9
$DIMTIX
 70
     0
  9
$DIMSOXD
 70
     0
  9
$DIMSAH
 70
     0
  9
$DIMBLK1
  1

  9
$DIMBLK2
  1

  9
$DIMSTYLE
  2
AM_ANSI
  9
$DIMCLRD
 70
   256
  9
$DIMCLRE
 70
   256
  9
$DIMCLRT
 70
   140
  9
$DIMTFAC
 40
0.71
  9
$DIMGAP
 40
0.06
  9
$DIMJUST
 70
     0
  9
$DIMSD1
 70
     0
  9
$DIMSD2
 70
     0
  9
$DIMTOLJ
 70
     1
  9
$DIMTZIN
 70
     7
  9
$DIMALTZ
 70
     0
  9
$DIMALTTZ
 70
     0
  9
$DIMUPT
 70
     0
  9
$DIMDEC
 70
     4
  9
$DIMTDEC
 70
     4
  9
$DIMALTU
 70
     2
  9
$DIMALTTD
 70
     4
  9
$DIMTXSTY
  7
STANDARD
  9
$DIMAUNIT
 70
     0
  9
$DIMADEC
 70
     0
  9
$DIMALTRND
 40
0.0
  9
$DIMAZIN
 70
     2
  9
$DIMDSEP
 70
    46
  9
$DIMATFIT
 70
     3
  9
$DIMFRAC
 70
     0
  9
$DIMLDRBLK
  1

  9
$DIMLUNIT
 70
     2
  9
$DIMLWD
 70
    -1
  9
$DIMLWE
 70
    -1
  9
$DIMTMOVE
 70
     0
  9
$DIMFXL
 40
1.0
  9
$DIMFXLON
 70
     0
  9
$DIMJOGANG
 40
0.7853981633974483
  9
$DIMTFILL
 70
     0
  9
$DIMTFILLCLR
 70
     0
  9
$DIMARCSYM
 70
     1
  9
$DIMLTYPE
  6
ByBlock
  9
$DIMLTEX1
  6
ByBlock
  9
$DIMLTEX2
  6
ByBlock
  9
$LUNITS
 70
     2
  9
$LUPREC
 70
     4
  9
$SKETCHINC
 40
0.1
  9
$FILLETRAD
 40
0.125
  9
$AUNITS
 70
     0
  9
$AUPREC
 70
     0
  9
$MENU
  1
.
  9
$ELEVATION
 40
0.0
  9
$PELEVATION
 40
0.0
  9
$THICKNESS
 40
0.0
  9
$LIMCHECK
 70
     0
  9
$CHAMFERA
 40
0.125
  9
$CHAMFERB
 40
0.125
  9
$CHAMFERC
 40
1.0
  9
$CHAMFERD
 40
0.0
  9
$SKPOLY
 70
     0
  9
$TDCREATE
 40
2455335.626338322
  9
$TDUCREATE
 40
2455335.293004988
  9
$TDUPDATE
 40
2455335.626955128
  9
$TDUUPDATE
 40
2455335.293621794
  9
$TDINDWG
 40
0.0006204167
  9
$TDUSRTIMER
 40
0.0006204167
  9
$USRTIMER
 70
     1
  9
$ANGBASE
 50
0.0
  9
$ANGDIR
 70
     0
  9
$PDMODE
 70
     0
  9
$PDSIZE
 40
0.0
  9
$PLINEWID
 40
0.0
  9
$SPLFRAME
 70
     0
  9
$SPLINETYPE
 70
     6
  9
$SPLINESEGS
 70
     8
  9
$HANDSEED
  5
4A4
  9
$SURFTAB1
 70
     6
  9
$SURFTAB2
 70
     6
  9
$SURFTYPE
 70
     6
  9
$SURFU
 70
     6
  9
$SURFV
 70
     6
  9
$UCSBASE
  2

  9
$UCSNAME
  2

  9
$UCSORG
 10
0.0
 20
0.0
 30
0.0
  9
$UCSXDIR
 10
1.0
 20
0.0
 30
0.0
  9
$UCSYDIR
 10
0.0
 20
1.0
 30
0.0
  9
$UCSORTHOREF
  2

  9
$UCSORTHOVIEW
 70
     0
  9
$UCSORGTOP
 10
0.0
 20
0.0
 30
0.0
  9
$UCSORGBOTTOM
 10
0.0
 20
0.0
 30
0.0
  9
$UCSORGLEFT
 10
0.0
 20
0.0
 30
0.0
  9
$UCSORGRIGHT
 10
0.0
 20
0.0
 30
0.0
  9
$UCSORGFRONT
 10
0.0
 20
0.0
 30
0.0
  9
$UCSORGBACK
 10
0.0
 20
0.0
 30
0.0
  9
$PUCSBASE
  2

  9
$PUCSNAME
  2

  9
$PUCSORG
 10
0.0
 20
0.0
 30
0.0
  9
$PUCSXDIR
 10
1.0
 20
0.0
 30
0.0
  9
$PUCSYDIR
 10
0.0
 20
1.0
 30
0.0
  9
$PUCSORTHOREF
  2

  9
$PUCSORTHOVIEW
 70
     0
  9
$PUCSORGTOP
 10
0.0
 20
0.0
 30
0.0
  9
$PUCSORGBOTTOM
 10
0.0
 20
0.0
 30
0.0
  9
$PUCSORGLEFT
 10
0.0
 20
0.0
 30
0.0
  9
$PUCSORGRIGHT
 10
0.0
 20
0.0
 30
0.0
  9
$PUCSORGFRONT
 10
0.0
 20
0.0
 30
0.0
  9
$PUCSORGBACK
 10
0.0
 20
0.0
 30
0.0
  9
$USERI1
 70
     0
  9
$USERI2
 70
     0
  9
$USERI3
 70
     0
  9
$USERI4
 70
     0
  9
$USERI5
 70
     0
  9
$USERR1
 40
0.0
  9
$USERR2
 40
0.0
  9
$USERR3
 40
0.0
  9
$USERR4
 40
0.0
  9
$USERR5
 40
0.0
  9
$WORLDVIEW
 70
     1
  9
$SHADEDGE
 70
     3
  9
$SHADEDIF
 70
    70
  9
$TILEMODE
 70
     1
  9
$MAXACTVP
 70
    64
  9
$PINSBASE
 10
0.0
 20
0.0
 30
0.0
  9
$PLIMCHECK
 70
     0
  9
$PEXTMIN
 10
1.000000000000000E+20
 20
1.000000000000000E+20
 30
1.000000000000000E+20
  9
$PEXTMAX
 10
-1.000000000000000E+20
 20
-1.000000000000000E+20
 30
-1.000000000000000E+20
  9
$PLIMMIN
 10
0.0
 20
0.0
  9
$PLIMMAX
 10
12.0
 20
9.0
  9
$UNITMODE
 70
     0
  9
$VISRETAIN
 70
     1
  9
$PLINEGEN
 70
     0
  9
$PSLTSCALE
 70
     1
  9
$TREEDEPTH
 70
  3020
  9
$CMLSTYLE
  2
Standard
  9
$CMLJUST
 70
     0
  9
$CMLSCALE
 40
1.0
  9
$PROXYGRAPHICS
 70
     1
  9
$MEASUREMENT
 70
     0
  9
$CELWEIGHT
370
    -1
  9
$ENDCAPS
280
     0
  9
$JOINSTYLE
280
     0
  9
$LWDISPLAY
290
     0
  9
$INSUNITS
 70
     1
  9
$HYPERLINKBASE
  1

  9
$STYLESHEET
  1

  9
$XEDIT
290
     1
  9
$CEPSNTYPE
380
     0
  9
$PSTYLEMODE
290
     1
  9
$FINGERPRINTGUID
  2
{5E2F020F-A745-482A-BEDF-E58D1829B9CA}
  9
$VERSIONGUID
  2
{E611B272-42A2-405F-87B8-8D054422E322}
  9
$EXTNAMES
290
     1
  9
$PSVPSCALE
 40
0.0
  9
$OLESTARTUP
290
     0
  9
$SORTENTS
280
   127
  9
$INDEXCTL
280
     0
  9
$HIDETEXT
280
     0
  9
$XCLIPFRAME
290
     0
  9
$HALOGAP
280
     0
  9
$OBSCOLOR
 70
   257
  9
$OBSLTYPE
280
     0
  9
$INTERSECTIONDISPLAY
280
     0
  9
$INTERSECTIONCOLOR
 70
   257
  9
$DIMASSOC
280
     2
  9
$PROJECTNAME
  1

  9
$CAMERADISPLAY
290
     0
  9
$LENSLENGTH
 40
50.0
  9
$CAMERAHEIGHT
 40
0.0
  9
$STEPSPERSEC
 40
2.0
  9
$STEPSIZE
 40
6.0
  9
$3DDWFPREC
 40
2.0
  9
$PSOLWIDTH
 40
0.25
  9
$PSOLHEIGHT
 40
4.0
  9
$LOFTANG1
 40
1.570796326794896
  9
$LOFTANG2
 40
1.570796326794896
  9
$LOFTMAG1
 40
0.0
  9
$LOFTMAG2
 40
0.0
  9
$LOFTPARAM
 70
     7
  9
$LOFTNORMALS
280
     1
  9
$LATITUDE
 40
37.795
  9
$LONGITUDE
 40
-122.394
  9
$NORTHDIRECTION
 40
0.0
  9
$TIMEZONE
 70
 -8000
  9
$LIGHTGLYPHDISPLAY
280
     1
  9
$TILEMODELIGHTSYNCH
280
     1
  9
$CMATERIAL
347
293
  9
$SOLIDHIST
280
     1
  9
$SHOWHIST
280
     1
  9
$DWFFRAME
280
     2
  9
$DGNFRAME
280
     0
  9
$REALWORLDSCALE
290
     1
  9
$INTERFERECOLOR
 62
     1
  9
$INTERFEREOBJVS
345
2A0
  9
$INTERFEREVPVS
346
29D
  9
$CSHADOW
280
     0
  9
$SHADOWPLANELOCATION
 40
0.0
  0
ENDSEC
  0
SECTION
  2
CLASSES
  0
CLASS
  1
ACDBDICTIONARYWDFLT
  2
AcDbDictionaryWithDefault
  3
ObjectDBX Classes
 90
        0
 91
        1
280
     0
281
     0
  0
CLASS
  1
ACME_DOCUMENT
  2
AcMeDbDoc
  3
AcMeServices
 90
     1024
 91
        2
280
     0
281
     0
  0
CLASS
  1
AMGSETTINGSOBJ
  2
AmgSettingsObj
  3
"AcadM|Product Description: AutoCAD Mechanical|Company: Autodesk, Inc."
 90
     1024
 91
        4
280
     0
281
     0
  0
CLASS
  1
ACMESCOPE
  2
AcMeScope
  3
AcMeServices
 90
     1024
 91
        1
280
     0
281
     0
  0
CLASS
  1
ACMECOMMANDHISTORY
  2
AcMeCommandHistory
  3
AcMeServices
 90
     1024
 91
        1
280
     0
281
     0
  0
CLASS
  1
ACIMSYSVARMAN
  2
AcImSysVarManager
  3
AcMeServices
 90
     1024
 91
        5
280
     0
281
     0
  0
CLASS
  1
ACIMREALSYSVAR
  2
AcImRealSysVar
  3
AcMeServices
 90
     1024
 91
        3
280
     0
281
     0
  0
CLASS
  1
ACIMINTSYSVAR
  2
AcImIntSysVar
  3
AcMeServices
 90
     1024
 91
       27
280
     0
281
     0
  0
CLASS
  1
ACMEDRAWINGMAN
  2
AcMeDrawingMan
  3
AcMeServices
 90
     1024
 91
        1
280
     0
281
     0
  0
CLASS
  1
ACMEVIEW
  2
AcMeView
  3
AcMeServices
 90
     1024
 91
        1
280
     0
281
     0
  0
CLASS
  1
ACDBENTITYCACHE
  2
AcMeEntityCache
  3
AcMeServices
 90
     1024
 91
        1
280
     0
281
     0
  0
CLASS
  1
GSMANAGER
  2
AcMeGSManager
  3
AcMeServices
 90
     1024
 91
        1
280
     0
281
     0
  0
CLASS
  1
AMDTINTERNALREACTOR
  2
AmdtInternalReactor
  3
AcMeServices
 90
     1024
 91
        2
280
     0
281
     0
  0
CLASS
  1
ACMESTATEMGR
  2
AcMeStateMgr
  3
AcMeServices
 90
     1024
 91
        1
280
     0
281
     0
  0
CLASS
  1
ACGREFMASTER
  2
AcGrefMaster
  3
AcAttribServices
 90
     1024
 91
        1
280
     0
281
     0
  0
CLASS
  1
ACME_DATABASE
  2
AcMeDbDatabase
  3
AcMeServices
 90
     1024
 91
        2
280
     0
281
     0
  0
CLASS
  1
ACRFINSADJUSTERMGR
  2
AcRfInsAdjusterMgr
  3
AcMeServices
 90
     1024
 91
        1
280
     0
281
     0
  0
CLASS
  1
ACGREFACADMASTER
  2
AcGrefacadMaster
  3
AcGrefServices
 90
     1024
 91
        1
280
     0
281
     0
  0
CLASS
  1
AMIMASTER
  2
AmiMaster
  3
AmiServices
 90
     1024
 91
        1
280
     0
281
     0
  0
CLASS
  1
ACMDATADICTIONARY
  2
AcmDataDictionary
  3
"AcmSymBB|Product Description: AutoCAD Mechanical|Company: Autodesk, Inc."
 90
     1024
 91
        1
280
     0
281
     0
  0
CLASS
  1
ACMDATAENTRYBLOCK
  2
AcmDataEntryBlock
  3
AcmSymBB|Product Description: AutoCAD Mechanical|Company: Autodesk, Inc.
 90
     1024
 91
        1
280
     0
281
     0
  0
CLASS
  1
ACIMSTRSYSVAR
  2
AcImStrSysVar
  3
AcMeServices
 90
     1024
 91
        5
280
     0
281
     0
  0
CLASS
  1
ACMSTANDARDANSI
  2
AcmStandardANSI
  3
"Amdt_StdImp|Product Description: AutoCAD Mechanical|Company: Autodesk, Inc."
 90
     1024
 91
        1
280
     0
281
     0
  0
CLASS
  1
AMGOBJPROPCFG
  2
AmgObjPropCfg
  3
"AmgLay|Product Description: AutoCAD Mechanical|Company: Autodesk, Inc."
 90
     1025
 91
        1
280
     0
281
     0
  0
CLASS
  1
ACMSURFSTANDARDANSI
  2
AcmSurfTextStdANSI
  3
"Amdt_StdImp|Product Description: AutoCAD Mechanical|Company: Autodesk, Inc."
 90
     1024
 91
        1
280
     0
281
     0
  0
CLASS
  1
ACMFCFSTANDARDANSI
  2
AcmFCFStdANSI
  3
"Amdt_StdImp|Product Description: AutoCAD Mechanical|Company: Autodesk, Inc."
 90
     1024
 91
        1
280
     0
281
     0
  0
CLASS
  1
ACMWELDSTANDARDANSI
  2
AcmWeldingStdANSI
  3
"Amdt_StdImp|Product Description: AutoCAD Mechanical|Company: Autodesk, Inc."
 90
     1024
 91
        1
280
     0
281
     0
  0
CLASS
  1
ACMIDSTANDARDANSI
  2
AcmIdStdANSI
  3
"Amdt_StdImp|Product Description: AutoCAD Mechanical|Company: Autodesk, Inc."
 90
     1024
 91
        1
280
     0
281
     0
  0
CLASS
  1
ACMDATUMSTANDARDANSI
  2
AcmDatumStdANSI
  3
"Amdt_StdImp|Product Description: AutoCAD Mechanical|Company: Autodesk, Inc."
 90
     1024
 91
        1
280
     0
281
     0
  0
CLASS
  1
ACMBOMSTANDARDANSI
  2
AcmBOMStdANSI
  3
"Amdt_StdImp|Product Description: AutoCAD Mechanical|Company: Autodesk, Inc."
 90
     1024
 91
        1
280
     0
281
     0
  0
CLASS
  1
ACMDETAILSTANDARDANSI
  2
AmdtDetailSymStdANSI
  3
"Amdt_StdImp|Product Description: AutoCAD Mechanical|Company: Autodesk, Inc."
 90
     1024
 91
        1
280
     0
281
     0
  0
CLASS
  1
ACMSECTIONSTANDARDANSI
  2
AmdtSectionSymStdANSI
  3
"Amdt_StdImp|Product Description: AutoCAD Mechanical|Company: Autodesk, Inc."
 90
     1024
 91
        1
280
     0
281
     0
  0
CLASS
  1
ACMCENTERLINESTANDARDANSI
  2
AmdtCenterLineStdANSI
  3
"Amdt_StdImp|Product Description: AutoCAD Mechanical|Company: Autodesk, Inc."
 90
     1024
 91
        1
280
     0
281
     0
  0
CLASS
  1
ACMNOTESTANDARDANSI
  2
AmdtNoteStdANSI
  3
"Amdt_StdImp|Product Description: AutoCAD Mechanical|Company: Autodesk, Inc."
 90
     1024
 91
        1
280
     0
281
     0
  0
CLASS
  1
ACAMGLAYSTD
  2
AcAmgLayStd
  3
"AmgLay|Product Description: AutoCAD Mechanical|Company: Autodesk, Inc."
 90
     1024
 91
        1
280
     0
281
     0
  0
CLASS
  1
ACAMGDIMSTD
  2
AcAmgDimStd
  3
"AmgDim|Product Description: AutoCAD Mechanical|Company: Autodesk, Inc."
 90
     1024
 91
        1
280
     0
281
     0
  0
CLASS
  1
ACAMGHOLECHARTSTDANSI
  2
AcAmgHoleChartStdANSI
  3
AmgDim|Product Description: AutoCAD Mechanical|Company: Autodesk, Inc.
 90
     1024
 91
        1
280
     0
281
     0
  0
CLASS
  1
ACAMGTITLESTD
  2
AcAmgTitleStd
  3
"AmgTitle|Product Description: AutoCAD Mechanical|Company: Autodesk, Inc."
 90
     4095
 91
        1
280
     0
281
     0
  0
CLASS
  1
LAYER_INDEX
  2
AcDbLayerIndex
  3
ObjectDBX Classes
 90
        0
 91
        0
280
     0
281
     0
  0
CLASS
  1
IDBUFFER
  2
AcDbIdBuffer
  3
ObjectDBX Classes
 90
        0
 91
        0
280
     0
281
     0
  0
CLASS
  1
DICTIONARYVAR
  2
AcDbDictionaryVar
  3
ObjectDBX Classes
 90
        0
 91
        9
280
     0
281
     0
  0
CLASS
  1
AM_DRAWING_MGR
  2
AcDmDwgMgr
  3
AcMechDwgViewMgmt
 90
     1024
 91
        1
280
     0
281
     0
  0
CLASS
  1
AM_DWG_DOCUMENT
  2
AcDmDwgDocument
  3
AcMechDwgViewMgmt
 90
     1024
 91
        1
280
     0
281
     0
  0
CLASS
  1
AM_DWG_SHEET
  2
AcDmSheet
  3
AcMechDwgViewMgmt
 90
     1024
 91
        2
280
     0
281
     0
  0
CLASS
  1
AM_VIEWDIMPARMAP
  2
AcDmViewDimParMap
  3
AcMechDwgViewMgmt
 90
     1024
 91
        2
280
     0
281
     0
  0
CLASS
  1
AM_DWGMGR_NAME
  2
AcDmDwgMgrName
  3
AcMechDwgViewMgmt
 90
     1024
 91
        1
280
     0
281
     0
  0
CLASS
  1
AMDTMENUSTATEMGR
  2
AmdtMenuStateMgr
  3
McadcomServices
 90
     1024
 91
        1
280
     0
281
     0
  0
CLASS
  1
AMDTMCOMMENUSTATE
  2
AmdtMcomMenuState
  3
McadcomServices
 90
     1024
 91
        1
280
     0
281
     0
  0
CLASS
  1
MAPIAMMOUDLE
  2
MApiAmModule
  3
MApiAmServices
 90
     1024
 91
        1
280
     0
281
     0
  0
CLASS
  1
AMDTADMENUSTATE
  2
AmdtAdMenuState
  3
DesignerServices
 90
     1024
 91
        1
280
     0
281
     0
  0
CLASS
  1
ADAPPL
  2
AcAdAppl
  3
DesignerServices
 90
     1024
 91
        1
280
     0
281
     0
  0
CLASS
  1
DEPMGR
  2
AcAdDepMgr
  3
DesignerServices
 90
     1024
 91
        1
280
     0
281
     0
  0
CLASS
  1
PARAMMGR
  2
AcAdParamMgr
  3
DesignerServices
 90
     1024
 91
        1
280
     0
281
     0
  0
CLASS
  1
PARAMSCOPE
  2
AcAdParamScope
  3
DesignerServices
 90
     1024
 91
        1
280
     0
281
     0
  0
CLASS
  1
NAMEDAPPL
  2
AcAdNamedAppl
  3
DesignerServices
 90
     1024
 91
        1
280
     0
281
     0
  0
CLASS
  1
AMDTDMMENUSTATE
  2
AmdtDmMenuState
  3
AcMechDwgViewMgmt
 90
     1024
 91
        1
280
     0
281
     0
  0
CLASS
  1
AMDTAMMENUSTATE
  2
AmdtAmMenuState
  3
DesignerAssemblies
 90
     1024
 91
        1
280
     0
281
     0
  0
CLASS
  1
ACAMPROJECT
  2
AcAmProject
  3
DesignerAssemblies
 90
     1024
 91
        1
280
     0
281
     0
  0
CLASS
  1
ACAMGRCOMPDEF
  2
AcAmGrCompDef
  3
DesignerAssemblies
 90
     1024
 91
        1
280
     0
281
     0
  0
CLASS
  1
ACCMCONTEXT
  2
AcCmContext
  3
DesignerAssemblies
 90
     1024
 91
        1
280
     0
281
     0
  0
CLASS
  1
ACAMCOMPDEF
  2
AcAmCompDef
  3
DesignerAssemblies
 90
     1024
 91
        1
280
     0
281
     0
  0
CLASS
  1
ACAMCOMPDEFMGR
  2
AcAmCompDefMgr
  3
DesignerAssemblies
 90
     1024
 91
        1
280
     0
281
     0
  0
CLASS
  1
AMCONTEXTMGR
  2
AcAmContextMgr
  3
DesignerAssemblies
 90
     1024
 91
        1
280
     0
281
     0
  0
CLASS
  1
ACAMCONTEXTMODELER
  2
AcAmContextModeler
  3
DesignerAssemblies
 90
     1024
 91
        1
280
     0
281
     0
  0
CLASS
  1
ACMTHREADLINESTANDARDANSI
  2
AmdtThreadLineStdANSI
  3
"Amdt_StdImp|Product Description: AutoCAD Mechanical|Company: Autodesk, Inc."
 90
     1024
 91
        1
280
     0
281
     0
  0
CLASS
  1
CATALOGSTATE
  2
AcAmCatalogState
  3
DesignerAssemblies
 90
     1024
 91
        1
280
     0
281
     0
  0
CLASS
  1
ACAMGRCOMPDEFSET
  2
AcAmGrCompDefSet
  3
DesignerAssemblies
 90
     1024
 91
        1
280
     0
281
     0
  0
CLASS
  1
AMDTBROWSERDBTAB
  2
AmdtBrowserDbTab
  3
McadcomServices
 90
     1024
 91
        1
280
     0
281
     0
  0
CLASS
  1
CBROWSERAPPOBJECT
  2
CBrowserAppObject
  3
McadcomServices
 90
     1024
 91
        3
280
     0
281
     0
  0
CLASS
  1
DM_PLACEHOLDER
  2
AcDmSelsetPlaceholder
  3
AcMechDwgViewMgmt
 90
     1024
 91
        1
280
     0
281
     0
  0
CLASS
  1
TABLESTYLE
  2
AcDbTableStyle
  3
ObjectDBX Classes
 90
     4095
 91
        1
280
     0
281
     0
  0
CLASS
  1
AMDTNOTETEMPLATEDB
  2
AmdtNoteTemplateDB
  3
AcmSymBB|Product Description: AutoCAD Mechanical|Company: Autodesk, Inc.
 90
     1024
 91
        6
280
     0
281
     0
  0
CLASS
  1
MATERIAL
  2
AcDbMaterial
  3
ObjectDBX Classes
 90
     1153
 91
        3
280
     0
281
     0
  0
CLASS
  1
VISUALSTYLE
  2
AcDbVisualStyle
  3
ObjectDBX Classes
 90
     4095
 91
       16
280
     0
281
     0
  0
CLASS
  1
ACRFATTGENMGR
  2
AcRfAttGeneralMgr
  3
AcAttribServices
 90
     1024
 91
        1
280
     0
281
     0
  0
CLASS
  1
ACRFOBJATTMGR
  2
AcRfObjAttGroupMgr
  3
AcAttribServices
 90
     1024
 91
        1
280
     0
281
     0
  0
CLASS
  1
ACRFMCADAPIATTHOLDER
  2
AcRfMCADAPIAttHolder
  3
AcAttribServices
 90
     1024
 91
        1
280
     0
281
     0
  0
CLASS
  1
AMDTSYSATTR
  2
AmdtSystemAttribute
  3
AcAttribServices
 90
     1024
 91
        1
280
     0
281
     0
  0
CLASS
  1
ACMTAPERSTANDARDANSI
  2
AcmTaperStdANSI
  3
"Amdt_StdImp|Product Description: AutoCAD Mechanical|Company: Autodesk, Inc."
 90
     1024
 91
        1
280
     0
281
     0
  0
CLASS
  1
CAMSSTRUCTBTNSTATE
  2
StructBtnState
  3
DesignerAssemblies
 90
     1024
 91
        1
280
     0
281
     0
  0
CLASS
  1
SCALE
  2
AcDbScale
  3
ObjectDBX Classes
 90
     1153
 91
       33
280
     0
281
     0
  0
CLASS
  1
MLEADERSTYLE
  2
AcDbMLeaderStyle
  3
ACDB_MLEADERSTYLE_CLASS
 90
     4095
 91
        1
280
     0
281
     0
  0
CLASS
  1
ACMANOOTATIONVIEWSTANDARDANSI
  2
AmdtAnViewStdANSI
  3
"Amdt_StdImp|Product Description: AutoCAD Mechanical|Company: Autodesk, Inc."
 90
     1024
 91
        1
280
     0
281
     0
  0
CLASS
  1
CELLSTYLEMAP
  2
AcDbCellStyleMap
  3
ObjectDBX Classes
 90
     1152
 91
        2
280
     0
281
     0
  0
CLASS
  1
EXACXREFPANELOBJECT
  2
ExAcXREFPanelObject
  3
EXAC_ESW
 90
     1025
 91
        1
280
     0
281
     0
  0
CLASS
  1
NPOCOLLECTION
  2
AcDbImpNonPersistentObjectsCollection
  3
ObjectDBX Classes
 90
     1153
 91
        1
280
     0
281
     0
  0
CLASS
  1
ACAMGFILTERDAT
  2
AcAmgFilterDat
  3
"AcadM|Product Description: AutoCAD Mechanical|Company: Autodesk, Inc."
 90
     1024
 91
        6
280
     0
281
     0
  0
ENDSEC
  0
SECTION
  2
TABLES
  0
TABLE
  2
VPORT
  5
8
330
0
100
AcDbSymbolTable
 70
     1
  0
VPORT
  5
291
330
8
100
AcDbSymbolTableRecord
100
AcDbViewportTableRecord
  2
*Active
 70
     0
 10
0.0
 20
0.0
 11
1.0
 21
1.0
 12
26.15932767590388
 22
22.55509656017129
 13
0.0
 23
0.0
 14
0.125
 24
0.125
 15
1.0
 25
1.0
 16
0.0
 26
0.0
 36
1.0
 17
0.0
 27
0.0
 37
0.0
 40
17.67954715626735
 41
1.439655172413793
 42
50.0
 43
0.0
 44
0.0
 50
0.0
 51
0.0
 71
     0
 72
   100
 73
     1
 74
     3
 75
     0
 76
     0
 77
     0
 78
     0
281
     0
 65
     1
110
0.0
120
0.0
130
0.0
111
1.0
121
0.0
131
0.0
112
0.0
122
1.0
132
0.0
 79
     0
146
0.0
348
29C
 60
     3
 61
     5
292
     1
282
     0
141
0.0
142
0.0
 63
   250
421
  3355443
  0
ENDTAB
  0
TABLE
  2
LTYPE
  5
5
330
0
100
AcDbSymbolTable
 70
    16
  0
LTYPE
  5
14
330
5
100
AcDbSymbolTableRecord
100
AcDbLinetypeTableRecord
  2
ByBlock
 70
     0
  3

 72
    65
 73
     0
 40
0.0
  0
LTYPE
  5
15
330
5
100
AcDbSymbolTableRecord
100
AcDbLinetypeTableRecord
  2
ByLayer
 70
     0
  3

 72
    65
 73
     0
 40
0.0
  0
LTYPE
  5
16
330
5
100
AcDbSymbolTableRecord
100
AcDbLinetypeTableRecord
  2
Continuous
 70
     0
  3
Solid line
 72
    65
 73
     0
 40
0.0
  0
LTYPE
  5
6C
330
5
100
AcDbSymbolTableRecord
100
AcDbLinetypeTableRecord
  2
AM_ISO02W050
 70
     0
  3
__ __ __ __ __ __ __ __ __ __ __ __ __ __ __
 72
    65
 73
     2
 40
7.5
 49
6.0
 74
     0
 49
-1.5
 74
     0
  0
LTYPE
  5
6D
330
5
100
AcDbSymbolTableRecord
100
AcDbLinetypeTableRecord
  2
AM_ISO08W050
 70
     0
  3
____ . ____ . ____ . ____ . ____ . ____ . ____
 72
    65
 73
     4
 40
18.0
 49
12.0
 74
     0
 49
-1.5
 74
     0
 49
3.0
 74
     0
 49
-1.5
 74
     0
  0
LTYPE
  5
6E
330
5
100
AcDbSymbolTableRecord
100
AcDbLinetypeTableRecord
  2
AM_ISO09W050
 70
     0
  3
_____ . . _____ . . _____ . . ____ .. ____
 72
    65
 73
     6
 40
22.5
 49
12.0
 74
     0
 49
-1.5
 74
     0
 49
3.0
 74
     0
 49
-1.5
 74
     0
 49
3.0
 74
     0
 49
-1.5
 74
     0
  0
LTYPE
  5
6F
330
5
100
AcDbSymbolTableRecord
100
AcDbLinetypeTableRecord
  2
Amconstr
 70
     0
  3
_______________________
 72
    65
 73
     2
 40
9999.0
 49
9999.0
 74
     0
 49
0.0
 74
     0
  0
LTYPE
  5
70
330
5
100
AcDbSymbolTableRecord
100
AcDbLinetypeTableRecord
  2
AM_ISO08W050x2
 70
     0
  3
__ . __ . __ . __ . __ . __
 72
    65
 73
     4
 40
9.0
 49
6.0
 74
     0
 49
-0.75
 74
     0
 49
1.5
 74
     0
 49
-0.75
 74
     0
  0
LTYPE
  5
71
330
5
100
AcDbSymbolTableRecord
100
AcDbLinetypeTableRecord
  2
AM_ISO02W050x2
 70
     0
  3
 _ _ _ _ _ _ _ _ _ _ _ _
 72
    65
 73
     2
 40
3.75
 49
3.0
 74
     0
 49
-0.75
 74
     0
  0
LTYPE
  5
74
330
5
100
AcDbSymbolTableRecord
100
AcDbLinetypeTableRecord
  2
Amzigzag
 70
     0
  3
/\/-/\/-/\/-/\/-/\/-/\/
 72
    65
 73
     2
 40
11.0001
 49
0.0001
 74
     4
 75
   136
340
254
 46
0.04
 50
0.0
 44
0.0
 45
0.0
 49
-11.0
 74
     0
  0
LTYPE
  5
75
330
5
100
AcDbSymbolTableRecord
100
AcDbLinetypeTableRecord
  2
HIDDEN
 70
     0
  3
Hidden __ __ __ __ __ __ __ __ __ __ __ __ __ _
 72
    65
 73
     2
 40
0.375
 49
0.25
 74
     0
 49
-0.125
 74
     0
  0
LTYPE
  5
76
330
5
100
AcDbSymbolTableRecord
100
AcDbLinetypeTableRecord
  2
CENTER
 70
     0
  3
Center ____ _ ____ _ ____ _ ____ _ ____ _ ____
 72
    65
 73
     4
 40
2.0
 49
1.25
 74
     0
 49
-0.25
 74
     0
 49
0.25
 74
     0
 49
-0.25
 74
     0
  0
LTYPE
  5
77
330
5
100
AcDbSymbolTableRecord
100
AcDbLinetypeTableRecord
  2
PHANTOM2
 70
     0
  3
Phantom (.5x) ___ _ _ ___ _ _ ___ _ _ ___ _ _
 72
    65
 73
     6
 40
1.25
 49
0.625
 74
     0
 49
-0.125
 74
     0
 49
0.125
 74
     0
 49
-0.125
 74
     0
 49
0.125
 74
     0
 49
-0.125
 74
     0
  0
LTYPE
  5
78
330
5
100
AcDbSymbolTableRecord
100
AcDbLinetypeTableRecord
  2
CENTER2
 70
     0
  3
Center (.5x) ___ _ ___ _ ___ _ ___ _ ___ _ ___
 72
    65
 73
     4
 40
1.125
 49
0.75
 74
     0
 49
-0.125
 74
     0
 49
0.125
 74
     0
 49
-0.125
 74
     0
  0
LTYPE
  5
79
330
5
100
AcDbSymbolTableRecord
100
AcDbLinetypeTableRecord
  2
HIDDEN2
 70
     0
  3
Hidden (.5x) _ _ _ _ _ _ _ _ _ _ _ _ _ _ _ _ _
 72
    65
 73
     2
 40
0.1875
 49
0.125
 74
     0
 49
-0.0625
 74
     0
  0
LTYPE
  5
7A
330
5
100
AcDbSymbolTableRecord
100
AcDbLinetypeTableRecord
  2
Amzigzag2
 70
     0
  3
/\/-/\/-/\/-/\/-/\/-/\/
 72
    65
 73
     2
 40
0.4401
 49
0.0001
 74
     4
 75
   136
340
254
 46
0.0016
 50
0.0
 44
0.0
 45
0.0
 49
-0.4400000000000001
 74
     0
  0
LTYPE
  5
87
330
5
100
AcDbSymbolTableRecord
100
AcDbLinetypeTableRecord
  2
ACANSTGB
 70
     0
  3
__ . . __ . .
 72
    65
 73
     6
 40
0.35433070866
 49
0.15748031496
 74
     0
 49
-0.03937007874
 74
     0
 49
0.03937007874
 74
     0
 49
-0.03937007874
 74
     0
 49
0.03937007874
 74
     0
 49
-0.03937007874
 74
     0
  0
LTYPE
  5
88
330
5
100
AcDbSymbolTableRecord
100
AcDbLinetypeTableRecord
  2
ACANSTGL
 70
     0
  3
_ _ _ _ _
 72
    65
 73
     2
 40
0.11811023622
 49
0.07874015748
 74
     0
 49
-0.03937007874
 74
     0
  0
ENDTAB
  0
TABLE
  2
LAYER
  5
2
330
0
100
AcDbSymbolTable
 70
     5
  0
LAYER
  5
10
102
{ACAD_XDICTIONARY
360
49B
102
}
330
2
100
AcDbSymbolTableRecord
100
AcDbLayerTableRecord
  2
0
 70
     0
 62
     7
  6
Continuous
370
    -3
390
F
347
295
  0
LAYER
  5
3AE
102
{ACAD_XDICTIONARY
360
49D
102
}
330
2
100
AcDbSymbolTableRecord
100
AcDbLayerTableRecord
  2
_SURFACE
 70
     0
 62
     7
  6
Continuous
370
    -3
390
F
347
295
  0
LAYER
  5
3AF
102
{ACAD_XDICTIONARY
360
49F
102
}
330
2
100
AcDbSymbolTableRecord
100
AcDbLayerTableRecord
  2
___NOTE
 70
     0
 62
     7
  6
Continuous
370
    -3
390
F
347
295
  0
LAYER
  5
3B0
102
{ACAD_XDICTIONARY
360
4A1
102
}
330
2
100
AcDbSymbolTableRecord
100
AcDbLayerTableRecord
  2
___SYMBOL
 70
     0
 62
     7
  6
Continuous
370
    -3
390
F
347
295
  0
LAYER
  5
48D
330
2
100
AcDbSymbolTableRecord
100
AcDbLayerTableRecord
  2
Defpoints
 70
     0
 62
     7
  6
Continuous
290
     0
370
    -3
390
F
347
295
  0
ENDTAB
  0
TABLE
  2
STYLE
  5
3
330
0
100
AcDbSymbolTable
 70
     9
  0
STYLE
  5
11
330
3
100
AcDbSymbolTableRecord
100
AcDbTextStyleTableRecord
  2
STANDARD
 70
     0
 40
0.0
 41
1.0
 50
0.0
 71
     0
 42
0.2
  3
ROMANS.SHX
  4

  0
STYLE
  5
73
330
3
100
AcDbSymbolTableRecord
100
AcDbTextStyleTableRecord
  2

 70
     1
 40
0.0
 41
1.0
 50
0.0
 71
     0
 42
0.2
  3
ltypeshp.shx
  4

  0
STYLE
  5
7B
330
3
100
AcDbSymbolTableRecord
100
AcDbTextStyleTableRecord
  2
ACANSTS
 70
     0
 40
1.0
 41
1.0
 50
0.0
 71
     0
 42
0.2
  3
romans.shx
  4

  0
STYLE
  5
86
330
3
100
AcDbSymbolTableRecord
100
AcDbTextStyleTableRecord
  2
ACANSGDT
 70
     0
 40
0.0
 41
1.0
 50
0.0
 71
     0
 42
0.2
  3
amgdt.shx
  4

  0
STYLE
  5
13F
330
3
100
AcDbSymbolTableRecord
100
AcDbTextStyleTableRecord
  2
USER1
 70
     0
 40
0.0
 41
1.0
 50
0.0
 71
     0
 42
0.2
  3
TXT.SHX
  4

  0
STYLE
  5
140
330
3
100
AcDbSymbolTableRecord
100
AcDbTextStyleTableRecord
  2
USER2
 70
     0
 40
0.0
 41
1.0
 50
0.0
 71
     0
 42
0.2
  3
SIMPLEX.SHX
  4

  0
STYLE
  5
141
330
3
100
AcDbSymbolTableRecord
100
AcDbTextStyleTableRecord
  2
USER3
 70
     0
 40
0.0
 41
1.0
 50
0.0
 71
     0
 42
0.2
  3
ITALIC.SHX
  4

  0
STYLE
  5
254
330
3
100
AcDbSymbolTableRecord
100
AcDbTextStyleTableRecord
  2

 70
     1
 40
0.0
 41
1.0
 50
0.0
 71
     0
 42
0.2
  3
genltshp.shx
  4

  0
STYLE
  5
3B1
330
3
100
AcDbSymbolTableRecord
100
AcDbTextStyleTableRecord
  2
TEXTSTYLE_1
 70
     0
 40
0.0
 41
0.8
 50
0.0
 71
     0
 42
0.2
  3
gdt
  4

  0
ENDTAB
  0
TABLE
  2
VIEW
  5
6
330
0
100
AcDbSymbolTable
 70
     0
  0
ENDTAB
  0
TABLE
  2
UCS
  5
7
330
0
100
AcDbSymbolTable
 70
     0
  0
ENDTAB
  0
TABLE
  2
APPID
  5
9
330
0
100
AcDbSymbolTable
 70
    11
  0
APPID
  5
12
330
9
100
AcDbSymbolTableRecord
100
AcDbRegAppTableRecord
  2
ACAD
 70
     0
  0
APPID
  5
4E
330
9
100
AcDbSymbolTableRecord
100
AcDbRegAppTableRecord
  2
MCAD_NO_VIS
 70
     0
  0
APPID
  5
4F
330
9
100
AcDbSymbolTableRecord
100
AcDbRegAppTableRecord
  2
ACAD_TEMP_GRAPHIC
 70
     0
  0
APPID
  5
60
330
9
100
AcDbSymbolTableRecord
100
AcDbRegAppTableRecord
  2
ACATTRIBSERVICES
 70
     0
  0
APPID
  5
F7
330
9
100
AcDbSymbolTableRecord
100
AcDbRegAppTableRecord
  2
AD_DRAW
 70
     0
  0
APPID
  5
115
330
9
100
AcDbSymbolTableRecord
100
AcDbRegAppTableRecord
  2
DESIGNERASSEMBLIES
 70
     0
  0
APPID
  5
11A
330
9
100
AcDbSymbolTableRecord
100
AcDbRegAppTableRecord
  2
ACADM_DIM_EDIT
 70
     0
  0
APPID
  5
11B
330
9
100
AcDbSymbolTableRecord
100
AcDbRegAppTableRecord
  2
AMDT_DM_ADJ
 70
     0
  0
APPID
  5
1D3
330
9
100
AcDbSymbolTableRecord
100
AcDbRegAppTableRecord
  2
ACAD_DSTYLE_DIMARC_LENGTH_SYMBOL
 70
     0
  0
APPID
  5
1D4
330
9
100
AcDbSymbolTableRecord
100
AcDbRegAppTableRecord
  2
ACAD_DSTYLE_DIMJOGGED_JOGANGLE_SYMBOL
 70
     0
  0
APPID
  5
2EE
330
9
100
AcDbSymbolTableRecord
100
AcDbRegAppTableRecord
  2
ACAD_MLEADERVER
 70
     0
  0
ENDTAB
  0
TABLE
  2
DIMSTYLE
  5
A
330
0
100
AcDbSymbolTable
 70
     8
100
AcDbDimStyleTable
 71
     1
340
8C
  0
DIMSTYLE
105
27
330
A
100
AcDbSymbolTableRecord
100
AcDbDimStyleTableRecord
  2
Standard
 70
     0
340
11
  0
DIMSTYLE
105
8C
102
{ACAD_REACTORS
330
6A
102
}
330
A
100
AcDbSymbolTableRecord
100
AcDbDimStyleTableRecord
  2
AM_ANSI
 70
     0
  4
mm
 41
0.12
 42
0.05
 43
0.5
 44
0.1
 47
0.1
 48
0.1
 78
     7
 79
     2
 90
     1
140
0.12
141
0.0
146
0.71
147
0.06
176
   256
177
   256
178
   140
274
     4
284
     7
340
11
345
14
346
14
347
14
371
    -1
372
    -1
1001
ACAD_DSTYLE_DIMJOGGED_JOGANGLE_SYMBOL
1070
   384
1040
0.7853981633974483
  0
DIMSTYLE
105
8D
330
A
100
AcDbSymbolTableRecord
100
AcDbDimStyleTableRecord
  2
AM_ANSI$3
 70
     0
  4
mm
 41
0.12
 42
0.05
 43
0.5
 44
0.1
 47
0.1
 48
0.1
 78
     7
 79
     2
 90
     1
140
0.12
141
0.0
146
0.71
147
0.06
176
   256
177
   256
178
   140
274
     4
284
     7
288
     1
289
     0
340
11
345
14
346
14
347
14
371
    -1
372
    -1
1001
ACAD_DSTYLE_DIMJOGGED_JOGANGLE_SYMBOL
1070
   384
1040
0.7853981633974483
  0
DIMSTYLE
105
8E
330
A
100
AcDbSymbolTableRecord
100
AcDbDimStyleTableRecord
  2
AM_ANSI$4
 70
     0
  4
mm
 41
0.12
 42
0.05
 43
0.5
 44
0.1
 47
0.1
 48
0.1
 78
     7
 79
     2
 90
     1
140
0.12
141
0.0
146
0.71
147
0.06
176
   256
177
   256
178
   140
274
     4
284
     7
340
11
345
14
346
14
347
14
371
    -1
372
    -1
1001
ACAD_DSTYLE_DIMJOGGED_JOGANGLE_SYMBOL
1070
   384
1040
0.7853981633974483
  0
DIMSTYLE
105
8F
330
A
100
AcDbSymbolTableRecord
100
AcDbDimStyleTableRecord
  2
AM_ANSI$7
 70
     0
  4
mm
 41
0.12
 42
0.05
 43
0.5
 44
0.1
 47
0.1
 48
0.1
 78
     7
 79
     2
 90
     1
140
0.12
141
0.0
146
0.71
147
0.06
176
   256
177
   256
178
   140
274
     4
284
     7
340
11
345
14
346
14
347
14
371
    -1
372
    -1
1001
ACAD_DSTYLE_DIMJOGGED_JOGANGLE_SYMBOL
1070
   384
1040
0.7853981633974483
  0
DIMSTYLE
105
90
330
A
100
AcDbSymbolTableRecord
100
AcDbDimStyleTableRecord
  2
AM_ANSI$SF
 70
     0
  4
mm
 41
0.12
 42
0.05
 43
0.5
 44
0.1
 47
0.1
 48
0.1
 75
     1
 76
     1
 78
     7
 79
     2
 90
     1
140
0.12
141
0.0
146
0.71
147
0.06
176
   256
177
   256
178
   140
274
     4
284
     7
340
11
345
14
346
14
347
14
371
    -1
372
    -1
1001
ACAD_DSTYLE_DIMJOGGED_JOGANGLE_SYMBOL
1070
   384
1040
0.7853981633974483
  0
DIMSTYLE
105
95
330
A
100
AcDbSymbolTableRecord
100
AcDbDimStyleTableRecord
  2
AM_ANSI$SH
 70
     0
  4
mm
 41
0.12
 42
0.05
 43
0.5
 44
0.1
 47
0.1
 48
0.1
 75
     1
 76
     1
 78
     7
 79
     2
 90
     1
140
0.12
141
0.0
146
0.71
147
0.06
173
     1
176
   256
177
   256
178
   140
274
     4
284
     7
340
11
343
91
345
14
346
14
347
14
371
    -1
372
    -1
1001
ACAD_DSTYLE_DIMJOGGED_JOGANGLE_SYMBOL
1070
   384
1040
0.7853981633974483
  0
DIMSTYLE
105
3B2
102
{ACAD_REACTORS
330
3B4
102
}
330
A
100
AcDbSymbolTableRecord
100
AcDbDimStyleTableRecord
  2
DIMSTYLE_1
 70
     0
 41
0.1875
 47
5.0
 48
5.0
 71
     1
 78
     4
140
0.15625
144
3.333333333299999
271
     3
272
     3
284
     4
340
11
341
38C
342
38C
343
38C
344
38C
  0
ENDTAB
  0
TABLE
  2
BLOCK_RECORD
  5
1
330
0
100
AcDbSymbolTable
 70
     9
  0
BLOCK_RECORD
  5
1F
102
{ACAD_XDICTIONARY
360
99
102
}
330
1
100
AcDbSymbolTableRecord
100
AcDbBlockTableRecord
  2
*Model_Space
340
22
 70
     0
280
     1
281
     0
  0
BLOCK_RECORD
  5
1B
330
1
100
AcDbSymbolTableRecord
100
AcDbBlockTableRecord
  2
*Paper_Space
340
1E
 70
     0
280
     1
281
     0
  0
BLOCK_RECORD
  5
23
330
1
100
AcDbSymbolTableRecord
100
AcDbBlockTableRecord
  2
*Paper_Space0
340
26
 70
     0
280
     1
281
     0
  0
BLOCK_RECORD
  5
91
330
1
100
AcDbSymbolTableRecord
100
AcDbBlockTableRecord
  2
GENAXEH
340
0
 70
     0
280
     1
281
     0
  0
BLOCK_RECORD
  5
38C
330
1
100
AcDbSymbolTableRecord
100
AcDbBlockTableRecord
  2
_FILLED
340
0
102
{BLKREFS
331
399
331
39A
331
495
331
496
102
}
 70
     0
280
     1
281
     0
  0
BLOCK_RECORD
  5
390
330
1
100
AcDbSymbolTableRecord
100
AcDbBlockTableRecord
  2
*D4
340
0
 70
     0
280
     1
281
     0
  0
BLOCK_RECORD
  5
39C
330
1
100
AcDbSymbolTableRecord
100
AcDbBlockTableRecord
  2
CHARACTERISTIC_BL9
340
0
102
{BLKREFS
331
3B7
102
}
 70
     0
280
     1
281
     0
  0
BLOCK_RECORD
  5
3A5
330
1
100
AcDbSymbolTableRecord
100
AcDbBlockTableRecord
  2
CHARACTERISTIC_BL4
340
0
102
{BLKREFS
331
3B6
102
}
 70
     0
280
     1
281
     0
  0
BLOCK_RECORD
  5
48E
330
1
100
AcDbSymbolTableRecord
100
AcDbBlockTableRecord
  2
*D8
340
0
 70
     0
280
     1
281
     0
  0
ENDTAB
  0
ENDSEC
  0
SECTION
  2
BLOCKS
  0
BLOCK
  5
20
330
1F
100
AcDbEntity
  8
0
100
AcDbBlockBegin
  2
*Model_Space
 70
     0
 10
0.0
 20
0.0
 30
0.0
  3
*Model_Space
  1

  0
ENDBLK
  5
21
330
1F
100
AcDbEntity
  8
0
100
AcDbBlockEnd
  0
BLOCK
  5
1C
330
1B
100
AcDbEntity
 67
     1
  8
0
100
AcDbBlockBegin
  2
*Paper_Space
 70
     0
 10
0.0
 20
0.0
 30
0.0
  3
*Paper_Space
  1

  0
ENDBLK
  5
1D
330
1B
100
AcDbEntity
 67
     1
  8
0
100
AcDbBlockEnd
  0
BLOCK
  5
24
330
23
100
AcDbEntity
 67
     1
  8
0
100
AcDbBlockBegin
  2
*Paper_Space0
 70
     0
 10
0.0
 20
0.0
 30
0.0
  3
*Paper_Space0
  1

  0
ENDBLK
  5
25
330
23
100
AcDbEntity
 67
     1
  8
0
100
AcDbBlockEnd
  0
BLOCK
  5
93
330
91
100
AcDbEntity
  8
0
100
AcDbBlockBegin
  2
GENAXEH
 70
     0
 10
0.0
 20
0.0
 30
0.0
  3
GENAXEH
  1

  0
LINE
  5
92
330
91
100
AcDbEntity
  8
0
100
AcDbLine
 10
-1.0
 20
0.0
 30
0.0
 11
1.0
 21
0.0
 31
0.0
  0
ENDBLK
  5
94
330
91
100
AcDbEntity
  8
0
100
AcDbBlockEnd
  0
BLOCK
  5
38D
330
38C
100
AcDbEntity
  8
0
100
AcDbBlockBegin
  2
_FILLED
 70
     0
 10
0.0
 20
0.0
 30
0.0
  3
_FILLED
  1

  0
SOLID
  5
38E
330
38C
100
AcDbEntity
  8
0
  6
ByBlock
 62
     0
100
AcDbTrace
 10
0.0
 20
0.0
 30
0.0
 11
-1.0
 21
0.1666666667
 31
0.0
 12
-1.0
 22
-0.1666666667
 32
0.0
 13
-1.0
 23
-0.1666666667
 33
0.0
  0
ENDBLK
  5
38F
330
38C
100
AcDbEntity
  8
0
  6
ByBlock
 62
     0
100
AcDbBlockEnd
  0
BLOCK
  5
391
330
390
100
AcDbEntity
  8
0
  6
Continuous
 62
     2
100
AcDbBlockBegin
  2
*D4
 70
     1
 10
0.0
 20
0.0
 30
0.0
  3
*D4
  1

  0
TEXT
  5
392
330
390
100
AcDbEntity
  8
0
  6
Continuous
 62
     2
100
AcDbText
 10
15.40049366077619
 20
16.4051222007
 30
0.0
 40
0.15625
  1
1700
 41
0.8
 72
     1
 11
15.6475174703
 21
16.4051222007
 31
0.0
100
AcDbText
  0
TEXT
  5
393
330
390
100
AcDbEntity
  8
0
  6
Continuous
 62
     2
100
AcDbText
 10
15.92169901798571
 20
16.4051222007
 30
0.0
 40
0.15625
  1
`
  7
TEXTSTYLE_1
 72
     1
 11
15.9886633037
 21
16.4051222007
 31
0.0
100
AcDbText
  0
TEXT
  5
394
330
390
100
AcDbEntity
  8
0
  6
Continuous
 62
     2
100
AcDbText
 10
16.08278532747619
 20
16.4051222007
 30
0.0
 40
0.15625
  1
5
 41
0.8
 72
     1
 11
16.142309137
 21
16.4051222007
 31
0.0
100
AcDbText
  0
LINE
  5
395
330
390
100
AcDbEntity
  8
0
  6
Continuous
 62
     2
100
AcDbLine
 10
5.761793224899999
 20
14.7414171137
 30
0.0
 11
5.761793224899999
 21
16.6082472007
 31
0.0
  0
LINE
  5
396
330
390
100
AcDbEntity
  8
0
  6
Continuous
 62
     2
100
AcDbLine
 10
25.8405333824
 20
14.7414171137
 30
0.0
 11
25.8405333824
 21
16.6082472007
 31
0.0
  0
LINE
  5
397
330
390
100
AcDbEntity
  8
0
  6
Continuous
 62
     2
100
AcDbLine
 10
5.761793224899999
 20
16.4832472007
 30
0.0
 11
15.3193924703
 21
16.4832472007
 31
0.0
  0
LINE
  5
398
330
390
100
AcDbEntity
  8
0
  6
Continuous
 62
     2
100
AcDbLine
 10
25.8405333824
 20
16.4832472007
 30
0.0
 11
16.282934137
 21
16.4832472007
 31
0.0
  0
INSERT
  5
399
330
390
100
AcDbEntity
  8
0
  6
Continuous
 62
     2
100
AcDbBlockReference
  2
_FILLED
 10
5.761793224899999
 20
16.4832472007
 30
0.0
 41
0.1875
 42
0.1875
 43
0.1875
 50
180.0
  0
INSERT
  5
39A
330
390
100
AcDbEntity
  8
0
  6
Continuous
 62
     2
100
AcDbBlockReference
  2
_FILLED
 10
25.8405333824
 20
16.4832472007
 30
0.0
 41
0.1875
 42
0.1875
 43
0.1875
  0
ENDBLK
  5
39B
330
390
100
AcDbEntity
  8
0
  6
ByBlock
 62
     0
100
AcDbBlockEnd
  0
BLOCK
  5
39D
330
39C
100
AcDbEntity
  8
___SYMBOL
  6
Continuous
 62
     2
100
AcDbBlockBegin
  2
CHARACTERISTIC_BL9
 70
     0
 10
19.4848575716
 20
12.6894340172
 30
0.0
  3
CHARACTERISTIC_BL9
  1

  0
LINE
  5
39E
330
39C
100
AcDbEntity
  8
___SYMBOL
  6
Continuous
 62
     7
100
AcDbLine
 10
19.3498574859
 20
12.9594341885
 30
0.0
 11
19.3498574859
 21
12.419433846
 31
0.0
  0
LINE
  5
39F
330
39C
100
AcDbEntity
  8
___SYMBOL
  6
Continuous
 62
     7
100
AcDbLine
 10
19.3498574859
 20
12.419433846
 30
0.0
 11
19.6198576572
 21
12.419433846
 31
0.0
  0
LINE
  5
3A0
330
39C
100
AcDbEntity
  8
___SYMBOL
  6
Continuous
 62
     7
100
AcDbLine
 10
19.3498574859
 20
12.6894340172
 30
0.0
 11
19.6198576572
 21
12.6894340172
 31
0.0
  0
LINE
  5
3A1
330
39C
100
AcDbEntity
  8
___SYMBOL
  6
Continuous
 62
     7
100
AcDbLine
 10
19.3498574859
 20
12.9594341885
 30
0.0
 11
19.6198576572
 21
12.9594341885
 31
0.0
  0
LINE
  5
3A2
330
39C
100
AcDbEntity
  8
___SYMBOL
  6
Continuous
 62
     7
100
AcDbLine
 10
19.6198576572
 20
12.419433846
 30
0.0
 11
19.6198576572
 21
12.9594341885
 31
0.0
  0
MTEXT
  5
3A3
330
39C
100
AcDbEntity
  8
___SYMBOL
  6
Continuous
 62
     2
100
AcDbMText
 10
19.4195522365
 20
12.9068376301
 30
0.0
 40
0.15625
 41
0.125
 46
0.0
 71
     1
 72
     1
  1
6
 73
     1
 44
0.9
  0
ENDBLK
  5
3A4
330
39C
100
AcDbEntity
  8
0
  6
ByBlock
 62
     0
100
AcDbBlockEnd
  0
BLOCK
  5
3A6
330
3A5
100
AcDbEntity
  8
___SYMBOL
  6
Continuous
 62
     2
100
AcDbBlockBegin
  2
CHARACTERISTIC_BL4
 70
     0
 10
16.3486435253
 20
16.0924764158
 30
0.0
  3
CHARACTERISTIC_BL4
  1

  0
LINE
  5
3A7
330
3A5
100
AcDbEntity
  8
___SYMBOL
  6
Continuous
 62
     7
100
AcDbLine
 10
16.2136434397
 20
16.362476587
 30
0.0
 11
16.2136434397
 21
15.8224762445
 31
0.0
  0
LINE
  5
3A8
330
3A5
100
AcDbEntity
  8
___SYMBOL
  6
Continuous
 62
     7
100
AcDbLine
 10
16.2136434397
 20
15.8224762445
 30
0.0
 11
16.483643611
 21
15.8224762445
 31
0.0
  0
LINE
  5
3A9
330
3A5
100
AcDbEntity
  8
___SYMBOL
  6
Continuous
 62
     7
100
AcDbLine
 10
16.2136434397
 20
16.0924764158
 30
0.0
 11
16.483643611
 21
16.0924764158
 31
0.0
  0
LINE
  5
3AA
330
3A5
100
AcDbEntity
  8
___SYMBOL
  6
Continuous
 62
     7
100
AcDbLine
 10
16.2136434397
 20
16.362476587
 30
0.0
 11
16.483643611
 21
16.362476587
 31
0.0
  0
LINE
  5
3AB
330
3A5
100
AcDbEntity
  8
___SYMBOL
  6
Continuous
 62
     7
100
AcDbLine
 10
16.483643611
 20
15.8224762445
 30
0.0
 11
16.483643611
 21
16.362476587
 31
0.0
  0
MTEXT
  5
3AC
330
3A5
100
AcDbEntity
  8
___SYMBOL
  6
Continuous
 62
     2
100
AcDbMText
 10
16.2833381903
 20
16.3098800286
 30
0.0
 40
0.15625
 41
0.125
 46
0.0
 71
     1
 72
     1
  1
1
 73
     1
 44
0.9
  0
ENDBLK
  5
3AD
330
3A5
100
AcDbEntity
  8
0
  6
ByBlock
 62
     0
100
AcDbBlockEnd
  0
BLOCK
  5
48F
330
48E
100
AcDbEntity
  8
0
100
AcDbBlockBegin
  2
*D8
 70
     1
 10
0.0
 20
0.0
 30
0.0
  3
*D8
  1

  0
LINE
  5
491
330
48E
100
AcDbEntity
  8
0
  6
Continuous
 62
     0
370
    -2
100
AcDbLine
 10
17.55312167307452
 20
25.83666221993713
 30
0.0
 11
17.55312167307452
 21
27.69599230693713
 31
0.0
  0
LINE
  5
492
330
48E
100
AcDbEntity
  8
0
  6
Continuous
 62
     0
370
    -2
100
AcDbLine
 10
37.63186183057452
 20
25.83666221993713
 30
0.0
 11
37.63186183057452
 21
27.69599230693713
 31
0.0
  0
LINE
  5
493
330
48E
100
AcDbEntity
  8
0
  6
Continuous
 62
     0
370
    -2
100
AcDbLine
 10
17.74062167307452
 20
27.51599230693713
 30
0.0
 11
26.53150960901739
 21
27.51599230693713
 31
0.0
  0
LINE
  5
494
330
48E
100
AcDbEntity
  8
0
  6
Continuous
 62
     0
370
    -2
100
AcDbLine
 10
37.44436183057452
 20
27.51599230693713
 30
0.0
 11
28.34097389473167
 21
27.51599230693713
 31
0.0
  0
INSERT
  5
495
330
48E
100
AcDbEntity
  8
0
  6
Continuous
 62
     0
370
    -2
100
AcDbBlockReference
  2
_FILLED
 10
17.55312167307452
 20
27.51599230693713
 30
0.0
 41
0.1875
 42
0.1875
 43
0.1875
 50
180.0
  0
INSERT
  5
496
330
48E
100
AcDbEntity
  8
0
  6
Continuous
 62
     0
370
    -2
100
AcDbBlockReference
  2
_FILLED
 10
37.63186183057452
 20
27.51599230693713
 30
0.0
 41
0.1875
 42
0.1875
 43
0.1875
  0
MTEXT
  5
497
330
48E
100
AcDbEntity
  8
0
  6
Continuous
 62
     0
100
AcDbMText
 10
27.43624175187453
 20
27.59411730693713
 30
0.0
 40
0.15625
 41
0.0
 46
0.0
 71
     2
 72
     1
  1
\A1;66.929±5.000
 73
     1
 44
1.0
  0
POINT
  5
498
330
48E
100
AcDbEntity
  8
Defpoints
  6
Continuous
 62
     0
100
AcDbPoint
 10
17.55312167307452
 20
25.77416221993713
 30
0.0
  0
POINT
  5
499
330
48E
100
AcDbEntity
  8
Defpoints
  6
Continuous
 62
     0
100
AcDbPoint
 10
37.63186183057452
 20
25.77416221993713
 30
0.0
  0
POINT
  5
49A
330
48E
100
AcDbEntity
  8
Defpoints
  6
Continuous
 62
     0
100
AcDbPoint
 10
37.63186183057452
 20
27.51599230693713
 30
0.0
  0
ENDBLK
  5
490
330
48E
100
AcDbEntity
  8
0
100
AcDbBlockEnd
  0
ENDSEC
  0
SECTION
  2
ENTITIES
  0
LINE
  5
42A
330
1F
100
AcDbEntity
  8
0
  6
Continuous
 62
     7
100
AcDbLine
 10
17.55312167307452
 20
25.71164613843713
 30
0.0
 11
17.57056606397452
 21
26.21118813483713
 31
0.0
  0
LWPOLYLINE
  5
42B
330
1F
100
AcDbEntity
  8
_SURFACE
  6
Continuous
 62
     7
100
AcDbPolyline
 90
       15
 70
     0
 43
0.0
 10
17.12129200647452
 20
21.54162829063713
 10
17.12092147807452
 20
21.53768590523713
 10
17.12044425207452
 20
21.51940988363713
 10
17.12201694047452
 20
21.50085393823713
 10
17.12574177837452
 20
21.48230542943713
 10
17.13178219567452
 20
21.46385386633713
 10
17.14011364287452
 20
21.44587264393713
 10
17.15060824007452
 20
21.42883492213713
 10
17.16325207437452
 20
21.41305161323713
 10
17.17780658737452
 20
21.39891263593713
 10
17.19391761417452
 20
21.38665168773713
 10
17.21140913187452
 20
21.37642105333713
 10
17.22996241367452
 20
21.36847578643713
 10
17.24907810657452
 20
21.36290796893713
 10
17.26827874067452
 20
21.35970816823713
  0
LINE
  5
42C
330
1F
100
AcDbEntity
  8
_SURFACE
  6
Continuous
 62
     7
100
AcDbLine
 10
17.56499936987452
 20
25.71164613843713
 30
0.0
 11
17.12129218497452
 21
21.54162997033713
 31
0.0
  0
LINE
  5
42D
330
1F
100
AcDbEntity
  8
0
  6
Continuous
 62
     7
100
AcDbLine
 10
21.98200102887453
 20
25.71164613843713
 30
0.0
 11
20.96870699037452
 21
21.11712772563713
 31
0.0
  0
LINE
  5
42E
330
1F
100
AcDbEntity
  8
0
  6
Continuous
 62
     7
100
AcDbLine
 10
21.98225553137453
 20
26.21200155953713
 30
0.0
 11
21.98225774707453
 21
26.30319215823713
 31
0.0
  0
LINE
  5
42F
330
1F
100
AcDbEntity
  8
0
  6
Continuous
 62
     7
100
AcDbLine
 10
21.98225553137453
 20
25.71164613843713
 30
0.0
 11
21.98226662627452
 21
26.21200156513713
 31
0.0
  0
LINE
  5
430
330
1F
100
AcDbEntity
  8
0
  6
Continuous
 62
     7
100
AcDbLine
 10
21.98594741767452
 20
26.21200152203713
 30
0.0
 11
21.98594741767452
 21
26.30319212073713
 31
0.0
  0
LINE
  5
431
330
1F
100
AcDbEntity
  8
0
  6
Continuous
 62
     7
100
AcDbLine
 10
35.15341861327453
 20
19.09747291023713
 30
0.0
 11
35.15502554827452
 21
19.09747295063713
 31
0.0
  0
LINE
  5
432
330
1F
100
AcDbEntity
  8
0
  6
Continuous
 62
     7
100
AcDbLine
 10
18.29226176257452
 20
19.09747291013713
 30
0.0
 11
35.15490573097453
 21
19.09747291013713
 31
0.0
  0
LINE
  5
433
330
1F
100
AcDbEntity
  8
0
  6
Continuous
 62
     7
100
AcDbLine
 10
30.68407031847453
 20
19.09747312123713
 30
0.0
 11
30.68419089207452
 21
19.09747291013713
 31
0.0
  0
LWPOLYLINE
  5
434
330
1F
100
AcDbEntity
  8
_SURFACE
  6
Continuous
 62
     7
100
AcDbPolyline
 90
       15
 70
     0
 43
0.0
 10
35.88693196687453
 20
19.38495120173713
 10
35.90597070567453
 20
19.38404660543713
 10
35.92508390717453
 20
19.38533675393713
 10
35.94384330717453
 20
19.38880910443713
 10
35.96176344487452
 20
19.39433500703713
 10
35.97862205417452
 20
19.40166656753713
 10
35.99445650897453
 20
19.41072579953713
 10
36.00899377467452
 20
19.42135009943713
 10
36.02205109077452
 20
19.43326423483713
 10
36.03373372877452
 20
19.44641866453713
 10
36.04383496777453
 20
19.46054233203713
 10
36.05224307037453
 20
19.47539704863713
 10
36.05909620707453
 20
19.49108019463713
 10
36.06431523117453
 20
19.50742851013713
 10
36.06476431077453
 20
19.50917851573713
  0
LINE
  5
435
330
1F
100
AcDbEntity
  8
0
  6
Continuous
 62
     7
100
AcDbLine
 10
35.63756876247452
 20
19.41139950173713
 30
0.0
 11
18.18314018487452
 21
21.26267488723713
 31
0.0
  0
LINE
  5
436
330
1F
100
AcDbEntity
  8
_SURFACE
  6
Continuous
 62
     7
100
AcDbLine
 10
17.26845793557452
 20
21.35968916213713
 30
0.0
 11
35.88691423867453
 21
19.38495308203713
 31
0.0
  0
LINE
  5
437
330
1F
100
AcDbEntity
  8
0
  6
Continuous
 62
     7
100
AcDbLine
 10
37.63186183057452
 20
25.71164613843713
 30
0.0
 11
17.55312167307452
 21
25.71164613843713
 31
0.0
  0
LWPOLYLINE
  5
438
330
1F
100
AcDbEntity
  8
0
  6
Continuous
 62
     7
100
AcDbPolyline
 90
        4
 70
     0
 43
0.0
 10
17.71799509817452
 20
26.30256033903713
 10
17.68847472467452
 20
26.30250300933713
 10
17.67082831247452
 20
26.30244301213713
 10
17.66502061377452
 20
26.30238029993713
  0
LINE
  5
439
330
1F
100
AcDbEntity
  8
0
  6
Continuous
 62
     7
100
AcDbLine
 10
33.26785534297453
 20
26.30324716323713
 30
0.0
 11
33.18523130027453
 21
26.30320761963713
 31
0.0
  0
LINE
  5
43A
330
1F
100
AcDbEntity
  8
0
  6
Continuous
 62
     7
100
AcDbLine
 10
34.04391338757453
 20
26.21220483103713
 30
0.0
 11
33.20271464717453
 21
26.21202509133713
 31
0.0
  0
LINE
  5
43B
330
1F
100
AcDbEntity
  8
0
  6
Continuous
 62
     7
100
AcDbLine
 10
33.18523130027453
 20
26.30320761963713
 30
0.0
 11
33.14827462137453
 21
26.30319605903713
 31
0.0
  0
LWPOLYLINE
  5
43C
330
1F
100
AcDbEntity
  8
0
  6
Continuous
 62
     7
100
AcDbPolyline
 90
        3
 70
     0
 43
0.0
 10
18.94381713937452
 20
26.30304629523713
 10
18.78657447837452
 20
26.30301946003713
 10
18.63812664007452
 20
26.30299028703713
  0
LWPOLYLINE
  5
43D
330
1F
100
AcDbEntity
  8
0
  6
Continuous
 62
     7
100
AcDbPolyline
 90
       11
 70
     0
 43
0.0
 10
18.63812664007452
 20
26.30299028703713
 10
18.49885773737452
 20
26.30295871823713
 10
18.36915450797452
 20
26.30292469043713
 10
18.24944227677452
 20
26.30288816503713
 10
18.14011844177452
 20
26.30284912823713
 10
18.04148686177452
 20
26.30280754203713
 10
17.95384575507452
 20
26.30276336993713
 10
17.87750202887452
 20
26.30271660513713
 10
17.81263734287452
 20
26.30266718633713
 10
17.75940973307452
 20
26.30261507203713
 10
17.71799509817452
 20
26.30256033903713
  0
LINE
  5
43E
330
1F
100
AcDbEntity
  8
0
  6
Continuous
 62
     7
100
AcDbLine
 10
21.98594741767452
 20
26.21200152203713
 30
0.0
 11
21.98226662627452
 21
26.21200156513713
 31
0.0
  0
LINE
  5
43F
330
1F
100
AcDbEntity
  8
0
  6
Continuous
 62
     7
100
AcDbLine
 10
33.11097431727453
 20
26.21200152203713
 30
0.0
 11
21.98594741767452
 21
26.21200152203713
 31
0.0
  0
LINE
  5
440
330
1F
100
AcDbEntity
  8
0
  6
Continuous
 62
     7
100
AcDbLine
 10
33.14827462137453
 20
26.30319605903713
 30
0.0
 11
33.11097431727453
 21
26.30319212053713
 31
0.0
  0
LINE
  5
441
330
1F
100
AcDbEntity
  8
0
  6
Continuous
 62
     7
100
AcDbLine
 10
21.98225774707453
 20
26.30319215823713
 30
0.0
 11
21.91405149967453
 21
26.30319357163713
 31
0.0
  0
LINE
  5
442
330
1F
100
AcDbEntity
  8
0
  6
Continuous
 62
     7
100
AcDbLine
 10
21.98594741767452
 20
26.30319212073713
 30
0.0
 11
21.98225774707453
 21
26.30319216403713
 31
0.0
  0
LINE
  5
443
330
1F
100
AcDbEntity
  8
0
  6
Continuous
 62
     7
100
AcDbLine
 10
21.91405149967453
 20
26.30319357163713
 30
0.0
 11
21.27995566147452
 21
26.30319888843713
 31
0.0
  0
LINE
  5
444
330
1F
100
AcDbEntity
  8
0
  6
Continuous
 62
     7
100
AcDbLine
 10
33.11097431727453
 20
26.30319212073713
 30
0.0
 11
21.98594741767452
 21
26.30319212073713
 31
0.0
  0
LINE
  5
445
330
1F
100
AcDbEntity
  8
0
  6
Continuous
 62
     7
100
AcDbLine
 10
21.27995566147452
 20
26.30319888843713
 30
0.0
 11
21.01429156537453
 21
26.30319623523713
 31
0.0
  0
LWPOLYLINE
  5
446
330
1F
100
AcDbEntity
  8
0
  6
Continuous
 62
     7
100
AcDbPolyline
 90
       10
 70
     0
 43
0.0
 10
21.01429156537453
 20
26.30319623523713
 10
20.89440779857453
 20
26.30319438973713
 10
20.67616565907453
 20
26.30318899663713
 10
20.46161108557452
 20
26.30318152253713
 10
20.25133221487452
 20
26.30317193773713
 10
20.04585155517453
 20
26.30316024133713
 10
19.84573137907452
 20
26.30314648923713
 10
19.65152601017452
 20
26.30313075043713
 10
19.46371994287452
 20
26.30311297493713
 10
18.94381713937452
 20
26.30304629523713
  0
LWPOLYLINE
  5
447
330
1F
100
AcDbEntity
  8
0
  6
Continuous
 62
     7
100
AcDbPolyline
 90
        9
 70
     0
 43
0.0
 10
34.02591159197453
 20
26.30339543443713
 10
33.96493180217453
 20
26.30339672743713
 10
33.86614671877453
 20
26.30339416693713
 10
33.76700621467453
 20
26.30338575403713
 10
33.66756910647453
 20
26.30337131843713
 10
33.56788548857453
 20
26.30335057773713
 10
33.46800304017452
 20
26.30332323263713
 10
33.36797278237452
 20
26.30328893673713
 10
33.26785534297453
 20
26.30324716323713
  0
LWPOLYLINE
  5
448
330
1F
100
AcDbEntity
  8
0
  6
Continuous
 62
     7
100
AcDbPolyline
 90
       12
 70
     0
 43
0.0
 10
36.30022910497452
 20
26.30316489053714
 10
36.14175358317452
 20
26.30319537143713
 10
35.97553266127453
 20
26.30322361563713
 10
35.80198915597453
 20
26.30324969393713
 10
35.62159505277453
 20
26.30327367563713
 10
35.43482791997452
 20
26.30329563043713
 10
35.24216258257452
 20
26.30331563113713
 10
35.04411603757453
 20
26.30333375673713
 10
34.84121143827453
 20
26.30335008663713
 10
34.63396174147452
 20
26.30336461103713
 10
34.42289509687453
 20
26.30337719273713
 10
34.02591154137453
 20
26.30339543823713
  0
LWPOLYLINE
  5
449
330
1F
100
AcDbEntity
  8
0
  6
Continuous
 62
     7
100
AcDbPolyline
 90
       12
 70
     0
 43
0.0
 10
37.46892927427453
 20
26.30259473573713
 10
37.42922777457453
 20
26.30265871303713
 10
37.37833451267453
 20
26.30271941563713
 10
37.31642843317452
 20
26.30277686583713
 10
37.24370426437453
 20
26.30283116673713
 10
37.16032812317453
 20
26.30288244323713
 10
37.06651071507453
 20
26.30293080053713
 10
36.96251511067452
 20
26.30297633483713
 10
36.84860995857453
 20
26.30301914103713
 10
36.72508497607453
 20
26.30305931333713
 10
36.59228051117452
 20
26.30309693853713
 10
36.30022910497452
 20
26.30316489053714
  0
LINE
  5
44A
330
1F
100
AcDbEntity
  8
0
  6
Continuous
 62
     7
100
AcDbLine
 10
37.49733090147453
 20
26.30252742443713
 30
0.0
 11
37.46892927427453
 21
26.30259473573713
 31
0.0
  0
LWPOLYLINE
  5
44B
330
1F
100
AcDbEntity
  8
0
  6
Continuous
 62
     7
100
AcDbPolyline
 90
        3
 70
     0
 43
0.0
 10
37.51994909777453
 20
26.30238214563713
 10
37.51435554567453
 20
26.30245661793713
 10
37.49733090147453
 20
26.30252742443713
  0
LINE
  5
44C
330
1F
100
AcDbEntity
  8
0
  6
Continuous
 62
     7
100
AcDbLine
 10
17.66502061377452
 20
26.30238029993713
 30
0.0
 11
17.65296815327452
 21
26.30161175563713
 31
0.0
  0
LINE
  5
44D
330
1F
100
AcDbEntity
  8
0
  6
Continuous
 62
     7
100
AcDbLine
 10
33.20272797227453
 20
26.21202509663713
 30
0.0
 11
33.20267982347453
 21
26.30321568283713
 31
0.0
  0
LINE
  5
44E
330
1F
100
AcDbEntity
  8
0
  6
Continuous
 62
     7
100
AcDbLine
 10
33.11097431727453
 20
26.21200152203713
 30
0.0
 11
33.11097431727453
 21
26.30319212073713
 31
0.0
  0
LINE
  5
44F
330
1F
100
AcDbEntity
  8
0
  6
Continuous
 62
     7
100
AcDbLine
 10
33.20272797227453
 20
25.71164613843713
 30
0.0
 11
33.20271464717453
 21
26.21202509143713
 31
0.0
  0
LINE
  5
450
330
1F
100
AcDbEntity
  8
0
  6
Continuous
 62
     7
100
AcDbLine
 10
32.40837930917452
 20
19.89873891643713
 30
0.0
 11
33.20251938837453
 21
25.71164613843713
 31
0.0
  0
LWPOLYLINE
  5
451
330
1F
100
AcDbEntity
  8
0
  6
Continuous
 62
     7
100
AcDbPolyline
 90
       12
 70
     0
 43
0.0
 10
17.65296815327452
 20
26.30161175563713
 10
17.64105822257452
 20
26.29929775853713
 10
17.62949094337452
 20
26.29545539503713
 10
17.61846789397452
 20
26.29012955013713
 10
17.60818088527452
 20
26.28338942953713
 10
17.59881015947452
 20
26.27532493483713
 10
17.59052112177452
 20
26.26604018813713
 10
17.58349150437452
 20
26.25569050373713
 10
17.57788407867452
 20
26.24448655083713
 10
17.57380484447452
 20
26.23262653843713
 10
17.57132999287452
 20
26.22031326873713
 10
17.57056757087452
 20
26.21118967773713
  0
LINE
  5
452
330
1F
100
AcDbEntity
  8
0
  6
Continuous
 62
     7
100
AcDbLine
 10
35.44862304567452
 20
19.43143971973713
 30
0.0
 11
35.30871043847453
 21
19.18670832223713
 31
0.0
  0
LINE
  5
453
330
1F
100
AcDbEntity
  8
_SURFACE
  6
Continuous
 62
     7
100
AcDbLine
 10
36.06476431097453
 20
19.50917851623713
 30
0.0
 11
37.61968531567453
 21
25.71164613843713
 31
0.0
  0
LWPOLYLINE
  5
454
330
1F
100
AcDbEntity
  8
0
  6
Continuous
 62
     7
100
AcDbPolyline
 90
       13
 70
     0
 43
0.0
 10
37.61441005877453
 20
26.21119157573713
 10
37.61370758737453
 20
26.21985435773713
 10
37.61126050717452
 20
26.23230269763713
 10
37.60717752887453
 20
26.24428789223713
 10
37.60153807687452
 20
26.25560372293713
 10
37.59445379367453
 20
26.26604560373713
 10
37.58610743167452
 20
26.27538577503713
 10
37.57669504787453
 20
26.28346784163713
 10
37.56638533767452
 20
26.29020182473713
 10
37.55535873647453
 20
26.29550924893713
 10
37.54380813337453
 20
26.29932894793713
 10
37.53193847357453
 20
26.30162289233713
 10
37.51994909777453
 20
26.30238214563713
  0
LINE
  5
455
330
1F
100
AcDbEntity
  8
0
  6
Continuous
 62
     7
100
AcDbLine
 10
37.63186183057452
 20
25.71164613843713
 30
0.0
 11
37.61441747117453
 21
26.21118723433713
 31
0.0
  0
ARC
  5
456
330
1F
100
AcDbEntity
  8
0
  6
Continuous
 62
     7
100
AcDbCircle
 10
-82.33848154402547
 20
25.86750968583713
 30
0.0
 40
115.0060721638
100
AcDbArc
 50
356.6878057993999
 51
356.8381260103
  0
ARC
  5
457
330
1F
100
AcDbEntity
  8
0
  6
Continuous
 62
     7
100
AcDbCircle
 10
38.65374028807453
 20
11.92383355343713
 30
0.0
 40
19.0068003577
100
AcDbArc
 50
156.7012106313
 51
157.3966517461999
  0
ARC
  5
458
330
1F
100
AcDbEntity
  8
_SURFACE
  6
Continuous
 62
     7
100
AcDbCircle
 10
27.77737846337453
 20
20.40629824093713
 30
0.0
 40
4.6587300631
100
AcDbArc
 50
353.1405084837999
 51
353.745336583
  0
ARC
  5
459
330
1F
100
AcDbEntity
  8
_SURFACE
  6
Continuous
 62
     7
100
AcDbCircle
 10
28.52342104927453
 20
20.31620190333713
 30
0.0
 40
3.9072669931
100
AcDbArc
 50
352.7306430637998
 51
353.1456099379001
  0
ARC
  5
45A
330
1F
100
AcDbEntity
  8
0
  6
Continuous
 62
     7
100
AcDbCircle
 10
18.29226170477452
 20
19.27463826953713
 30
0.0
 40
0.1771653594
100
AcDbArc
 50
173.9263359600999
 51
270.0000186732999
  0
ARC
  5
45B
330
1F
100
AcDbEntity
  8
0
  6
Continuous
 62
     7
100
AcDbCircle
 10
35.15490574157452
 20
19.27463826443713
 30
0.0
 40
0.1771653543
100
AcDbArc
 50
270.0389833836999
 51
330.2434535021
  0
ARC
  5
45C
330
1F
100
AcDbEntity
  8
0
  6
Continuous
 62
     7
100
AcDbCircle
 10
24.10864841857453
 20
19.16833905183713
 30
0.0
 40
0.0708661417
100
AcDbArc
 50
268.3333331412999
 51
270.0
  0
LINE
  5
45D
330
1F
100
AcDbEntity
  8
0
  6
Continuous
 62
     7
100
AcDbLine
 10
18.11609089237452
 20
19.29338359203713
 30
0.0
 11
18.32404170967452
 21
21.24773039773713
 31
0.0
  0
SPLINE
  5
45E
330
1F
100
AcDbEntity
  8
0
  6
Continuous
 62
     7
100
AcDbSpline
210
0.0
220
0.0
230
1.0
 70
     8
 71
     3
 72
    15
 73
    11
 74
     9
 42
0.0000000001
 43
0.0000000001
 44
0.0000000001
 12
0.9999949036306892
 22
0.0031926028015324
 32
0.0
 13
0.9999999927544852
 23
-0.0001203786929605
 33
0.0
 40
0.0
 40
0.0
 40
0.0
 40
0.0
 40
0.0178495324401924
 40
0.0357699589782156
 40
0.0536351627262249
 40
0.0713689814275437
 40
0.0888565763490593
 40
0.1060079579555393
 40
0.1227423344380873
 40
0.1388410137300224
 40
0.1388410137300224
 40
0.1388410137300224
 40
0.1388410137300224
 10
30.54524765737453
 20
19.09946766713713
 30
0.0
 10
30.55119747119865
 20
19.09948666262622
 30
0.0
 10
30.56312093605446
 20
19.0994776069447
 30
0.0
 10
30.58099882099889
 20
19.09932329347592
 30
0.0
 10
30.59883657026088
 20
19.09904400881229
 30
0.0
 10
30.61652826712726
 20
19.09867295793034
 30
0.0
 10
30.63398095271956
 20
19.0982590088749
 30
0.0
 10
30.65110088077362
 20
19.09786449798353
 30
0.0
 10
30.66775972632658
 20
19.09756270431018
 30
0.0
 10
30.67870409208276
 20
19.09747356341645
 30
0.0
 10
30.68407031847453
 20
19.09747291743713
 30
0.0
 11
30.54524765737453
 21
19.09946766713713
 31
0.0
 11
30.56309718477453
 21
19.09945425333713
 31
0.0
 11
30.58101696557452
 21
19.09930212383713
 31
0.0
 11
30.59888005757453
 21
19.09902744373713
 31
0.0
 11
30.61661013257453
 21
19.09866307273713
 31
0.0
 11
30.63409304317453
 21
19.09825833443713
 31
0.0
 11
30.65124015267453
 21
19.09787554623713
 31
0.0
 11
30.66797204487452
 21
19.09758720673713
 31
0.0
 11
30.68407031847453
 21
19.09747291743713
 31
0.0
  0
SPLINE
  5
45F
330
1F
100
AcDbEntity
  8
0
  6
Continuous
 62
     7
100
AcDbSpline
210
0.0
220
0.0
230
1.0
 70
     8
 71
     3
 72
    14
 73
    10
 74
     8
 42
0.0000000001
 43
0.0000000001
 44
0.0000000001
 12
0.9999999944154778
 22
0.0001056837009524
 32
0.0
 13
0.9999949036313942
 23
0.0031926025807454
 33
0.0
 40
0.0
 40
0.0
 40
0.0
 40
0.0
 40
0.0168554744769596
 40
0.0343352511385304
 40
0.0522227761693978
 40
0.0704093376913912
 40
0.0887609668206744
 40
0.1071805591796909
 40
0.1255236122880243
 40
0.1255236122880243
 40
0.1255236122880243
 40
0.1255236122880243
 10
30.41974222687453
 20
19.09747291593713
 30
0.0
 10
30.42536071833547
 20
19.0974735097201
 30
0.0
 10
30.43680581628978
 20
19.09756757158935
 30
0.0
 10
30.45421062446072
 20
19.09788440365501
 30
0.0
 10
30.47205721564017
 20
19.09829472018472
 30
0.0
 10
30.49019415419022
 20
19.09871906777067
 30
0.0
 10
30.50850970500826
 20
19.09909085974264
 30
0.0
 10
30.52687929556729
 20
19.09935923152474
 30
0.0
 10
30.5391333374994
 20
19.09944814644423
 30
0.0
 10
30.54524765737453
 20
19.09946766713713
 30
0.0
 11
30.41974222687453
 21
19.09747291593713
 31
0.0
 11
30.43659727077452
 21
19.09759339403713
 31
0.0
 11
30.45407443297453
 21
19.09789570773713
 31
0.0
 11
30.47195753147452
 21
19.09829362703713
 31
0.0
 11
30.49013936167452
 21
19.09870844093713
 31
0.0
 11
30.50848736867453
 21
19.09907303773713
 31
0.0
 11
30.52690506977453
 21
19.09933698633713
 31
0.0
 11
30.54524765737453
 21
19.09946766713713
 31
0.0
  0
SPLINE
  5
460
330
1F
100
AcDbEntity
  8
0
  6
Continuous
 62
     7
100
AcDbSpline
210
0.0
220
0.0
230
1.0
 70
     8
 71
     3
 72
    10
 73
     6
 74
     4
 42
0.0000000001
 43
0.0000000001
 44
0.0000000001
 12
-0.4803135581193103
 22
-0.8770968509160022
 32
0.0
 13
-0.3959220765131752
 23
-0.918284111443455
 33
0.0
 40
0.0
 40
0.0
 40
0.0
 40
0.0
 40
0.6572160272783242
 40
1.311540162466303
 40
1.58865947163146
 40
1.58865947163146
 40
1.58865947163146
 40
1.58865947163146
 10
21.89242862827452
 20
20.86925774073713
 30
0.0
 10
21.78720537210283
 20
20.67711037143801
 30
0.0
 10
21.58501591696653
 20
20.28934263945192
 30
0.0
 10
21.35860028483672
 20
19.81048698218729
 30
0.0
 10
21.23342830135005
 20
19.52634328279731
 30
0.0
 10
21.19685575057452
 20
19.44151852993712
 30
0.0
 11
21.89242862827452
 21
20.86925774073713
 31
0.0
 11
21.58840416137453
 21
20.28658971343713
 31
0.0
 11
21.30858033967452
 21
19.69511807193713
 31
0.0
 11
21.19685575057452
 21
19.44151852993712
 31
0.0
  0
SPLINE
  5
461
330
1F
100
AcDbEntity
  8
0
  6
Continuous
 62
     7
100
AcDbSpline
210
0.0
220
0.0
230
1.0
 70
     8
 71
     3
 72
   129
 73
   125
 74
   123
 42
0.0000000001
 43
0.0000000001
 44
0.0000000001
 12
-0.9999015424018178
 22
0.0140323021085602
 32
0.0
 13
-0.9996137066703397
 23
0.0277927587112973
 33
0.0
 40
0.0
 40
0.0
 40
0.0
 40
0.0
 40
0.1195333634932992
 40
0.2243781955819753
 40
0.3167890379908095
 40
0.3986300250136624
 40
0.4714433366112844
 40
0.536474924143491
 40
0.5947618115450495
 40
0.6471564941898379
 40
0.694360155108549
 40
0.7370124628593432
 40
0.7757503630594371
 40
0.8110191629017359
 40
0.8429663095883213
 40
0.8716397192732483
 40
0.8975139266999963
 40
0.9214469316656279
 40
0.9444088294959662
 40
0.9672169698245067
 40
0.9900831442481175
 40
1.012920258325593
 40
1.035598663807127
 40
1.058276476421519
 40
1.081609864672705
 40
1.106455782062811
 40
1.133663651936926
 40
1.163930375974756
 40
1.197958443898951
 40
1.23566552131294
 40
1.275416406248959
 40
1.314905388955346
 40
1.351806999696316
 40
1.384561046056902
 40
1.413102489071304
 40
1.438148018345587
 40
1.460504405238852
 40
1.480998399124536
 40
1.500485548727925
 40
1.519670019865063
 40
1.538857967667596
 40
1.558029872018658
 40
1.576959227244845
 40
1.595714120195299
 40
1.61498615336168
 40
1.635822367676306
 40
1.659119605453208
 40
1.684841468557177
 40
1.712111774830019
 40
1.739773566588219
 40
1.766397626439201
 40
1.790479405598981
 40
1.811519720808633
 40
1.83028608166159
 40
1.847955498151319
 40
1.865398566265062
 40
1.882860690154976
 40
1.900224724710838
 40
1.917379837460333
 40
1.934479060031766
 40
1.952044861098127
 40
1.970760874629268
 40
1.991260652010304
 40
2.013973684114777
 40
2.039161750127586
 40
2.066581753599234
 40
2.094902010003963
 40
2.122343150252723
 40
2.147584037660181
 40
2.169818400274777
 40
2.188961156479526
 40
2.20586048268622
 40
2.221692516066667
 40
2.237320006191233
 40
2.252948877227703
 40
2.268420717756787
 40
2.283695928267278
 40
2.298828585188544
 40
2.313853368323234
 40
2.328779298095827
 40
2.343609247265286
 40
2.358316205320055
 40
2.372858408473574
 40
2.387323488415396
 40
2.401943815274373
 40
2.41684086366444
 40
2.431951738215918
 40
2.447177853309788
 40
2.46241710369487
 40
2.477520212974517
 40
2.49230742810748
 40
2.506627510402868
 40
2.520485438334645
 40
2.534066585659546
 40
2.547481287648313
 40
2.560691323310815
 40
2.57370065151667
 40
2.586579366906291
 40
2.599340792253475
 40
2.611951248980844
 40
2.62441721478507
 40
2.63675025932309
 40
2.648886086866267
 40
2.660838185139482
 40
2.672927099608084
 40
2.685630225898495
 40
2.699347314825909
 40
2.714278850253493
 40
2.73037729164457
 40
2.747546778145709
 40
2.765782336951808
 40
2.785143091677783
 40
2.805648588937886
 40
2.827260658023258
 40
2.849840446010662
 40
2.873248211089169
 40
2.897206533637647
 40
2.920554207280791
 40
2.941436931942522
 40
2.958874329643963
 40
2.972810282931095
 40
2.983050778748243
 40
2.989371219865195
 40
2.991537195820417
 40
2.991537195820417
 40
2.991537195820417
 40
2.991537195820417
 10
21.10689487787452
 20
19.22908344553713
 30
0.0
 10
21.06705434636605
 20
19.22964255495999
 30
0.0
 10
20.99226905775041
 20
19.23069773684676
 30
0.0
 10
20.88668348318815
 20
19.23220599641356
 30
0.0
 10
20.79366099657482
 20
19.23355178120533
 30
0.0
 10
20.71131479866537
 20
19.2347590730957
 30
0.0
 10
20.63809427229095
 20
19.23584841583078
 30
0.0
 10
20.57272445691993
 20
19.23683518527232
 30
0.0
 10
20.51416026677568
 20
19.23773177865511
 30
0.0
 10
20.46153819558018
 20
19.23854862344866
 30
0.0
 10
20.41412717209253
 20
19.23929410891365
 30
0.0
 10
20.37126798164959
 20
19.23997654420777
 30
0.0
 10
20.33238669499681
 20
19.24060319687165
 30
0.0
 10
20.29707346219868
 20
19.24118036613021
 30
0.0
 10
20.26511471493464
 20
19.24170899076056
 30
0.0
 10
20.23628715218975
 20
19.24219075378628
 30
0.0
 10
20.21013066547604
 20
19.24263195523934
 30
0.0
 10
20.18587782137067
 20
19.24304553459751
 30
0.0
 10
20.16264691228912
 20
19.24344525995562
 30
0.0
 10
20.13977161796257
 20
19.24384217795507
 30
0.0
 10
20.11693796684937
 20
19.24424152447055
 30
0.0
 10
20.09414760085128
 20
19.24464277868772
 30
0.0
 10
20.07142004447823
 20
19.245044745595
 30
0.0
 10
20.04852713218237
 20
19.24545205932263
 30
0.0
 10
20.02491188006948
 20
19.24587501730063
 30
0.0
 10
19.99978691217534
 20
19.24632842075306
 30
0.0
 10
19.97235129927048
 20
19.24682852940475
 30
0.0
 10
19.94185560431306
 20
19.24739131846495
 30
0.0
 10
19.90786092752666
 20
19.24802720376134
 30
0.0
 10
19.87070561644028
 20
19.24873282149761
 30
0.0
 10
19.83173056600606
 20
19.24948540247607
 30
0.0
 10
19.79302418881034
 20
19.2502448449099
 30
0.0
 10
19.75664991582119
 20
19.25097236293945
 30
0.0
 10
19.72392438254775
 20
19.25164120750345
 30
0.0
 10
19.69515022399306
 20
19.25223766215431
 30
0.0
 10
19.66984130896829
 20
19.25276714963466
 30
0.0
 10
19.64721431835387
 20
19.25324187413945
 30
0.0
 10
19.6264397619751
 20
19.25368004967946
 30
0.0
 10
19.60672232662625
 20
19.2540983342984
 30
0.0
 10
19.58744019434234
 20
19.25450984540024
 30
0.0
 10
19.56826320152714
 20
19.25492292512831
 30
0.0
 10
19.54917131670961
 20
19.25533828811176
 30
0.0
 10
19.53022383332476
 20
19.25575435208943
 30
0.0
 10
19.51124306393412
 20
19.25617487616527
 30
0.0
 10
19.49162691452206
 20
19.25661324232608
 30
0.0
 10
19.47049712104483
 20
19.25708957805626
 30
0.0
 10
19.4472180392676
 20
19.25761918007692
 30
0.0
 10
19.42179494467955
 20
19.2582032351783
 30
0.0
 10
19.3949175137873
 20
19.25882639563387
 30
0.0
 10
19.36773961388028
 20
19.25946435200731
 30
0.0
 10
19.34162443422487
 20
19.26008458615079
 30
0.0
 10
19.31771592700803
 20
19.26065810075506
 30
0.0
 10
19.29642600111945
 20
19.26117301759994
 30
0.0
 10
19.2772729802735
 20
19.2616393713103
 30
0.0
 10
19.25931874827908
 20
19.26207906622587
 30
0.0
 10
19.24179918448501
 20
19.26251027051585
 30
0.0
 10
19.22438143954015
 20
19.26294122605407
 30
0.0
 10
19.20705967810867
 20
19.26337092678958
 30
0.0
 10
19.18985886755864
 20
19.26379847273192
 30
0.0
 10
19.17259085920158
 20
19.26422917408766
 30
0.0
 10
19.15480276464104
 20
19.26467493988344
 30
0.0
 10
19.13588156704377
 20
19.26515147446618
 30
0.0
 10
19.11524532327163
 20
19.26567728050537
 30
0.0
 10
19.09245261974974
 20
19.26626548984874
 30
0.0
 10
19.06735412165437
 20
19.26692013100411
 30
0.0
 10
19.04038733254709
 20
19.26762916521979
 30
0.0
 10
19.01266989154551
 20
19.26836223789367
 30
0.0
 10
18.98567868079176
 20
19.26908033353116
 30
0.0
 10
18.96071547585729
 20
19.26974792925949
 30
0.0
 10
18.9385174806343
 20
19.2703441994365
 30
0.0
 10
18.91909905312478
 20
19.27086766129341
 30
0.0
 10
18.90181399859221
 20
19.27133503013362
 30
0.0
 10
18.88570029947119
 20
19.27177176702509
 30
0.0
 10
18.87000992616242
 20
19.27219689043496
 30
0.0
 10
18.85443958431669
 20
19.27261917621858
 30
0.0
 10
18.83898665017431
 20
19.27303917492215
 30
0.0
 10
18.82369909235167
 20
19.27345587986769
 30
0.0
 10
18.80856054417771
 20
19.27387020600508
 30
0.0
 10
18.79353847887989
 20
19.27428496954281
 30
0.0
 10
18.77861735355737
 20
19.27469968268021
 30
0.0
 10
18.76380218605257
 20
19.2751134981977
 30
0.0
 10
18.74911491767259
 20
19.27552517536552
 30
0.0
 10
18.73454924614744
 20
19.27593421179211
 30
0.0
 10
18.72001245068221
 20
19.27634280682761
 30
0.0
 10
18.70535743147605
 20
19.27675512731959
 30
0.0
 10
18.69048724286902
 20
19.27717386852016
 30
0.0
 10
18.67541521441464
 20
19.27759863273376
 30
0.0
 10
18.66022917232576
 20
19.27802690920232
 30
0.0
 10
18.64504572456946
 20
19.27845535861144
 30
0.0
 10
18.63000852399439
 20
19.27887987287579
 30
0.0
 10
18.61527759362087
 20
19.27929584220723
 30
0.0
 10
18.60096156207193
 20
19.27970022875047
 30
0.0
 10
18.58704738385519
 20
19.2800929460258
 30
0.0
 10
18.57343485790284
 20
19.28047640264315
 30
0.0
 10
18.56003820893884
 20
19.28085372587299
 30
0.0
 10
18.54683209900113
 20
19.28122597424448
 30
0.0
 10
18.53380459616839
 20
19.28159375028748
 30
0.0
 10
18.52092660527416
 20
19.28195853522603
 30
0.0
 10
18.5081815679341
 20
19.28232130573204
 30
0.0
 10
18.49557408780554
 20
19.28268120340769
 30
0.0
 10
18.48310936317929
 20
19.28303772786447
 30
0.0
 10
18.47080279168491
 20
19.28339001121626
 30
0.0
 10
18.45866743847121
 20
19.28373736678107
 30
0.0
 10
18.44661343111939
 20
19.28408248091223
 30
0.0
 10
18.4343704006327
 20
19.2844329716389
 30
0.0
 10
18.4215392776781
 20
19.28480018680349
 30
0.0
 10
18.4077609953067
 20
19.28519426741554
 30
0.0
 10
18.39285139192352
 20
19.28562028727203
 30
0.0
 10
18.37679143929088
 20
19.28607849140864
 30
0.0
 10
18.35963056550962
 20
19.28656712269708
 30
0.0
 10
18.34138265170607
 20
19.28708520063019
 30
0.0
 10
18.32202311146894
 20
19.28763233947872
 30
0.0
 10
18.30153847099821
 20
19.28820964243995
 30
0.0
 10
18.27998121674736
 20
19.28881615901244
 30
0.0
 10
18.25745692164314
 20
19.28944985060963
 30
0.0
 10
18.2341508616474
 20
19.29010590134825
 30
0.0
 10
18.210588915053
 20
19.29076822822765
 30
0.0
 10
18.18786826334622
 20
19.29140502097296
 30
0.0
 10
18.1673203218463
 20
19.29197812125951
 30
0.0
 10
18.1499083083198
 20
19.2924604258447
 30
0.0
 10
18.13604224645448
 20
19.29284095660628
 30
0.0
 10
18.12588038745584
 20
19.29311782780941
 30
0.0
 10
18.11964033786316
 20
19.29328560081252
 30
0.0
 10
18.11681260555891
 20
19.29336352598809
 30
0.0
 10
18.11609089247452
 20
19.29338359213713
 30
0.0
 11
21.10689487787452
 21
19.22908344553713
 31
0.0
 11
20.98737342067452
 21
19.23077053083713
 31
0.0
 11
20.88253929147453
 21
19.23226858643713
 31
0.0
 11
20.79013812617453
 21
19.23360591433713
 31
0.0
 11
20.70830594297452
 21
19.23480630993713
 31
0.0
 11
20.63550069307453
 21
19.23588979173713
 31
0.0
 11
20.57047651687453
 21
19.23687156893713
 31
0.0
 11
20.51219646227453
 21
19.23776402553713
 31
0.0
 11
20.45980809227453
 21
19.23857732633713
 31
0.0
 11
20.41261026787453
 21
19.23931960393713
 31
0.0
 11
20.36996336767453
 21
19.23999876503713
 31
0.0
 11
20.33123050327453
 21
19.24062336673713
 31
0.0
 11
20.29596641227453
 21
19.24119967243713
 31
0.0
 11
20.26402363447453
 21
19.24172799793713
 31
0.0
 11
20.23535422817452
 21
19.24220712773713
 31
0.0
 11
20.20948370407452
 21
19.24264369703713
 31
0.0
 11
20.18555417677452
 21
19.24305167973713
 31
0.0
 11
20.16259567697453
 21
19.24344669733713
 31
0.0
 11
20.13979096887453
 21
19.24384236603713
 31
0.0
 11
20.11692828937453
 21
19.24424213953713
 31
0.0
 11
20.09409471157453
 21
19.24464401543713
 31
0.0
 11
20.07141985397453
 21
19.24504514883713
 31
0.0
 11
20.04874563067453
 21
19.24544861223713
 31
0.0
 11
20.02541598477453
 21
19.24586649913713
 31
0.0
 11
20.00057411457452
 21
19.24631493633713
 31
0.0
 11
19.97337076577452
 21
19.24681091733713
 31
0.0
 11
19.94310919427453
 21
19.24736937443713
 31
0.0
 11
19.90908707847452
 21
19.24800580443713
 31
0.0
 11
19.87138680007452
 21
19.24872183213713
 31
0.0
 11
19.83164332177452
 21
19.24948915593713
 31
0.0
 11
19.79216194857452
 21
19.25026434973713
 31
0.0
 11
19.75526772837453
 21
19.25100285573713
 31
0.0
 11
19.72252050957452
 21
19.25167159623713
 31
0.0
 11
19.69398518997452
 21
19.25226278543713
 31
0.0
 11
19.66894512977452
 21
19.25278616083713
 31
0.0
 11
19.64659366637452
 21
19.25325532903713
 31
0.0
 11
19.62610423087452
 21
19.25368755383713
 31
0.0
 11
19.60662146537452
 21
19.25410089163713
 31
0.0
 11
19.58744136657452
 21
19.25451045583713
 31
0.0
 11
19.56825786987452
 21
19.25492372963713
 31
0.0
 11
19.54909050037452
 21
19.25534069833713
 31
0.0
 11
19.53016570697452
 21
19.25575625103713
 31
0.0
 11
19.51141541487452
 21
19.25617164933712
 31
0.0
 11
19.49214819167452
 21
19.25660219843713
 31
0.0
 11
19.47131726917453
 21
19.25707176713713
 31
0.0
 11
19.44802605747452
 21
19.25760162143713
 31
0.0
 11
19.42231097657452
 21
19.25819226163713
 31
0.0
 11
19.39504800417452
 21
19.25882466983713
 31
0.0
 11
19.36739382917452
 21
19.25947376793713
 31
0.0
 11
19.34077727267452
 21
19.26010581463713
 31
0.0
 11
19.31670241767452
 21
19.26068326093712
 31
0.0
 11
19.29566825257452
 21
19.26119194813713
 31
0.0
 11
19.27690745157453
 21
19.26164872543713
 31
0.0
 11
19.25924333037452
 21
19.26208127753713
 31
0.0
 11
19.24180554377452
 21
19.26251049043713
 31
0.0
 11
19.22434875777452
 21
19.26294222333713
 31
0.0
 11
19.20699006247452
 21
19.26337279683712
 31
0.0
 11
19.18984024937453
 21
19.26379918173713
 31
0.0
 11
19.17274634527452
 21
19.26422562653713
 31
0.0
 11
19.15518605737452
 21
19.26466569013713
 31
0.0
 11
19.13647598867452
 21
19.26513738043713
 31
0.0
 11
19.11598286267452
 21
19.26565954843713
 31
0.0
 11
19.09327738217452
 21
19.26624519563713
 31
0.0
 11
19.06809786997452
 21
19.26690157573713
 31
0.0
 11
19.04068733157452
 21
19.26762197493713
 31
0.0
 11
19.01237697517452
 21
19.26837073613713
 31
0.0
 11
18.98494554017452
 21
19.26910049773713
 31
0.0
 11
18.95971367327452
 21
19.26977524943713
 31
0.0
 11
18.93748732697453
 21
19.27037225113713
 31
0.0
 11
18.91835152217452
 21
19.27088809003713
 31
0.0
 11
18.90145836937452
 21
19.27134483363713
 31
0.0
 11
18.88563214277452
 21
19.27177359063713
 31
0.0
 11
18.87001038817452
 21
19.27219694723713
 31
0.0
 11
18.85438726417453
 21
19.27262074713713
 31
0.0
 11
18.83892113657452
 21
19.27304115933713
 31
0.0
 11
18.82365159987452
 21
19.27345745863713
 31
0.0
 11
18.80852461647452
 21
19.27387179993713
 31
0.0
 11
18.79350555307452
 21
19.27428633923713
 31
0.0
 11
18.77858538197452
 21
19.27470091603713
 31
0.0
 11
18.76376121177452
 21
19.27511488493713
 31
0.0
 11
18.74906002457452
 21
19.27552684383712
 31
0.0
 11
18.73452355027452
 21
19.27593499513713
 31
0.0
 11
18.72006418107453
 21
19.27634141863713
 31
0.0
 11
18.70544963717452
 21
19.27675259263713
 31
0.0
 11
18.69055849157452
 21
19.27717191763713
 31
0.0
 11
18.67545361407453
 21
19.27759759993713
 31
0.0
 11
18.66023355017452
 21
19.27802682683713
 31
0.0
 11
18.64500036317452
 21
19.27845667113713
 31
0.0
 11
18.62990326837453
 21
19.27888286183713
 31
0.0
 11
18.61512194537452
 21
19.27930026063713
 31
0.0
 11
18.60080757047452
 21
19.27970452313713
 31
0.0
 11
18.58695515677452
 21
19.28009542113713
 31
0.0
 11
18.57337939787452
 21
19.28047795603713
 31
0.0
 11
18.55997001527452
 21
19.28085569633713
 31
0.0
 11
18.54676522577452
 21
19.28122795493713
 31
0.0
 11
18.53376108177452
 21
19.28159518673713
 31
0.0
 11
18.52088753267452
 21
19.28195993823713
 31
0.0
 11
18.50813127047452
 21
19.28232291423713
 31
0.0
 11
18.49552594717452
 21
19.28268269663713
 31
0.0
 11
18.48306507557452
 21
19.28303904253713
 31
0.0
 11
18.47073707947452
 21
19.28339188773713
 31
0.0
 11
18.45860622087452
 21
19.28373913373713
 31
0.0
 11
18.44665901767452
 21
19.28408117003713
 31
0.0
 11
18.43457505357452
 21
19.28442709583713
 31
0.0
 11
18.42187712587452
 21
19.28479048223713
 31
0.0
 11
18.40816564357452
 21
19.28518263243713
 31
0.0
 11
18.39324019897452
 21
19.28560907553713
 31
0.0
 11
18.37714830487452
 21
19.28606816103713
 31
0.0
 11
18.35998577247452
 21
19.28655677983712
 31
0.0
 11
18.34175755517452
 21
19.28707417623713
 31
0.0
 11
18.32240453297452
 21
19.28762130993713
 31
0.0
 11
18.30190717747452
 21
19.28819909483713
 31
0.0
 11
18.28030366197452
 21
19.28880708183713
 31
0.0
 11
18.25773280647452
 21
19.28944214683713
 31
0.0
 11
18.23433430387452
 21
19.29010058593713
 31
0.0
 11
18.21038543637452
 21
19.29077361253713
 31
0.0
 11
18.18704692057452
 21
19.29142748163713
 31
0.0
 11
18.16617230577452
 21
19.29200941483713
 31
0.0
 11
18.14874158487452
 21
19.29249191613713
 31
0.0
 11
18.13481087647452
 21
19.29287422163713
 31
0.0
 11
18.12457416667452
 21
19.29315265843713
 31
0.0
 11
18.11825604497452
 21
19.29332387203713
 31
0.0
 11
18.11609089247452
 21
19.29338359213713
 31
0.0
  0
LINE
  5
462
330
1F
100
AcDbEntity
  8
0
  6
Continuous
 62
     7
100
AcDbLine
 10
32.49251541317453
 20
19.52410759803713
 30
0.0
 11
32.50443682887453
 21
19.74371004663713
 31
0.0
  0
SPLINE
  5
463
330
1F
100
AcDbEntity
  8
0
  6
Continuous
 62
     7
100
AcDbSpline
210
0.0
220
0.0
230
1.0
 70
     8
 71
     3
 72
    15
 73
    11
 74
     9
 42
0.0000000001
 43
0.0000000001
 44
0.0000000001
 12
-0.999999515789003
 22
0.0009840842238358
 32
0.0
 13
-0.9999999844631226
 23
0.0001762774939916
 33
0.0
 40
0.0
 40
0.0
 40
0.0
 40
0.0
 40
0.9039135418486862
 40
1.921350311705417
 40
3.066693264991882
 40
4.356316976908655
 40
5.808804393290639
 40
7.445237514560558
 40
9.289512817274557
 40
11.36889488624421
 40
11.36889488624421
 40
11.36889488624421
 40
11.36889488624421
 10
32.47547804847453
 20
19.22286115333713
 30
0.0
 10
32.17417368041992
 20
19.22315766235588
 30
0.0
 10
31.53372382169802
 20
19.22372270390137
 30
0.0
 10
30.51149299460988
 20
19.22445827732328
 30
0.0
 10
29.36069204259187
 20
19.22512995346093
 30
0.0
 10
28.06487415723024
 20
19.22574086547453
 30
0.0
 10
26.60535951080035
 20
19.22629473888791
 30
0.0
 10
24.96096097238863
 20
19.22679560209827
 30
0.0
 10
23.10759752896109
 20
19.22724757138435
 30
0.0
 10
21.79971176272871
 20
19.22750234808374
 30
0.0
 10
21.10658441717452
 20
19.22762453083713
 30
0.0
 11
32.47547804847453
 21
19.22286115333713
 31
0.0
 11
31.57156486517453
 21
19.22366625823713
 31
0.0
 11
30.55412836417453
 21
19.22440591313713
 31
0.0
 11
29.40878561027453
 21
19.22508173243713
 31
0.0
 11
28.11916204497453
 21
19.22569668033713
 31
0.0
 11
26.66667473567453
 21
19.22625441723713
 31
0.0
 11
25.03024169217453
 21
19.22675892743713
 31
0.0
 11
23.18596644567453
 21
19.22721428243713
 31
0.0
 11
21.10658441717452
 21
19.22762453083713
 31
0.0
  0
LINE
  5
464
330
1F
100
AcDbEntity
  8
0
  6
Continuous
 62
     7
100
AcDbLine
 10
21.10689724177452
 20
19.22908356303713
 30
0.0
 11
21.10658441717452
 21
19.22762453083713
 31
0.0
  0
SPLINE
  5
465
330
1F
100
AcDbEntity
  8
0
  6
Continuous
 62
     7
100
AcDbSpline
210
0.0
220
0.0
230
1.0
 70
     8
 71
     3
 72
    83
 73
    79
 74
    77
 42
0.0000000001
 43
0.0000000001
 44
0.0000000001
 12
-0.9999957549114707
 22
0.0029137877475576
 32
0.0
 13
-0.999967583918935
 23
0.0080517769049713
 33
0.0
 40
0.0
 40
0.0
 40
0.0
 40
0.0
 40
0.0011538140502321
 40
0.0026047392223466
 40
0.0046567642709733
 40
0.0073087385174648
 40
0.0105264533161817
 40
0.0142890849107069
 40
0.0186008684285817
 40
0.0234626179824985
 40
0.0288705819635271
 40
0.0348289798299164
 40
0.0413388724491072
 40
0.0483787282778355
 40
0.0559279552050459
 40
0.0639906265144752
 40
0.0725592596956839
 40
0.0815948335073046
 40
0.0910784784484305
 40
0.1010219283599964
 40
0.1114231402495126
 40
0.1222619278888296
 40
0.1335142989814688
 40
0.1451753105556453
 40
0.1573170133804451
 40
0.1699978872667139
 40
0.1831102631057643
 40
0.1967438633104878
 40
0.2114958433507712
 40
0.2282530655016279
 40
0.2479472123626829
 40
0.2713080588888905
 40
0.2989531468742292
 40
0.3317328734650898
 40
0.3707160150162041
 40
0.4158316149831116
 40
0.4656181884446563
 40
0.5185086365851724
 40
0.5737835412574484
 40
0.6314640361013212
 40
0.6916721111374197
 40
0.7545957726938021
 40
0.8202720554218485
 40
0.8885719371129722
 40
0.9596657106147326
 40
1.033274247852266
 40
1.107313202668533
 40
1.177850480423628
 40
1.242127966618808
 40
1.300078905952939
 40
1.352089269980556
 40
1.398476315247846
 40
1.439965057543562
 40
1.477949198209648
 40
1.514142283094122
 40
1.54982220266036
 40
1.584788022799607
 40
1.618208661948849
 40
1.650252267574912
 40
1.681684943501383
 40
1.713242460496832
 40
1.745167314360292
 40
1.776477388124149
 40
1.807257395377277
 40
1.840148139276018
 40
1.87650868273717
 40
1.916761597585949
 40
1.961357324105573
 40
2.010861223631857
 40
2.06604512871722
 40
2.127741328301935
 40
2.196900716815387
 40
2.274707252260838
 40
2.36262165521128
 40
2.462728789930223
 40
2.576289405847872
 40
2.701291765176749
 40
2.833470098562305
 40
2.833470098562305
 40
2.833470098562305
 40
2.833470098562305
 10
35.30871043857452
 20
19.18670832233713
 30
0.0
 10
35.3083258355238
 20
19.18670944299354
 30
0.0
 10
35.30745759340219
 20
19.18671218059246
 30
0.0
 10
35.30590534831712
 20
19.18671766629828
 30
0.0
 10
35.30385372145877
 20
19.18672541908894
 30
0.0
 10
35.30121317136651
 20
19.18673602520688
 30
0.0
 10
35.29800242724824
 20
19.1867497824363
 30
0.0
 10
35.29423842346205
 20
19.18676704286214
 30
0.0
 10
35.28992641969601
 20
19.18678805038189
 30
0.0
 10
35.28506598434652
 20
19.18681293831392
 30
0.0
 10
35.27965669205086
 20
19.18684203003607
 30
0.0
 10
35.27369803510228
 20
19.18687561070339
 30
0.0
 10
35.26719543451346
 20
19.18691427469651
 30
0.0
 10
35.26016257893039
 20
19.18695806209468
 30
0.0
 10
35.25261215492009
 20
19.18700733289293
 30
0.0
 10
35.24455216035928
 20
19.18706159465034
 30
0.0
 10
35.23599674433406
 20
19.18712156615751
 30
0.0
 10
35.22696769950324
 20
19.18718729793647
 30
0.0
 10
35.21748041512334
 20
19.1872591369079
 30
0.0
 10
35.20753795441223
 20
19.1873374435863
 30
0.0
 10
35.1971438202029
 20
19.18742263475229
 30
0.0
 10
35.18631342091328
 20
19.18751467252154
 30
0.0
 10
35.17506313012003
 20
19.187613352772
 30
0.0
 10
35.16337857760183
 20
19.18771883404443
 30
0.0
 10
35.15121790423253
 20
19.18783160122842
 30
0.0
 10
35.13857349090738
 20
19.18795176540916
 30
0.0
 10
35.12543183047949
 20
19.1880797312385
 30
0.0
 10
35.11159987068388
 20
19.18821813624411
 30
0.0
 10
35.09655307026481
 20
19.18837335681343
 30
0.0
 10
35.07948624271832
 20
19.18855396905874
 30
0.0
 10
35.05955001077381
 20
19.1887702845378
 30
0.0
 10
35.03598478935091
 20
19.18903376222433
 30
0.0
 10
35.00805811333651
 20
19.1893577019776
 30
0.0
 10
34.97492455386487
 20
19.18975876782815
 30
0.0
 10
34.93596814551762
 20
19.190248847857
 30
0.0
 10
34.89134351888346
 20
19.19083225167529
 30
0.0
 10
34.84208381637749
 20
19.1914985683033
 30
0.0
 10
34.78943831125194
 20
19.19223415674926
 30
0.0
 10
34.73416211629093
 20
19.19303190996061
 30
0.0
 10
34.67644735266748
 20
19.19389117015572
 30
0.0
 10
34.61618356273524
 20
19.19480673788734
 30
0.0
 10
34.55325505864355
 20
19.19577850786806
 30
0.0
 10
34.48762978445309
 20
19.19680333283675
 30
0.0
 10
34.41928169419805
 20
19.19788484456587
 30
0.0
 10
34.34829002043564
 20
19.19901888279769
 30
0.0
 10
34.27538559257054
 20
19.20018511082624
 30
0.0
 10
34.20266658504396
 20
19.20134496921938
 30
0.0
 10
34.13305739227937
 20
19.20244641146182
 30
0.0
 10
34.06881012085383
 20
19.20345797968106
 30
0.0
 10
34.01073764586869
 20
19.20436748279366
 30
0.0
 10
33.9586278061671
 20
19.20517630587603
 30
0.0
 10
33.91200459902754
 20
19.20589313205497
 30
0.0
 10
33.87005614830503
 20
19.20653161956716
 30
0.0
 10
33.83150520178114
 20
19.20711251145018
 30
0.0
 10
33.79489022571444
 20
19.20765862681209
 30
0.0
 10
33.75928116161909
 20
19.20818414481614
 30
0.0
 10
33.72459606394924
 20
19.20869047204127
 30
0.0
 10
33.69112286196604
 20
19.20917360485148
 30
0.0
 10
33.65882719005828
 20
19.20963542182632
 30
0.0
 10
33.62715243917659
 20
19.21008441093556
 30
0.0
 10
33.59551721491762
 20
19.21052906069263
 30
0.0
 10
33.5639228028127
 20
19.21096947920882
 30
0.0
 10
33.53258747801778
 20
19.21140214778885
 30
0.0
 10
33.50093015651757
 20
19.21183459940071
 30
0.0
 10
33.46758942693475
 20
19.21228450931094
 30
0.0
 10
33.43109125619371
 20
19.21277010467384
 30
0.0
 10
33.39069167615812
 20
19.2133005195714
 30
0.0
 10
33.34591122598234
 20
19.2138785570765
 30
0.0
 10
33.29615402755634
 20
19.21450784648962
 30
0.0
 10
33.24069693608229
 20
19.21519395122021
 30
0.0
 10
33.17868827873323
 20
19.21594169777731
 30
0.0
 10
33.10913897993041
 20
19.21675406369299
 30
0.0
 10
33.03085050176185
 20
19.21763592421111
 30
0.0
 10
32.94224632544295
 20
19.21859443290277
 30
0.0
 10
32.84172431197394
 20
19.21963404517779
 30
0.0
 10
32.72883963008661
 20
19.22073435999472
 30
0.0
 10
32.60526430353741
 20
19.22185910354552
 30
0.0
 10
32.51954042810185
 20
19.22257996171977
 30
0.0
 10
32.47548241187452
 20
19.22293471853713
 30
0.0
 11
35.30871043857452
 21
19.18670832233713
 31
0.0
 11
35.30755663017453
 21
19.18671193323713
 31
0.0
 11
35.30610571387453
 21
19.18671700723713
 31
0.0
 11
35.30405370337452
 21
19.18672473433713
 31
0.0
 11
35.30140175047453
 21
19.18673537483712
 31
0.0
 11
35.29818406517453
 21
19.18674915293713
 31
0.0
 11
35.29442147297453
 21
19.18676637073713
 31
0.0
 11
35.29010974037452
 21
19.18678732523712
 31
0.0
 11
35.28524805447452
 21
19.18681220363713
 31
0.0
 11
35.27984016857452
 21
19.18684126413713
 31
0.0
 11
35.27388186547452
 21
19.18687486923713
 31
0.0
 11
35.26737208757453
 21
19.18691351643713
 31
0.0
 11
35.26033236817453
 21
19.18695734403713
 31
0.0
 11
35.25278330107453
 21
19.18700646753713
 31
0.0
 11
35.24472081297452
 21
19.18706082083713
 31
0.0
 11
35.23615239007452
 21
19.18712085083713
 31
0.0
 11
35.22711705577453
 21
19.18718663983713
 31
0.0
 11
35.21763368267452
 21
19.18725844523713
 31
0.0
 11
35.20769054117453
 21
19.18733676033713
 31
0.0
 11
35.19728967817453
 21
19.18742195203713
 31
0.0
 11
35.18645128127453
 21
19.18751398533713
 31
0.0
 11
35.17519934257453
 21
19.18761262963713
 31
0.0
 11
35.16353880577453
 21
19.18771785543713
 31
0.0
 11
35.15139762447453
 21
19.18783039043713
 31
0.0
 11
35.13871732307452
 21
19.18795088493713
 31
0.0
 11
35.12560556937453
 21
19.18807861533713
 31
0.0
 11
35.11197265217453
 21
19.18821508203713
 31
0.0
 11
35.09722145517452
 21
19.18836707603713
 31
0.0
 11
35.08046517017452
 21
19.18854429683713
 31
0.0
 11
35.06077218297452
 21
19.18875801563713
 31
0.0
 11
35.03741279757452
 21
19.18901928973713
 31
0.0
 11
35.00976956967452
 21
19.18933997803713
 31
0.0
 11
34.97699223677453
 21
19.18973611353713
 31
0.0
 11
34.93801217477453
 21
19.19022610503713
 31
0.0
 11
34.89290042017453
 21
19.19081513583713
 31
0.0
 11
34.84311839597453
 21
19.19148816153713
 31
0.0
 11
34.79023310877453
 21
19.19222701353713
 31
0.0
 11
34.73496395657452
 21
19.19302444793713
 31
0.0
 11
34.67728982927453
 21
19.19388149263713
 31
0.0
 11
34.61708869137453
 21
19.19479543743713
 31
0.0
 11
34.55417251737453
 21
19.19576612423713
 31
0.0
 11
34.48850424577453
 21
19.19679190103713
 31
0.0
 11
34.42021290167453
 21
19.19787178993713
 31
0.0
 11
34.34912817227452
 21
19.19900575503713
 31
0.0
 11
34.27552903757453
 21
19.20018224373713
 31
0.0
 11
34.20149948237453
 21
19.20136198403713
 31
0.0
 11
34.13097104107452
 21
19.20247846103713
 31
0.0
 11
34.06670151847453
 21
19.20349023983713
 31
0.0
 11
34.00875767467453
 21
19.20439706693713
 31
0.0
 11
33.95675357157453
 21
19.20520405333713
 31
0.0
 11
33.91037200507452
 21
19.20591697523713
 31
0.0
 11
33.86888806637453
 21
19.20654829703713
 31
0.0
 11
33.83090823607452
 21
19.20712051423713
 31
0.0
 11
33.79471917547453
 21
19.20766022373713
 31
0.0
 11
33.75904314027453
 21
19.20818669563713
 31
0.0
 11
33.72408104427453
 21
19.20869701053713
 31
0.0
 11
33.69066388767453
 21
19.20917946873713
 31
0.0
 11
33.65862355807453
 21
19.20963766153713
 31
0.0
 11
33.62719403987453
 21
19.21008319673713
 31
0.0
 11
33.59563963997452
 21
19.21052673463712
 31
0.0
 11
33.56371788617453
 21
19.21097162623713
 31
0.0
 11
33.53241079537453
 21
19.21140381223713
 31
0.0
 11
33.50163365857453
 21
19.21182416553713
 31
0.0
 11
33.46874590827453
 21
19.21226791593713
 31
0.0
 11
33.43238858517452
 21
19.21275183513713
 31
0.0
 11
33.39213913697453
 21
19.21328010913713
 31
0.0
 11
33.34754712387453
 21
19.21385560153713
 31
0.0
 11
33.29804718447453
 21
19.21448175463713
 31
0.0
 11
33.24286750157452
 21
19.21516437863713
 31
0.0
 11
33.18117578397453
 21
19.21590803363713
 31
0.0
 11
33.11202111387453
 21
19.21671588443713
 31
0.0
 11
33.03421951727453
 21
19.21759253973713
 31
0.0
 11
32.94631026257453
 21
19.21854395143713
 31
0.0
 11
32.84620847237453
 21
19.21957836933713
 31
0.0
 11
32.73265325397453
 21
19.22068555573713
 31
0.0
 11
32.60765607257453
 21
19.22182330783712
 31
0.0
 11
32.47548241187452
 21
19.22293471853713
 31
0.0
  0
SPLINE
  5
466
330
1F
100
AcDbEntity
  8
0
  6
Continuous
 62
     7
100
AcDbSpline
210
0.0
220
0.0
230
1.0
 70
     8
 71
     3
 72
    25
 73
    21
 74
    19
 42
0.0000000001
 43
0.0000000001
 44
0.0000000001
 12
-0.0092853737673129
 22
-0.999956889987764
 32
0.0
 13
-0.9999999999972498
 23
0.000002345319053
 33
0.0
 40
0.0
 40
0.0
 40
0.0
 40
0.0
 40
0.0118789242875994
 40
0.0234096120574336
 40
0.0345695687197534
 40
0.0453009588605931
 40
0.0555482464361889
 40
0.0652585431226813
 40
0.0743822202230128
 40
0.0828738941749825
 40
0.0906915486492676
 40
0.0977963177264907
 40
0.1041524739994008
 40
0.109728047213942
 40
0.1144951611061966
 40
0.1184302755379995
 40
0.1215142961968487
 40
0.1237330432528239
 40
0.1250790687940121
 40
0.125569269333084
 40
0.125569269333084
 40
0.125569269333084
 40
0.125569269333084
 10
32.47548241197453
 20
19.22293471613713
 30
0.0
 10
32.47544564522387
 20
19.21897524540812
 30
0.0
 10
32.47536975058368
 20
19.21117240947802
 30
0.0
 10
32.47524783195499
 20
19.19964986281726
 30
0.0
 10
32.47511618785039
 20
19.18850995940875
 30
0.0
 10
32.47497581790161
 20
19.17779799748288
 30
0.0
 10
32.47482687511004
 20
19.16756942037285
 30
0.0
 10
32.4746698529224
 20
19.15787693092195
 30
0.0
 10
32.47450523776174
 20
19.14876987192272
 30
0.0
 10
32.47433359780981
 20
19.14029390401943
 30
0.0
 10
32.47415549891382
 20
19.13249132337797
 30
0.0
 10
32.47397175096211
 20
19.12540051874392
 30
0.0
 10
32.47378269222622
 20
19.11905879862962
 30
0.0
 10
32.4735905299795
 20
19.11349280119835
 30
0.0
 10
32.47339232380688
 20
19.10874646849051
 30
0.0
 10
32.47320090001001
 20
19.10479758236249
 30
0.0
 10
32.47298742680745
 20
19.10178935282443
 30
0.0
 10
32.47283146480659
 20
19.09943293871149
 30
0.0
 10
32.47258673681117
 20
19.0983577130909
 30
0.0
 10
32.47250821085422
 20
19.0974729097539
 30
0.0
 10
32.47234481067453
 20
19.09747291013713
 30
0.0
 11
32.47548241197453
 21
19.22293471613713
 31
0.0
 11
32.47536690527453
 21
19.21105635343713
 31
0.0
 11
32.47524410987452
 21
19.19952631953712
 31
0.0
 11
32.47511206027453
 21
19.18836714413713
 31
0.0
 11
32.47497103747452
 21
19.17763668063713
 31
0.0
 11
32.47482139547452
 21
19.16739048573713
 31
0.0
 11
32.47466355767453
 21
19.15768147193713
 31
0.0
 11
32.47449800677453
 21
19.14855929693713
 31
0.0
 11
32.47432525657452
 21
19.14006938033713
 31
0.0
 11
32.47414586257453
 21
19.13225378443713
 31
0.0
 11
32.47396042637453
 21
19.12515143573713
 31
0.0
 11
32.47376960317453
 21
19.11879814453713
 31
0.0
 11
32.47357408927452
 21
19.11322600033713
 31
0.0
 11
32.47337461307453
 21
19.10846306173713
 31
0.0
 11
32.47317192727452
 21
19.10453317063713
 31
0.0
 11
32.47296680617453
 21
19.10145597893713
 31
0.0
 11
32.47276004187452
 21
19.09924688703713
 31
0.0
 11
32.47255243917452
 21
19.09791696753713
 31
0.0
 11
32.47234481067453
 21
19.09747291013713
 31
0.0
  0
LINE
  5
467
330
1F
100
AcDbEntity
  8
0
  6
Continuous
 62
     7
100
AcDbLine
 10
21.10658441687453
 20
19.22762453443713
 30
0.0
 11
21.10606399027453
 21
19.14470372573713
 31
0.0
  0
SPLINE
  5
468
330
1F
100
AcDbEntity
  8
0
  6
Continuous
 62
     7
100
AcDbSpline
210
0.0
220
0.0
230
1.0
 70
     8
 71
     3
 72
     8
 73
     4
 74
     2
 42
0.0000000001
 43
0.0000000001
 44
0.0000000001
 12
-0.0111091243046708
 22
-0.9999382917746391
 32
0.0
 13
-0.0111235960868334
 23
-0.9999381308911551
 33
0.0
 40
0.0
 40
0.0
 40
0.0
 40
0.0
 40
0.0000760005965308
 40
0.0000760005965308
 40
0.0000760005965308
 40
0.0000760005965308
 10
21.10606399027453
 20
19.14470372573713
 30
0.0
 10
21.10606370884117
 20
19.14467839376824
 30
0.0
 10
21.10606342717451
 20
19.14465306180194
 30
0.0
 10
21.10606314537453
 20
19.14462772983713
 30
0.0
 11
21.10606399027453
 21
19.14470372573713
 31
0.0
 11
21.10606314537453
 21
19.14462772983713
 31
0.0
  0
SPLINE
  5
469
330
1F
100
AcDbEntity
  8
0
  6
Continuous
 62
     7
100
AcDbSpline
210
0.0
220
0.0
230
1.0
 70
     8
 71
     3
 72
    18
 73
    14
 74
    12
 42
0.0000000001
 43
0.0000000001
 44
0.0000000001
 12
-0.0111236357558634
 22
-0.9999381304498648
 32
0.0
 13
-0.9999999948391202
 23
0.0001015960616824
 33
0.0
 40
0.0
 40
0.0
 40
0.0
 40
0.0
 40
0.0028618537956715
 40
0.0109768941499996
 40
0.0183558099152434
 40
0.0249618171748538
 40
0.0307601533000206
 40
0.0357190687910337
 40
0.0398118717245758
 40
0.0430175372846851
 40
0.0453207720571821
 40
0.0467114849046798
 40
0.0471898130196952
 40
0.0471898130196952
 40
0.0471898130196952
 40
0.0471898130196952
 10
21.10606314537453
 20
19.14462772983713
 30
0.0
 10
21.10605253396812
 20
19.14367383759244
 30
0.0
 10
21.10601086458624
 20
19.14001510053616
 30
0.0
 10
21.10593452378672
 20
19.13389707635539
 30
0.0
 10
21.10582830493999
 20
19.12653078439597
 30
0.0
 10
21.10571637619972
 20
19.11993854807211
 30
0.0
 10
21.10560321922906
 20
19.11414809103547
 30
0.0
 10
21.10547836186297
 20
19.10921080887385
 30
0.0
 10
21.1053753758712
 20
19.1050950455193
 30
0.0
 10
21.10520814433287
 20
19.10197886524919
 30
0.0
 10
21.10519340219089
 20
19.09949471943206
 30
0.0
 10
21.10489807212763
 20
19.0984397223108
 30
0.0
 10
21.10500112297871
 20
19.09747289393838
 30
0.0
 10
21.10484168027452
 20
19.09747291013713
 30
0.0
 11
21.10606314537453
 21
19.14462772983713
 31
0.0
 11
21.10603053547452
 21
19.14176606183713
 31
0.0
 11
21.10592871087452
 21
19.13365166033713
 31
0.0
 11
21.10582127507452
 21
19.12627352673713
 31
0.0
 11
21.10570878357453
 21
19.11966847733713
 31
0.0
 11
21.10559183907453
 21
19.11387132063713
 31
0.0
 11
21.10547109577453
 21
19.10891387533713
 31
0.0
 11
21.10534723167452
 21
19.10482294713713
 31
0.0
 11
21.10522093047452
 21
19.10161977063713
 31
0.0
 11
21.10509286787452
 21
19.09932009883713
 31
0.0
 11
21.10496379147452
 21
19.09793538893713
 31
0.0
 11
21.10484168027452
 21
19.09747291013713
 31
0.0
  0
LINE
  5
46A
330
1F
100
AcDbEntity
  8
0
  6
Continuous
 62
     7
100
AcDbLine
 10
33.20271464717453
 20
26.21202509143713
 30
0.0
 11
33.11097431727453
 21
26.21200152203713
 31
0.0
  0
LINE
  5
46B
330
1F
100
AcDbEntity
  8
0
  6
Continuous
 62
     7
100
AcDbLine
 10
21.98226662627452
 20
26.21200156513713
 30
0.0
 11
21.91401601647453
 21
26.21200307423713
 31
0.0
  0
LINE
  5
46C
330
1F
100
AcDbEntity
  8
0
  6
Continuous
 62
     7
100
AcDbLine
 10
21.91401601647453
 20
26.21200307423713
 30
0.0
 11
21.88371975617453
 21
26.21200370253713
 31
0.0
  0
LINE
  5
46D
330
1F
100
AcDbEntity
  8
0
  6
Continuous
 62
     7
100
AcDbLine
 10
21.88371975617453
 20
26.21200370253713
 30
0.0
 11
21.01913146277452
 21
26.21200625433713
 31
0.0
  0
LINE
  5
46E
330
1F
100
AcDbEntity
  8
0
  6
Continuous
 62
     7
100
AcDbLine
 10
21.01913146277452
 20
26.21200625433713
 30
0.0
 11
21.01394789077453
 21
26.21200618303713
 31
0.0
  0
LINE
  5
46F
330
1F
100
AcDbEntity
  8
0
  6
Continuous
 62
     7
100
AcDbLine
 10
21.01394789077453
 20
26.21200618303713
 30
0.0
 11
20.97505743637453
 21
26.21200561573713
 31
0.0
  0
LINE
  5
470
330
1F
100
AcDbEntity
  8
0
  6
Continuous
 62
     7
100
AcDbLine
 10
20.97505743637453
 20
26.21200561573713
 30
0.0
 11
19.30921785257453
 21
26.21191159693713
 31
0.0
  0
LINE
  5
471
330
1F
100
AcDbEntity
  8
0
  6
Continuous
 62
     7
100
AcDbLine
 10
19.30921785257453
 20
26.21191159693713
 30
0.0
 11
18.58728871947452
 21
26.21180012703713
 31
0.0
  0
LINE
  5
472
330
1F
100
AcDbEntity
  8
0
  6
Continuous
 62
     7
100
AcDbLine
 10
18.58728871947452
 20
26.21180012703713
 30
0.0
 11
18.56763991237452
 21
26.21179562783713
 31
0.0
  0
LINE
  5
473
330
1F
100
AcDbEntity
  8
0
  6
Continuous
 62
     7
100
AcDbLine
 10
18.56763991237452
 20
26.21179562783713
 30
0.0
 11
18.23057977447452
 21
26.21172548883713
 31
0.0
  0
LINE
  5
474
330
1F
100
AcDbEntity
  8
0
  6
Continuous
 62
     7
100
AcDbLine
 10
18.23057977447452
 20
26.21172548883713
 30
0.0
 11
17.98662132647453
 21
26.21163064943713
 31
0.0
  0
LINE
  5
475
330
1F
100
AcDbEntity
  8
0
  6
Continuous
 62
     7
100
AcDbLine
 10
17.98662132647453
 20
26.21163064943713
 30
0.0
 11
17.96578000627452
 21
26.21161575423713
 31
0.0
  0
SPLINE
  5
476
330
1F
100
AcDbEntity
  8
0
  6
Continuous
 62
     7
100
AcDbSpline
210
0.0
220
0.0
230
1.0
 70
     8
 71
     3
 72
    11
 73
     7
 74
     5
 42
0.0000000001
 43
0.0000000001
 44
0.0000000001
 12
-0.9999997261544905
 22
-0.0007400614462817
 32
0.0
 13
-0.1013482282025663
 23
-0.9948510122828444
 33
0.0
 40
0.0
 40
0.0
 40
0.0
 40
0.0
 40
0.2159682317797765
 40
0.3574786906008349
 40
0.3939443846494008
 40
0.3946985786839479
 40
0.3946985786839479
 40
0.3946985786839479
 40
0.3946985786839479
 10
17.96578000627452
 20
26.21161575423713
 30
0.0
 10
17.89379061539524
 20
26.21156247764981
 30
0.0
 10
17.78114935921637
 20
26.20480447252073
 30
0.0
 10
17.63323793516345
 20
26.22182023250609
 30
0.0
 10
17.58917056491687
 20
26.20568768872777
 30
0.0
 10
17.57110782361756
 20
26.21138725270337
 30
0.0
 10
17.57108234487452
 20
26.21113714913713
 30
0.0
 11
17.96578000627452
 21
26.21161575423713
 31
0.0
 11
17.74981180597452
 21
26.21149914693713
 31
0.0
 11
17.60830143487452
 21
26.21134158143713
 31
0.0
 11
17.57183619297452
 21
26.21115998953713
 31
0.0
 11
17.57108234487452
 21
26.21113714913713
 31
0.0
  0
SPLINE
  5
477
330
1F
100
AcDbEntity
  8
0
  6
Continuous
 62
     7
100
AcDbSpline
210
0.0
220
0.0
230
1.0
 70
     8
 71
     3
 72
    11
 73
     7
 74
     5
 42
0.0000000001
 43
0.0000000001
 44
0.0000000001
 12
-0.0086355120553527
 22
0.9999627132706208
 32
0.0
 13
-0.9999999613392077
 23
0.0002780675870004
 33
0.0
 40
0.0
 40
0.0
 40
0.0
 40
0.0
 40
0.0001442899062953
 40
0.0963245505918589
 40
0.306922507899449
 40
0.3778279776382537
 40
0.3778279776382537
 40
0.3778279776382537
 40
0.3778279776382537
 10
37.59703177577453
 20
26.21104140693713
 30
0.0
 10
37.59703136043545
 20
26.2110895017792
 30
0.0
 10
37.54915752343513
 20
26.19905527781926
 30
0.0
 10
37.47941630235228
 20
26.22478970817115
 30
0.0
 10
37.33464810232784
 20
26.21009415700712
 30
0.0
 10
37.24284054284037
 20
26.21166277496617
 30
0.0
 10
37.21920538717453
 20
26.21166934713713
 30
0.0
 11
37.59703177577453
 21
26.21104140693713
 31
0.0
 11
37.59688799297453
 21
26.21105349343713
 31
0.0
 11
37.50070874357452
 21
26.21149454943713
 31
0.0
 11
37.29011085687452
 21
26.21166700123713
 31
0.0
 11
37.21920538717453
 21
26.21166934713713
 31
0.0
  0
LINE
  5
478
330
1F
100
AcDbEntity
  8
0
  6
Continuous
 62
     7
100
AcDbLine
 10
37.21920538717453
 20
26.21166934713713
 30
0.0
 11
37.19681540117453
 21
26.21167687643713
 31
0.0
  0
LINE
  5
479
330
1F
100
AcDbEntity
  8
0
  6
Continuous
 62
     7
100
AcDbLine
 10
37.19681540117453
 20
26.21167687643713
 30
0.0
 11
36.97712762537452
 21
26.21181137283713
 31
0.0
  0
LINE
  5
47A
330
1F
100
AcDbEntity
  8
0
  6
Continuous
 62
     7
100
AcDbLine
 10
36.97712762537452
 20
26.21181137283713
 30
0.0
 11
36.95439891217453
 21
26.21182433153713
 31
0.0
  0
LINE
  5
47B
330
1F
100
AcDbEntity
  8
0
  6
Continuous
 62
     7
100
AcDbLine
 10
36.95439891217453
 20
26.21182433153713
 30
0.0
 11
36.61733137407452
 21
26.21192267203713
 31
0.0
  0
LINE
  5
47C
330
1F
100
AcDbEntity
  8
0
  6
Continuous
 62
     7
100
AcDbLine
 10
36.61733137407452
 20
26.21192267203713
 30
0.0
 11
36.57010220127452
 21
26.21193023363713
 31
0.0
  0
LINE
  5
47D
330
1F
100
AcDbEntity
  8
0
  6
Continuous
 62
     7
100
AcDbLine
 10
36.57010220127452
 20
26.21193023363713
 30
0.0
 11
35.89981174777452
 21
26.21205522403713
 31
0.0
  0
LINE
  5
47E
330
1F
100
AcDbEntity
  8
0
  6
Continuous
 62
     7
100
AcDbLine
 10
35.89981174777452
 20
26.21205522403713
 30
0.0
 11
35.87576614617453
 21
26.21205864763713
 31
0.0
  0
LINE
  5
47F
330
1F
100
AcDbEntity
  8
0
  6
Continuous
 62
     7
100
AcDbLine
 10
35.87576614617453
 20
26.21205864763713
 30
0.0
 11
34.19159371027453
 21
26.21219888173713
 31
0.0
  0
LINE
  5
480
330
1F
100
AcDbEntity
  8
0
  6
Continuous
 62
     7
100
AcDbLine
 10
34.19159371027453
 20
26.21219888173713
 30
0.0
 11
34.17103934797453
 21
26.21219975403713
 31
0.0
  0
LINE
  5
481
330
1F
100
AcDbEntity
  8
0
  6
Continuous
 62
     7
100
AcDbLine
 10
34.17103934797453
 20
26.21219975403713
 30
0.0
 11
34.04391338757453
 21
26.21220483103713
 31
0.0
  0
SPLINE
  5
482
330
1F
100
AcDbEntity
  8
0
  6
Continuous
 62
     7
100
AcDbSpline
210
0.0
220
0.0
230
1.0
 70
     8
 71
     3
 72
    11
 73
     7
 74
     5
 42
0.0000000001
 43
0.0000000001
 44
0.0000000001
 12
-0.0066206702589567
 22
0.9999780831224864
 32
0.0
 13
-0.9999406548302614
 23
-0.0108943479670992
 33
0.0
 40
0.0
 40
0.0
 40
0.0
 40
0.0
 40
0.0357206117607214
 40
0.0658158161987951
 40
0.0861640093160559
 40
0.095108431651673
 40
0.095108431651673
 40
0.095108431651673
 40
0.095108431651673
 10
34.04391332827453
 20
26.21220482013713
 30
0.0
 10
34.04383449681056
 20
26.22411142976261
 30
0.0
 10
34.04307142506843
 20
26.24585382284966
 30
0.0
 10
34.0390265838835
 20
26.27510819910226
 30
0.0
 10
34.03521321918338
 20
26.29293059888745
 30
0.0
 10
34.02889285995031
 20
26.30343059445356
 30
0.0
 10
34.02591156277452
 20
26.30339811323713
 30
0.0
 11
34.04391332827453
 21
26.21220482013713
 31
0.0
 11
34.04232088867452
 21
26.24788991843713
 31
0.0
 11
34.03825897967453
 21
26.27770974783713
 31
0.0
 11
34.03233874927453
 21
26.29717766593713
 31
0.0
 11
34.02591156277452
 21
26.30339811323713
 31
0.0
  0
LINE
  5
483
330
1F
100
AcDbEntity
  8
_SURFACE
  6
Continuous
 62
     7
100
AcDbLine
 10
36.00222882927453
 20
19.51575499493713
 30
0.0
 11
36.06458326307452
 21
19.50918680153713
 31
0.0
  0
LINE
  5
484
330
1F
100
AcDbEntity
  8
_SURFACE
  6
Continuous
 62
     7
100
AcDbLine
 10
36.06386958187453
 20
19.50926197703713
 30
0.0
 11
35.61730175207453
 21
19.55637163923713
 31
0.0
  0
LINE
  5
485
330
1F
100
AcDbEntity
  8
_SURFACE
  6
Continuous
 62
     7
100
AcDbLine
 10
35.61730175207453
 20
19.55637163923713
 30
0.0
 11
35.59577867197453
 21
19.55864591433712
 31
0.0
  0
SPLINE
  5
486
330
1F
100
AcDbEntity
  8
_SURFACE
  6
Continuous
 62
     7
100
AcDbSpline
210
0.0
220
0.0
230
1.0
 70
     8
 71
     3
 72
    39
 73
    35
 74
    33
 42
0.0000000001
 43
0.0000000001
 44
0.0000000001
 12
0.9942524698951414
 22
-0.1070608523570173
 32
0.0
 13
-0.9944627937370388
 23
0.1050892566950795
 33
0.0
 40
0.0
 40
0.0
 40
0.0
 40
0.0
 40
0.2882598332300716
 40
0.5292573421502943
 40
0.767653874185165
 40
0.9982604797094952
 40
1.154606134160424
 40
1.378156574583299
 40
1.713049850378649
 40
1.911279073866257
 40
2.104736934660299
 40
2.271988850969203
 40
2.600146670887793
 40
2.826450676616937
 40
2.957798253624594
 40
3.079420828743633
 40
3.190379942773566
 40
3.27399638891336
 40
3.410734263295598
 40
3.466034462259957
 40
3.52301885339133
 40
3.579401359355572
 40
3.603629337526855
 40
3.645788637215659
 40
3.676677702497114
 40
3.723245224885262
 40
3.773989568050747
 40
3.820403831716561
 40
3.864659497511196
 40
3.910315957216923
 40
3.987895533144018
 40
4.032776953575193
 40
4.069400288388947
 40
4.147863043619101
 40
4.147863043619101
 40
4.147863043619101
 40
4.147863043619101
 10
32.40837871587452
 20
19.89873340683713
 30
0.0
 10
32.50391306626138
 20
19.88844629235516
 30
0.0
 10
32.67931983728298
 20
19.86957385585936
 30
0.0
 10
32.93374044335305
 20
19.84224078452843
 30
0.0
 10
33.16905689410488
 20
19.81699436882576
 30
0.0
 10
33.37632019148802
 20
19.79478715207443
 30
0.0
 10
33.57866546857574
 20
19.77313062168204
 30
0.0
 10
33.81557845729517
 20
19.74780174256912
 30
0.0
 10
34.06637804605153
 20
19.72103102006593
 30
0.0
 10
34.30720760078826
 20
19.69536403039613
 30
0.0
 10
34.49247376788486
 20
19.67564139774551
 30
0.0
 10
34.72080882292382
 20
19.65135958216291
 30
0.0
 10
34.96003520253771
 20
19.6259570379732
 30
0.0
 10
35.18736447958924
 20
19.60185863014824
 30
0.0
 10
35.34623462378855
 20
19.58503613256453
 30
0.0
 10
35.46687028070393
 20
19.57227249165389
 30
0.0
 10
35.57168785167564
 20
19.56119078937678
 30
0.0
 10
35.68150650356054
 20
19.54958783188226
 30
0.0
 10
35.77291891018005
 20
19.53993674220562
 30
0.0
 10
35.85539841532292
 20
19.53123460245436
 30
0.0
 10
35.91151108161146
 20
19.52531676977149
 30
0.0
 10
35.95651509655393
 20
19.52057238014702
 30
0.0
 10
35.99850828433769
 20
19.51614697675695
 30
0.0
 10
36.02454415936445
 20
19.51340353692437
 30
0.0
 10
36.08646663516207
 20
19.50688210010818
 30
0.0
 10
36.00726810428457
 20
19.51522322723166
 30
0.0
 10
35.97138959011642
 20
19.51900478889635
 30
0.0
 10
35.92156695571996
 20
19.52425654720457
 30
0.0
 10
35.87710712656366
 20
19.52894500686253
 30
0.0
 10
35.82135377779662
 20
19.53482615056969
 30
0.0
 10
35.76571420436327
 20
19.54069792647867
 30
0.0
 10
35.71296326492099
 20
19.54626718525437
 30
0.0
 10
35.65993911743703
 20
19.55186684624036
 30
0.0
 10
35.62178810223135
 20
19.555897383462
 30
0.0
 10
35.59577867197453
 20
19.55864591433712
 30
0.0
 11
32.40837871587452
 21
19.89873340683713
 31
0.0
 11
32.69498442737452
 21
19.86789677943713
 31
0.0
 11
32.93460309547453
 21
19.84215395123713
 31
0.0
 11
33.17163932477452
 21
19.81672301563713
 31
0.0
 11
33.40093353307452
 21
19.79215530203713
 31
0.0
 11
33.55639134587452
 21
19.77551702973713
 31
0.0
 11
33.77867502437452
 21
19.75175223043713
 31
0.0
 11
34.11167661407453
 21
19.71620722473713
 31
0.0
 11
34.30878952527453
 21
19.69519948133713
 31
0.0
 11
34.50116040817453
 21
19.67472053323713
 31
0.0
 11
34.66747456387453
 21
19.65703423563713
 31
0.0
 11
34.99379783837453
 21
19.62238347383713
 31
0.0
 11
35.21884093867453
 21
19.59852753083713
 31
0.0
 11
35.34945829707452
 21
19.58469670763713
 31
0.0
 11
35.47040579637453
 21
19.57190009903713
 31
0.0
 11
35.58074994157453
 21
19.56023413973713
 31
0.0
 11
35.66390355057452
 21
19.55144850513713
 31
0.0
 11
35.79988566487453
 21
19.53709194283713
 31
0.0
 11
35.85488062027453
 21
19.53128962553712
 31
0.0
 11
35.91155072317453
 21
19.52531298183713
 31
0.0
 11
35.96762252007453
 21
19.51940192683712
 31
0.0
 11
35.99171706727452
 21
19.51686269043713
 31
0.0
 11
36.03364430837453
 21
19.51244533783713
 31
0.0
 11
36.06436346497452
 21
19.50920994423713
 31
0.0
 11
36.01805213127452
 21
19.51408790613713
 31
0.0
 11
35.96758719347453
 21
19.51940565153712
 31
0.0
 11
35.92142868727453
 21
19.52427146873713
 31
0.0
 11
35.87741704887453
 21
19.52891255053713
 31
0.0
 11
35.83201250367453
 21
19.53370207953713
 31
0.0
 11
35.75486135217453
 21
19.54184397263713
 31
0.0
 11
35.71022799297452
 21
19.54655620633713
 31
0.0
 11
35.67380718817452
 21
19.55040245523713
 31
0.0
 11
35.59577867197453
 21
19.55864591433712
 31
0.0
  0
SPLINE
  5
487
330
1F
100
AcDbEntity
  8
_SURFACE
  6
Continuous
 62
     7
100
AcDbSpline
210
0.0
220
0.0
230
1.0
 70
     8
 71
     3
 72
    12
 73
     8
 74
     6
 42
0.0000000001
 43
0.0000000001
 44
0.0000000001
 12
0.9944222972816943
 22
-0.1054717719060303
 32
0.0
 13
0.1269217537107375
 23
0.9919127322678095
 33
0.0
 40
0.0
 40
0.0
 40
0.0
 40
0.0
 40
0.0124769595207001
 40
0.0214473377894987
 40
0.0343565484656767
 40
0.0521676288197439
 40
0.0672890377415475
 40
0.0672890377415475
 40
0.0672890377415475
 40
0.0672890377415475
 10
32.38609965967453
 20
19.75626124783713
 30
0.0
 10
32.39023544859108
 20
19.75582259216091
 30
0.0
 10
32.39108837493033
 20
19.76756004303831
 30
0.0
 10
32.39318908408534
 20
19.77729944600014
 30
0.0
 10
32.3950837868651
 20
19.7909563175501
 30
0.0
 10
32.39721038434792
 20
19.80586890287265
 30
0.0
 10
32.39864269202822
 20
19.816799672724
 30
0.0
 10
32.39928243727452
 20
19.82179937873713
 30
0.0
 11
32.38609965967453
 21
19.75626124783713
 31
0.0
 11
32.39138298247453
 21
19.76756438983713
 31
0.0
 11
32.39289893677453
 21
19.77640574543713
 31
0.0
 11
32.39484248217453
 21
19.78916781233713
 31
0.0
 11
32.39730724427453
 21
19.80680752693713
 31
0.0
 11
32.39928243727452
 21
19.82179937873713
 31
0.0
  0
SPLINE
  5
488
330
1F
100
AcDbEntity
  8
_SURFACE
  6
Continuous
 62
     7
100
AcDbSpline
210
0.0
220
0.0
230
1.0
 70
     8
 71
     3
 72
    10
 73
     6
 74
     4
 42
0.0000000001
 43
0.0000000001
 44
0.0000000001
 12
-0.9944222972305219
 22
0.1054717723885001
 32
0.0
 13
0.2095169782685757
 23
0.9778050090980334
 33
0.0
 40
0.0
 40
0.0
 40
0.0
 40
0.0
 40
0.0116454637968587
 40
0.0429156342357776
 40
0.0574220700813973
 40
0.0574220700813973
 40
0.0574220700813973
 40
0.0574220700813973
 10
20.93548184907453
 20
20.97075227553713
 30
0.0
 10
20.93162167945413
 20
20.97116169810611
 30
0.0
 10
20.94525429039116
 20
20.99301725725686
 30
0.0
 10
20.94348057394034
 20
21.006213096408
 30
0.0
 10
20.94617230190658
 20
21.02221940742579
 30
0.0
 10
20.94718541677452
 20
21.02694756263713
 30
0.0
 11
20.93548184907453
 21
20.97075227553713
 31
0.0
 11
20.93791884687453
 21
20.98213989463713
 31
0.0
 11
20.94487861517452
 21
21.01262571403713
 31
0.0
 11
20.94718541677452
 21
21.02694756263713
 31
0.0
  0
SPLINE
  5
489
330
1F
100
AcDbEntity
  8
_SURFACE
  6
Continuous
 62
     7
100
AcDbSpline
210
0.0
220
0.0
230
1.0
 70
     8
 71
     3
 72
     8
 73
     4
 74
     2
 42
0.0000000001
 43
0.0000000001
 44
0.0000000001
 12
0.2095169785182541
 22
0.9778050090445342
 32
0.0
 13
0.2500175977535502
 23
0.9682412926608449
 33
0.0
 40
0.0
 40
0.0
 40
0.0
 40
0.0
 40
0.0338953430842395
 40
0.0338953430842395
 40
0.0338953430842395
 40
0.0338953430842395
 10
20.94718541677452
 20
21.02694756263713
 30
0.0
 10
20.94955263339747
 20
21.03799524138748
 30
0.0
 10
20.95278925862354
 20
21.04883859693611
 30
0.0
 10
20.95561406937453
 20
21.05977822053713
 30
0.0
 11
20.94718541677452
 21
21.02694756263713
 31
0.0
 11
20.95561406937453
 21
21.05977822053713
 31
0.0
  0
SPLINE
  5
48A
330
1F
100
AcDbEntity
  8
_SURFACE
  6
Continuous
 62
     7
100
AcDbSpline
210
0.0
220
0.0
230
1.0
 70
     8
 71
     3
 72
     8
 73
     4
 74
     2
 42
0.0000000001
 43
0.0000000001
 44
0.0000000001
 12
0.2500175968695803
 22
0.968241292889102
 32
0.0
 13
0.2308914551937597
 23
0.9729795146448399
 33
0.0
 40
0.0
 40
0.0
 40
0.0
 40
0.0
 40
0.0588173312081831
 40
0.0588173312081831
 40
0.0588173312081831
 40
0.0588173312081831
 10
20.95561406937453
 20
21.05977822053713
 30
0.0
 10
20.96051585864218
 20
21.0787613434749
 30
0.0
 10
20.96416470337677
 20
21.09804728807992
 30
0.0
 10
20.96869150977452
 20
21.11712330753713
 30
0.0
 11
20.95561406937453
 21
21.05977822053713
 31
0.0
 11
20.96869150977452
 21
21.11712330753713
 31
0.0
  0
LINE
  5
48B
330
1F
100
AcDbEntity
  8
_SURFACE
  6
Continuous
 62
     7
100
AcDbLine
 10
32.40837375217453
 20
19.89874289733713
 30
0.0
 11
20.96869277537453
 21
21.11712723833713
 31
0.0
  0
SPLINE
  5
48C
330
1F
100
AcDbEntity
  8
_SURFACE
  6
Continuous
 62
     7
100
AcDbSpline
210
0.0
220
0.0
230
1.0
 70
     8
 71
     3
 72
    31
 73
    27
 74
    25
 42
0.0000000001
 43
0.0000000001
 44
0.0000000001
 12
0.0726558979608413
 22
-0.9973570677001811
 32
0.0
 13
0.993849234315698
 23
-0.110741588620089
 33
0.0
 40
0.0
 40
0.0
 40
0.0
 40
0.0
 40
0.0248296021961465
 40
0.0795015932714025
 40
0.1037338417683302
 40
0.1787812728874588
 40
0.2224892270526226
 40
0.3145706601870224
 40
0.440714039871124
 40
0.57844345562053
 40
0.7443825105973677
 40
0.9420082992210632
 40
1.091564409486305
 40
1.179640654352187
 40
1.366672993247644
 40
1.564798527677031
 40
1.67142840885816
 40
1.857222937123854
 40
2.08778974835667
 40
2.254888879511646
 40
2.429483655640661
 40
2.69133507504141
 40
2.957861035639179
 40
3.234920286035996
 40
3.516230799600724
 40
3.870757309472391
 40
3.870757309472391
 40
3.870757309472391
 40
3.870757309472391
 10
17.12129924987452
 20
21.54163048503713
 30
0.0
 10
17.12190058888905
 20
21.53337582529096
 30
0.0
 10
17.16403380046692
 20
21.54577941121001
 30
0.0
 10
17.18914120624503
 20
21.53310836449221
 30
0.0
 10
17.24197673692452
 20
21.52934056569947
 30
0.0
 10
17.28851497335778
 20
21.52338747154555
 30
0.0
 10
17.35859405118814
 20
21.51600962198404
 30
0.0
 10
17.44529393600387
 20
21.50648285847616
 30
0.0
 10
17.56329229341089
 20
21.49368717156438
 30
0.0
 10
17.70570412415148
 20
21.47814218283202
 30
0.0
 10
17.87181855228379
 20
21.45999701331467
 30
0.0
 10
18.04184093930128
 20
21.44137717159889
 30
0.0
 10
18.18606194729647
 20
21.42555492233961
 30
0.0
 10
18.3267704592518
 20
21.41009883223578
 30
0.0
 10
18.4835695531508
 20
21.39285228666194
 30
0.0
 10
18.64651268224194
 20
21.37489861274042
 30
0.0
 10
18.80904320972694
 20
21.35696757277255
 30
0.0
 10
18.98231988501795
 20
21.33782900738138
 30
0.0
 10
19.17562757817569
 20
21.31644535089373
 30
0.0
 10
19.36522166876023
 20
21.2954451961983
 30
0.0
 10
19.56517809693269
 20
21.27327463440378
 30
0.0
 10
19.79807160056675
 20
21.24742163186175
 30
0.0
 10
20.06490743156989
 20
21.21776447552842
 30
0.0
 10
20.33818659376169
 20
21.18736079459333
 30
0.0
 10
20.64061636797545
 20
21.15368638409899
 30
0.0
 10
20.85125876511433
 20
21.1302183313075
 30
0.0
 10
20.96870739857452
 20
21.11713138833713
 30
0.0
 11
17.12129924987452
 21
21.54163048503713
 31
0.0
 11
17.14598551787452
 21
21.53896640593713
 31
0.0
 11
17.20034081007452
 21
21.53309028323713
 31
0.0
 11
17.22443235367452
 21
21.53048271843713
 31
0.0
 11
17.29904299777452
 21
21.52239762693713
 31
0.0
 11
17.34249593037452
 21
21.51768297893713
 31
0.0
 11
17.43403876897452
 21
21.50773817983713
 31
0.0
 11
17.55944168437453
 21
21.49409043103713
 31
0.0
 11
17.69635951257452
 21
21.47916058563713
 31
0.0
 11
17.86131685127452
 21
21.46113709053713
 31
0.0
 11
18.05776839797452
 21
21.43962564873713
 31
0.0
 11
18.20643251767452
 21
21.42331584703713
 31
0.0
 11
18.29398217647452
 21
21.41369908283713
 31
0.0
 11
18.47989335297452
 21
21.39325084953713
 31
0.0
 11
18.67682711697452
 21
21.37155246273713
 31
0.0
 11
18.78281395537452
 21
21.35985965953713
 31
0.0
 11
18.96748549217452
 21
21.33946284043713
 31
0.0
 11
19.19665451057452
 21
21.31411297953713
 31
0.0
 11
19.36273797217452
 21
21.29571723503713
 31
0.0
 11
19.53626937007452
 21
21.27647691813713
 31
0.0
 11
19.79652229127452
 21
21.24758777053713
 31
0.0
 11
20.06141729347453
 21
21.21814756873713
 31
0.0
 11
20.33677773897453
 21
21.18751338383713
 31
0.0
 11
20.61636063427453
 21
21.15638446323713
 31
0.0
 11
20.96870739857452
 21
21.11713138833713
 31
0.0
  0
ENDSEC
  0
SECTION
  2
OBJECTS
  0
DICTIONARY
  5
C
330
0
100
AcDbDictionary
281
     1
  3
ACAD_COLOR
350
C9
  3
ACAD_GROUP
350
D
  3
ACAD_LAYOUT
350
1A
  3
ACAD_MATERIAL
350
C8
  3
ACAD_MLEADERSTYLE
350
2EC
  3
ACAD_MLINESTYLE
350
17
  3
ACAD_PLOTSETTINGS
350
19
  3
ACAD_PLOTSTYLENAME
350
E
  3
ACAD_SCALELIST
350
2CA
  3
ACAD_TABLESTYLE
350
123
  3
ACAD_VISUALSTYLE
350
296
  3
ACDB_RECOMPOSE_DATA
350
30D
  3
AcDbVariableDictionary
350
9E
  3
AcmDictionary
350
63
  3
AMG
350
49
  3
AMGSNAPSETTINGS
350
41E
  0
DICTIONARY
  5
49B
330
10
100
AcDbDictionary
280
     1
281
     1
  3
ADSK_XREC_LAYER_RECONCILED
360
49C
  0
DICTIONARY
  5
49D
330
3AE
100
AcDbDictionary
280
     1
281
     1
  3
ADSK_XREC_LAYER_RECONCILED
360
49E
  0
DICTIONARY
  5
49F
330
3AF
100
AcDbDictionary
280
     1
281
     1
  3
ADSK_XREC_LAYER_RECONCILED
360
4A0
  0
DICTIONARY
  5
4A1
330
3B0
100
AcDbDictionary
280
     1
281
     1
  3
ADSK_XREC_LAYER_RECONCILED
360
4A2
  0
DICTIONARY
  5
99
330
1F
100
AcDbDictionary
280
     1
281
     1
  0
DICTIONARY
  5
C9
102
{ACAD_REACTORS
330
C
102
}
330
C
100
AcDbDictionary
281
     1
  0
DICTIONARY
  5
D
102
{ACAD_REACTORS
330
C
102
}
330
C
100
AcDbDictionary
281
     1
  0
DICTIONARY
  5
1A
102
{ACAD_REACTORS
330
C
102
}
330
C
100
AcDbDictionary
281
     1
  3
Layout1
350
1E
  3
Layout2
350
26
  3
Model
350
22
  0
DICTIONARY
  5
C8
102
{ACAD_REACTORS
330
C
102
}
330
C
100
AcDbDictionary
281
     1
  3
ByBlock
350
294
  3
ByLayer
350
293
  3
Global
350
295
  0
DICTIONARY
  5
2EC
102
{ACAD_REACTORS
330
C
102
}
330
C
100
AcDbDictionary
281
     1
  3
Standard
350
2ED
  0
DICTIONARY
  5
17
102
{ACAD_REACTORS
330
C
102
}
330
C
100
AcDbDictionary
281
     1
  3
Standard
350
18
  0
DICTIONARY
  5
19
102
{ACAD_REACTORS
330
C
102
}
330
C
100
AcDbDictionary
281
     1
  0
ACDBDICTIONARYWDFLT
  5
E
102
{ACAD_REACTORS
330
C
102
}
330
C
100
AcDbDictionary
281
     1
  3
Normal
350
F
100
AcDbDictionaryWithDefault
340
F
  0
DICTIONARY
  5
2CA
102
{ACAD_REACTORS
330
C
102
}
330
C
100
AcDbDictionary
281
     1
  3
A0
350
2CB
  3
A1
350
2CC
  3
A2
350
2CD
  3
A3
350
2CE
  3
A4
350
2CF
  3
A5
350
2D0
  3
A6
350
2D1
  3
A7
350
2D2
  3
A8
350
2D3
  3
A9
350
2D4
  3
B0
350
2D5
  3
B1
350
2D6
  3
B2
350
2D7
  3
B3
350
2D8
  3
B4
350
2D9
  3
B5
350
2DA
  3
B6
350
2DB
  3
B7
350
2DC
  3
B8
350
2DD
  3
B9
350
2DE
  3
C0
350
2DF
  3
C1
350
2E0
  3
C2
350
2E1
  3
C3
350
2E2
  3
C4
350
2E3
  3
C5
350
2E4
  3
C6
350
2E5
  3
C7
350
2E6
  3
C8
350
2E7
  3
C9
350
2E8
  3
D0
350
2E9
  3
D1
350
2EA
  3
D2
350
2EB
  0
DICTIONARY
  5
123
102
{ACAD_REACTORS
330
C
102
}
330
C
100
AcDbDictionary
281
     1
  3
Standard
350
124
  0
DICTIONARY
  5
296
102
{ACAD_REACTORS
330
C
102
}
330
C
100
AcDbDictionary
281
     1
  3
2dWireframe
350
29C
  3
3D Hidden
350
29E
  3
3dWireframe
350
29D
  3
Basic
350
29B
  3
Brighten
350
2A2
  3
ColorChange
350
2A6
  3
Conceptual
350
29F
  3
Dim
350
2A1
  3
Facepattern
350
2A5
  3
Flat
350
297
  3
FlatWithEdges
350
298
  3
Gouraud
350
299
  3
GouraudWithEdges
350
29A
  3
Linepattern
350
2A4
  3
Realistic
350
2A0
  3
Thicken
350
2A3
  0
XRECORD
  5
30D
102
{ACAD_REACTORS
330
C
102
}
330
C
100
AcDbXrecord
280
     1
 90
        1
330
124
  0
DICTIONARY
  5
9E
102
{ACAD_REACTORS
330
C
102
}
330
C
100
AcDbDictionary
281
     1
  3
CANNOSCALE
350
310
  3
CMLEADERSTYLE
350
30E
  3
CTABLESTYLE
350
144
  3
DIMASSOC
350
A0
  3
INDEXCTL
350
9F
  3
LAYEREVAL
350
36B
  3
LAYERNOTIFY
350
36C
  3
LIGHTINGUNITS
350
311
  3
MSLTSCALE
350
30F
  0
DICTIONARY
  5
63
102
{ACAD_REACTORS
330
C
102
}
330
C
100
AcDbDictionary
281
     1
  3
AcmStdDictionary
350
69
  3
AMDTSECTSYM_ARROWCOLOR
350
12C
  0
DICTIONARY
  5
49
102
{ACAD_REACTORS
330
C
102
}
330
C
100
AcDbDictionary
281
     1
  0
DICTIONARY
  5
41E
102
{ACAD_REACTORS
330
C
102
}
330
C
100
AcDbDictionary
281
     1
  0
XRECORD
  5
49C
102
{ACAD_REACTORS
330
49B
102
}
330
49B
100
AcDbXrecord
280
     1
290
     1
  0
XRECORD
  5
49E
102
{ACAD_REACTORS
330
49D
102
}
330
49D
100
AcDbXrecord
280
     1
290
     1
  0
XRECORD
  5
4A0
102
{ACAD_REACTORS
330
49F
102
}
330
49F
100
AcDbXrecord
280
     1
290
     1
  0
XRECORD
  5
4A2
102
{ACAD_REACTORS
330
4A1
102
}
330
4A1
100
AcDbXrecord
280
     1
290
     1
  0
LAYOUT
  5
1E
102
{ACAD_REACTORS
330
1A
102
}
330
1A
100
AcDbPlotSettings
  1

  2

  4

  6

 40
0.0
 41
0.0
 42
0.0
 43
0.0
 44
0.0
 45
0.0
 46
0.0
 47
0.0
 48
0.0
 49
0.0
140
0.0
141
0.0
142
1.0
143
1.0
 70
   688
 72
     0
 73
     0
 74
     5
  7

 75
    16
147
1.0
 76
     0
 77
     2
 78
   300
148
0.0
149
0.0
100
AcDbLayout
  1
Layout1
 70
     1
 71
     1
 10
0.0
 20
0.0
 11
12.0
 21
9.0
 12
0.0
 22
0.0
 32
0.0
 14
1.000000000000000E+20
 24
1.000000000000000E+20
 34
1.000000000000000E+20
 15
-1.000000000000000E+20
 25
-1.000000000000000E+20
 35
-1.000000000000000E+20
146
0.0
 13
0.0
 23
0.0
 33
0.0
 16
1.0
 26
0.0
 36
0.0
 17
0.0
 27
1.0
 37
0.0
 76
     0
330
1B
  0
LAYOUT
  5
26
102
{ACAD_REACTORS
330
1A
102
}
330
1A
100
AcDbPlotSettings
  1

  2

  4

  6

 40
0.0
 41
0.0
 42
0.0
 43
0.0
 44
0.0
 45
0.0
 46
0.0
 47
0.0
 48
0.0
 49
0.0
140
0.0
141
0.0
142
1.0
143
1.0
 70
   688
 72
     0
 73
     0
 74
     5
  7

 75
    16
147
1.0
 76
     0
 77
     2
 78
   300
148
0.0
149
0.0
100
AcDbLayout
  1
Layout2
 70
     1
 71
     2
 10
0.0
 20
0.0
 11
12.0
 21
9.0
 12
0.0
 22
0.0
 32
0.0
 14
0.0
 24
0.0
 34
0.0
 15
0.0
 25
0.0
 35
0.0
146
0.0
 13
0.0
 23
0.0
 33
0.0
 16
1.0
 26
0.0
 36
0.0
 17
0.0
 27
1.0
 37
0.0
 76
     0
330
23
  0
LAYOUT
  5
22
102
{ACAD_REACTORS
330
1A
102
}
330
1A
100
AcDbPlotSettings
  1

  2

  4

  6

 40
0.0
 41
0.0
 42
0.0
 43
0.0
 44
0.0
 45
0.0
 46
0.0
 47
0.0
 48
0.0
 49
0.0
140
0.0
141
0.0
142
1.0
143
1.0
 70
  1712
 72
     0
 73
     0
 74
     0
  7

 75
     0
147
1.0
 76
     0
 77
     2
 78
   300
148
0.0
149
0.0
100
AcDbLayout
  1
Model
 70
     1
 71
     0
 10
0.0
 20
0.0
 11
12.0
 21
9.0
 12
0.0
 22
0.0
 32
0.0
 14
0.0
 24
0.0
 34
0.0
 15
0.0
 25
0.0
 35
0.0
146
0.0
 13
0.0
 23
0.0
 33
0.0
 16
1.0
 26
0.0
 36
0.0
 17
0.0
 27
1.0
 37
0.0
 76
     0
330
1F
331
291
  0
MATERIAL
  5
294
102
{ACAD_REACTORS
330
C8
102
}
330
C8
100
AcDbMaterial
  1
ByBlock
 73
     1
 78
     1
172
     1
176
     1
270
     1
274
     1
 94
       63
  0
MATERIAL
  5
293
102
{ACAD_REACTORS
330
C8
102
}
330
C8
100
AcDbMaterial
  1
ByLayer
 73
     1
 78
     1
172
     1
176
     1
270
     1
274
     1
 94
       63
  0
MATERIAL
  5
295
102
{ACAD_REACTORS
330
C8
102
}
330
C8
100
AcDbMaterial
  1
Global
 73
     1
 78
     1
172
     1
176
     1
270
     1
274
     1
 94
       63
  0
MLEADERSTYLE
  5
2ED
102
{ACAD_REACTORS
330
2EC
102
}
330
2EC
100
AcDbMLeaderStyle
170
     2
171
     1
172
     0
 90
        2
 40
0.0
 41
0.0
173
     1
 91
-1056964608
340
14
 92
       -2
290
     1
 42
0.09
291
     1
 43
0.36
  3
Standard
 44
0.18
300

342
11
174
     1
178
     6
175
     1
176
     0
 93
-1056964608
 45
0.18
292
     0
297
     0
 46
0.18
 94
-1056964608
 47
1.0
 49
1.0
140
1.0
293
     1
141
0.0
294
     1
177
     0
142
1.0
295
     0
296
     0
143
0.125
1001
ACAD_MLEADERVER
1070
     2
  0
MLINESTYLE
  5
18
102
{ACAD_REACTORS
330
17
102
}
330
17
100
AcDbMlineStyle
  2
STANDARD
 70
     0
  3

 62
   256
 51
90.0
 52
90.0
 71
     2
 49
0.5
 62
   256
  6
BYLAYER
 49
-0.5
 62
   256
  6
BYLAYER
  0
ACDBPLACEHOLDER
  5
F
102
{ACAD_REACTORS
330
E
102
}
330
E
  0
SCALE
  5
2CB
102
{ACAD_REACTORS
330
2CA
102
}
330
2CA
100
AcDbScale
 70
     0
300
1:1
140
1.0
141
1.0
290
     1
  0
SCALE
  5
2CC
102
{ACAD_REACTORS
330
2CA
102
}
330
2CA
100
AcDbScale
 70
     0
300
1:2
140
1.0
141
2.0
290
     0
  0
SCALE
  5
2CD
102
{ACAD_REACTORS
330
2CA
102
}
330
2CA
100
AcDbScale
 70
     0
300
1:4
140
1.0
141
4.0
290
     0
  0
SCALE
  5
2CE
102
{ACAD_REACTORS
330
2CA
102
}
330
2CA
100
AcDbScale
 70
     0
300
1:5
140
1.0
141
5.0
290
     0
  0
SCALE
  5
2CF
102
{ACAD_REACTORS
330
2CA
102
}
330
2CA
100
AcDbScale
 70
     0
300
1:8
140
1.0
141
8.0
290
     0
  0
SCALE
  5
2D0
102
{ACAD_REACTORS
330
2CA
102
}
330
2CA
100
AcDbScale
 70
     0
300
1:10
140
1.0
141
10.0
290
     0
  0
SCALE
  5
2D1
102
{ACAD_REACTORS
330
2CA
102
}
330
2CA
100
AcDbScale
 70
     0
300
1:16
140
1.0
141
16.0
290
     0
  0
SCALE
  5
2D2
102
{ACAD_REACTORS
330
2CA
102
}
330
2CA
100
AcDbScale
 70
     0
300
1:20
140
1.0
141
20.0
290
     0
  0
SCALE
  5
2D3
102
{ACAD_REACTORS
330
2CA
102
}
330
2CA
100
AcDbScale
 70
     0
300
1:30
140
1.0
141
30.0
290
     0
  0
SCALE
  5
2D4
102
{ACAD_REACTORS
330
2CA
102
}
330
2CA
100
AcDbScale
 70
     0
300
1:40
140
1.0
141
40.0
290
     0
  0
SCALE
  5
2D5
102
{ACAD_REACTORS
330
2CA
102
}
330
2CA
100
AcDbScale
 70
     0
300
1:50
140
1.0
141
50.0
290
     0
  0
SCALE
  5
2D6
102
{ACAD_REACTORS
330
2CA
102
}
330
2CA
100
AcDbScale
 70
     0
300
1:100
140
1.0
141
100.0
290
     0
  0
SCALE
  5
2D7
102
{ACAD_REACTORS
330
2CA
102
}
330
2CA
100
AcDbScale
 70
     0
300
2:1
140
2.0
141
1.0
290
     0
  0
SCALE
  5
2D8
102
{ACAD_REACTORS
330
2CA
102
}
330
2CA
100
AcDbScale
 70
     0
300
4:1
140
4.0
141
1.0
290
     0
  0
SCALE
  5
2D9
102
{ACAD_REACTORS
330
2CA
102
}
330
2CA
100
AcDbScale
 70
     0
300
8:1
140
8.0
141
1.0
290
     0
  0
SCALE
  5
2DA
102
{ACAD_REACTORS
330
2CA
102
}
330
2CA
100
AcDbScale
 70
     0
300
10:1
140
10.0
141
1.0
290
     0
  0
SCALE
  5
2DB
102
{ACAD_REACTORS
330
2CA
102
}
330
2CA
100
AcDbScale
 70
     0
300
100:1
140
100.0
141
1.0
290
     0
  0
SCALE
  5
2DC
102
{ACAD_REACTORS
330
2CA
102
}
330
2CA
100
AcDbScale
 70
     0
300
1/128" = 1'-0"
140
0.0078125
141
12.0
290
     0
  0
SCALE
  5
2DD
102
{ACAD_REACTORS
330
2CA
102
}
330
2CA
100
AcDbScale
 70
     0
300
1/64" = 1'-0"
140
0.015625
141
12.0
290
     0
  0
SCALE
  5
2DE
102
{ACAD_REACTORS
330
2CA
102
}
330
2CA
100
AcDbScale
 70
     0
300
1/32" = 1'-0"
140
0.03125
141
12.0
290
     0
  0
SCALE
  5
2DF
102
{ACAD_REACTORS
330
2CA
102
}
330
2CA
100
AcDbScale
 70
     0
300
1/16" = 1'-0"
140
0.0625
141
12.0
290
     0
  0
SCALE
  5
2E0
102
{ACAD_REACTORS
330
2CA
102
}
330
2CA
100
AcDbScale
 70
     0
300
3/32" = 1'-0"
140
0.09375
141
12.0
290
     0
  0
SCALE
  5
2E1
102
{ACAD_REACTORS
330
2CA
102
}
330
2CA
100
AcDbScale
 70
     0
300
1/8" = 1'-0"
140
0.125
141
12.0
290
     0
  0
SCALE
  5
2E2
102
{ACAD_REACTORS
330
2CA
102
}
330
2CA
100
AcDbScale
 70
     0
300
3/16" = 1'-0"
140
0.1875
141
12.0
290
     0
  0
SCALE
  5
2E3
102
{ACAD_REACTORS
330
2CA
102
}
330
2CA
100
AcDbScale
 70
     0
300
1/4" = 1'-0"
140
0.25
141
12.0
290
     0
  0
SCALE
  5
2E4
102
{ACAD_REACTORS
330
2CA
102
}
330
2CA
100
AcDbScale
 70
     0
300
3/8" = 1'-0"
140
0.375
141
12.0
290
     0
  0
SCALE
  5
2E5
102
{ACAD_REACTORS
330
2CA
102
}
330
2CA
100
AcDbScale
 70
     0
300
1/2" = 1'-0"
140
0.5
141
12.0
290
     0
  0
SCALE
  5
2E6
102
{ACAD_REACTORS
330
2CA
102
}
330
2CA
100
AcDbScale
 70
     0
300
3/4" = 1'-0"
140
0.75
141
12.0
290
     0
  0
SCALE
  5
2E7
102
{ACAD_REACTORS
330
2CA
102
}
330
2CA
100
AcDbScale
 70
     0
300
1" = 1'-0"
140
1.0
141
12.0
290
     0
  0
SCALE
  5
2E8
102
{ACAD_REACTORS
330
2CA
102
}
330
2CA
100
AcDbScale
 70
     0
300
1-1/2" = 1'-0"
140
1.5
141
12.0
290
     0
  0
SCALE
  5
2E9
102
{ACAD_REACTORS
330
2CA
102
}
330
2CA
100
AcDbScale
 70
     0
300
3" = 1'-0"
140
3.0
141
12.0
290
     0
  0
SCALE
  5
2EA
102
{ACAD_REACTORS
330
2CA
102
}
330
2CA
100
AcDbScale
 70
     0
300
6" = 1'-0"
140
6.0
141
12.0
290
     0
  0
SCALE
  5
2EB
102
{ACAD_REACTORS
330
2CA
102
}
330
2CA
100
AcDbScale
 70
     0
300
1'-0" = 1'-0"
140
12.0
141
12.0
290
     0
  0
TABLESTYLE
  5
124
102
{ACAD_XDICTIONARY
360
30B
102
}
102
{ACAD_REACTORS
330
123
102
}
330
123
100
AcDbTableStyle
  3
Standard
 70
     0
 71
     0
 40
0.06
 41
0.06
280
     0
281
     0
  7
STANDARD
140
0.18
170
     2
 62
     0
 63
     7
283
     0
 90
      512
 91
        0
  1

274
    -2
284
     1
 64
     0
275
    -2
285
     1
 65
     0
276
    -2
286
     1
 66
     0
277
    -2
287
     1
 67
     0
278
    -2
288
     1
 68
     0
279
    -2
289
     1
 69
     0
  7
STANDARD
140
0.25
170
     5
 62
     0
 63
     7
283
     0
 90
      512
 91
        0
  1

274
    -2
284
     1
 64
     0
275
    -2
285
     1
 65
     0
276
    -2
286
     1
 66
     0
277
    -2
287
     1
 67
     0
278
    -2
288
     1
 68
     0
279
    -2
289
     1
 69
     0
  7
STANDARD
140
0.18
170
     5
 62
     0
 63
     7
283
     0
 90
      512
 91
        0
  1

274
    -2
284
     1
 64
     0
275
    -2
285
     1
 65
     0
276
    -2
286
     1
 66
     0
277
    -2
287
     1
 67
     0
278
    -2
288
     1
 68
     0
279
    -2
289
     1
 69
     0
  0
VISUALSTYLE
  5
29C
102
{ACAD_REACTORS
330
296
102
}
330
296
100
AcDbVisualStyle
  2
2dWireframe
 70
     4
 71
     0
 72
     2
 73
     0
 90
        0
 40
-0.6
 41
-30.0
 62
     5
 63
     7
421
 16777215
 74
     1
 91
        4
 64
     7
 65
   257
 75
     1
175
     1
 42
1.0
 92
        0
 66
   257
 43
1.0
 76
     1
 77
     6
 78
     2
 67
     7
 79
     5
170
     0
171
     0
290
     0
174
     0
 93
        1
 44
0.0
173
     0
291
     0
 45
0.0
  0
VISUALSTYLE
  5
29E
102
{ACAD_REACTORS
330
296
102
}
330
296
100
AcDbVisualStyle
  2
3D Hidden
 70
     6
 71
     1
 72
     2
 73
     2
 90
        0
 40
-0.6
 41
-30.0
 62
     5
 63
     7
421
 16777215
 74
     2
 91
        2
 64
     7
 65
   257
 75
     2
175
     1
 42
40.0
 92
        0
 66
   257
 43
1.0
 76
     1
 77
     6
 78
     2
 67
     7
 79
     3
170
     0
171
     0
290
     0
174
     0
 93
        1
 44
0.0
173
     0
291
     0
 45
0.0
  0
VISUALSTYLE
  5
29D
102
{ACAD_REACTORS
330
296
102
}
330
296
100
AcDbVisualStyle
  2
3dWireframe
 70
     5
 71
     0
 72
     2
 73
     0
 90
        0
 40
-0.6
 41
-30.0
 62
     5
 63
     7
421
 16777215
 74
     1
 91
        4
 64
     7
 65
   257
 75
     1
175
     1
 42
1.0
 92
        0
 66
   257
 43
1.0
 76
     1
 77
     6
 78
     2
 67
     7
 79
     5
170
     0
171
     0
290
     0
174
     0
 93
        1
 44
0.0
173
     0
291
     0
 45
0.0
  0
VISUALSTYLE
  5
29B
102
{ACAD_REACTORS
330
296
102
}
330
296
100
AcDbVisualStyle
  2
Basic
 70
     7
 71
     1
 72
     0
 73
     1
 90
        0
 40
-0.6
 41
-30.0
 62
     5
 63
     7
421
 16777215
 74
     0
 91
        4
 64
     7
 65
   257
 75
     1
175
     1
 42
1.0
 92
        8
 66
     7
 43
1.0
 76
     1
 77
     6
 78
     2
 67
     7
 79
     5
170
     0
171
     0
290
     0
174
     0
 93
        1
 44
0.0
173
     0
291
     1
 45
0.0
  0
VISUALSTYLE
  5
2A2
102
{ACAD_REACTORS
330
296
102
}
330
296
100
AcDbVisualStyle
  2
Brighten
 70
    12
 71
     2
 72
     2
 73
     0
 90
        0
 40
-0.6
 41
-30.0
 62
     5
 63
     7
421
 16777215
 74
     1
 91
        4
 64
     7
 65
   257
 75
     1
175
     1
 42
1.0
 92
        8
 66
     7
 43
1.0
 76
     1
 77
     6
 78
     2
 67
     7
 79
     5
170
     0
171
     0
290
     0
174
     0
 93
        1
 44
50.0
173
     0
291
     1
 45
0.0
  0
VISUALSTYLE
  5
2A6
102
{ACAD_REACTORS
330
296
102
}
330
296
100
AcDbVisualStyle
  2
ColorChange
 70
    16
 71
     2
 72
     2
 73
     3
 90
        0
 40
-0.6
 41
-30.0
 62
     5
 63
     8
421
  8421504
 74
     1
 91
        4
 64
     7
 65
   257
 75
     1
175
     1
 42
1.0
 92
        8
 66
     8
424
  8421504
 43
1.0
 76
     1
 77
     6
 78
     2
 67
     7
 79
     5
170
     0
171
     0
290
     0
174
     0
 93
        1
 44
0.0
173
     0
291
     1
 45
0.0
  0
VISUALSTYLE
  5
29F
102
{ACAD_REACTORS
330
296
102
}
330
296
100
AcDbVisualStyle
  2
Conceptual
 70
     9
 71
     3
 72
     2
 73
     0
 90
        0
 40
-0.6
 41
-30.0
 62
     5
 63
     7
421
 16777215
 74
     2
 91
        2
 64
     7
 65
   257
 75
     1
175
     1
 42
40.0
 92
        8
 66
     7
 43
1.0
 76
     1
 77
     6
 78
     2
 67
     7
 79
     3
170
     0
171
     0
290
     0
174
     0
 93
        1
 44
0.0
173
     0
291
     0
 45
0.0
  0
VISUALSTYLE
  5
2A1
102
{ACAD_REACTORS
330
296
102
}
330
296
100
AcDbVisualStyle
  2
Dim
 70
    11
 71
     2
 72
     2
 73
     0
 90
        0
 40
-0.6
 41
-30.0
 62
     5
 63
     7
421
 16777215
 74
     1
 91
        4
 64
     7
 65
   257
 75
     1
175
     1
 42
1.0
 92
        8
 66
     7
 43
1.0
 76
     1
 77
     6
 78
     2
 67
     7
 79
     5
170
     0
171
     0
290
     0
174
     0
 93
        1
 44
-50.0
173
     0
291
     1
 45
0.0
  0
VISUALSTYLE
  5
2A5
102
{ACAD_REACTORS
330
296
102
}
330
296
100
AcDbVisualStyle
  2
Facepattern
 70
    15
 71
     2
 72
     2
 73
     0
 90
        0
 40
-0.6
 41
-30.0
 62
     5
 63
     7
421
 16777215
 74
     1
 91
        4
 64
     7
 65
   257
 75
     1
175
     1
 42
1.0
 92
        8
 66
     7
 43
1.0
 76
     1
 77
     6
 78
     2
 67
     7
 79
     5
170
     0
171
     0
290
     0
174
     0
 93
        1
 44
0.0
173
     0
291
     1
 45
0.0
  0
VISUALSTYLE
  5
297
102
{ACAD_REACTORS
330
296
102
}
330
296
100
AcDbVisualStyle
  2
Flat
 70
     0
 71
     2
 72
     1
 73
     1
 90
        2
 40
-0.6
 41
30.0
 62
     5
 63
     7
421
 16777215
 74
     0
 91
        4
 64
     7
 65
   257
 75
     1
175
     1
 42
1.0
 92
        8
 66
     7
 43
1.0
 76
     1
 77
     6
 78
     2
 67
     7
 79
     5
170
     0
171
     0
290
     0
174
     0
 93
       13
 44
0.0
173
     0
291
     1
 45
0.0
  0
VISUALSTYLE
  5
298
102
{ACAD_REACTORS
330
296
102
}
330
296
100
AcDbVisualStyle
  2
FlatWithEdges
 70
     1
 71
     2
 72
     1
 73
     1
 90
        2
 40
-0.6
 41
30.0
 62
     5
 63
     7
421
 16777215
 74
     1
 91
        4
 64
     7
 65
   257
 75
     1
175
     1
 42
1.0
 92
        0
 66
   257
 43
1.0
 76
     1
 77
     6
 78
     2
 67
     7
 79
     5
170
     0
171
     0
290
     0
174
     0
 93
       13
 44
0.0
173
     0
291
     1
 45
0.0
  0
VISUALSTYLE
  5
299
102
{ACAD_REACTORS
330
296
102
}
330
296
100
AcDbVisualStyle
  2
Gouraud
 70
     2
 71
     2
 72
     2
 73
     1
 90
        2
 40
-0.6
 41
30.0
 62
     5
 63
     7
421
 16777215
 74
     0
 91
        4
 64
     7
 65
   257
 75
     1
175
     1
 42
1.0
 92
        0
 66
     7
 43
1.0
 76
     1
 77
     6
 78
     2
 67
     7
 79
     5
170
     0
171
     0
290
     0
174
     0
 93
       13
 44
0.0
173
     0
291
     1
 45
0.0
  0
VISUALSTYLE
  5
29A
102
{ACAD_REACTORS
330
296
102
}
330
296
100
AcDbVisualStyle
  2
GouraudWithEdges
 70
     3
 71
     2
 72
     2
 73
     1
 90
        2
 40
-0.6
 41
30.0
 62
     5
 63
     7
421
 16777215
 74
     1
 91
        4
 64
     7
 65
   257
 75
     1
175
     1
 42
1.0
 92
        0
 66
   257
 43
1.0
 76
     1
 77
     6
 78
     2
 67
     7
 79
     5
170
     0
171
     0
290
     0
174
     0
 93
       13
 44
0.0
173
     0
291
     1
 45
0.0
  0
VISUALSTYLE
  5
2A4
102
{ACAD_REACTORS
330
296
102
}
330
296
100
AcDbVisualStyle
  2
Linepattern
 70
    14
 71
     2
 72
     2
 73
     0
 90
        0
 40
-0.6
 41
-30.0
 62
     5
 63
     7
421
 16777215
 74
     1
 91
        4
 64
     7
 65
   257
 75
     7
175
     7
 42
1.0
 92
        8
 66
     7
 43
1.0
 76
     1
 77
     6
 78
     2
 67
     7
 79
     5
170
     0
171
     0
290
     0
174
     0
 93
        1
 44
0.0
173
     0
291
     1
 45
0.0
  0
VISUALSTYLE
  5
2A0
102
{ACAD_REACTORS
330
296
102
}
330
296
100
AcDbVisualStyle
  2
Realistic
 70
     8
 71
     2
 72
     2
 73
     0
 90
        0
 40
-0.6
 41
-30.0
 62
     5
 63
     7
421
 16777215
 74
     1
 91
        0
 64
     7
 65
   257
 75
     1
175
     1
 42
1.0
 92
        8
 66
     8
424
  7895160
 43
1.0
 76
     1
 77
     6
 78
     2
 67
     7
 79
     5
170
     0
171
     0
290
     0
174
     0
 93
       13
 44
0.0
173
     0
291
     0
 45
0.0
  0
VISUALSTYLE
  5
2A3
102
{ACAD_REACTORS
330
296
102
}
330
296
100
AcDbVisualStyle
  2
Thicken
 70
    13
 71
     2
 72
     2
 73
     0
 90
        0
 40
-0.6
 41
-30.0
 62
     5
 63
     7
421
 16777215
 74
     1
 91
        4
 64
     7
 65
   257
 75
     1
175
     1
 42
1.0
 92
       12
 66
     7
 43
1.0
 76
     1
 77
     6
 78
     2
 67
     7
 79
     5
170
     0
171
     0
290
     0
174
     0
 93
        1
 44
0.0
173
     0
291
     1
 45
0.0
  0
DICTIONARYVAR
  5
310
102
{ACAD_REACTORS
330
9E
102
}
330
9E
100
DictionaryVariables
280
     0
  1
1:1
  0
DICTIONARYVAR
  5
30E
102
{ACAD_REACTORS
330
9E
102
}
330
9E
100
DictionaryVariables
280
     0
  1
STANDARD
  0
DICTIONARYVAR
  5
144
102
{ACAD_REACTORS
330
9E
102
}
330
9E
100
DictionaryVariables
280
     0
  1
STANDARD
  0
DICTIONARYVAR
  5
A0
102
{ACAD_REACTORS
330
9E
102
}
330
9E
100
DictionaryVariables
280
     0
  1
2
  0
DICTIONARYVAR
  5
9F
102
{ACAD_REACTORS
330
9E
102
}
330
9E
100
DictionaryVariables
280
     0
  1
1
  0
DICTIONARYVAR
  5
36B
102
{ACAD_REACTORS
330
9E
102
}
330
9E
100
DictionaryVariables
280
     0
  1
1
  0
DICTIONARYVAR
  5
36C
102
{ACAD_REACTORS
330
9E
102
}
330
9E
100
DictionaryVariables
280
     0
  1
15
  0
DICTIONARYVAR
  5
311
102
{ACAD_REACTORS
330
9E
102
}
330
9E
100
DictionaryVariables
280
     0
  1
0
  0
DICTIONARYVAR
  5
30F
102
{ACAD_REACTORS
330
9E
102
}
330
9E
100
DictionaryVariables
280
     0
  1
0
  0
DICTIONARY
  5
69
102
{ACAD_REACTORS
330
63
102
}
330
63
100
AcDbDictionary
281
     1
  0
XRECORD
  5
12C
102
{ACAD_REACTORS
330
63
102
}
330
63
100
AcDbXrecord
280
     1
 90
-1023410169
  0
DICTIONARY
  5
30B
330
124
100
AcDbDictionary
280
     1
281
     1
  3
ACAD_ROUNDTRIP_2008_TABLESTYLE_CELLSTYLEMAP
360
4A3
  0
CELLSTYLEMAP
  5
4A3
102
{ACAD_REACTORS
330
30B
102
}
330
30B
100
AcDbCellStyleMap
 90
        3
300
CELLSTYLE
  1
TABLEFORMAT_BEGIN
 90
        5
170
     1
 91
        0
 92
    32768
 62
   257
 93
        1
300
CONTENTFORMAT
  1
CONTENTFORMAT_BEGIN
 90
        0
 91
        0
 92
      512
 93
        0
300

 40
0.0
140
1.0
 94
        5
 62
     0
340
11
144
0.25
309
CONTENTFORMAT_END
171
     0
 94
        6
 95
        1
302
GRIDFORMAT
  1
GRIDFORMAT_BEGIN
 90
        0
 91
        1
 62
     0
 92
       -2
340
0
 93
        0
 40
0.045
309
GRIDFORMAT_END
 95
        2
302
GRIDFORMAT
  1
GRIDFORMAT_BEGIN
 90
        0
 91
        1
 62
     0
 92
       -2
340
0
 93
        0
 40
0.045
309
GRIDFORMAT_END
 95
        4
302
GRIDFORMAT
  1
GRIDFORMAT_BEGIN
 90
        0
 91
        1
 62
     0
 92
       -2
340
0
 93
        0
 40
0.045
309
GRIDFORMAT_END
 95
        8
302
GRIDFORMAT
  1
GRIDFORMAT_BEGIN
 90
        0
 91
        1
 62
     0
 92
       -2
340
0
 93
        0
 40
0.045
309
GRIDFORMAT_END
 95
       16
302
GRIDFORMAT
  1
GRIDFORMAT_BEGIN
 90
        0
 91
        1
 62
     0
 92
       -2
340
0
 93
        0
 40
0.045
309
GRIDFORMAT_END
 95
       32
302
GRIDFORMAT
  1
GRIDFORMAT_BEGIN
 90
        0
 91
        1
 62
     0
 92
       -2
340
0
 93
        0
 40
0.045
309
GRIDFORMAT_END
309
TABLEFORMAT_END
  1
CELLSTYLE_BEGIN
 90
        1
 91
        1
300
_TITLE
309
CELLSTYLE_END
300
CELLSTYLE
  1
TABLEFORMAT_BEGIN
 90
        5
170
     1
 91
        0
 92
        0
 62
   257
 93
        1
300
CONTENTFORMAT
  1
CONTENTFORMAT_BEGIN
 90
        0
 91
        0
 92
      512
 93
        0
300

 40
0.0
140
1.0
 94
        5
 62
     0
340
11
144
0.18
309
CONTENTFORMAT_END
171
     0
 94
        6
 95
        1
302
GRIDFORMAT
  1
GRIDFORMAT_BEGIN
 90
        0
 91
        1
 62
     0
 92
       -2
340
0
 93
        0
 40
0.045
309
GRIDFORMAT_END
 95
        2
302
GRIDFORMAT
  1
GRIDFORMAT_BEGIN
 90
        0
 91
        1
 62
     0
 92
       -2
340
0
 93
        0
 40
0.045
309
GRIDFORMAT_END
 95
        4
302
GRIDFORMAT
  1
GRIDFORMAT_BEGIN
 90
        0
 91
        1
 62
     0
 92
       -2
340
0
 93
        0
 40
0.045
309
GRIDFORMAT_END
 95
        8
302
GRIDFORMAT
  1
GRIDFORMAT_BEGIN
 90
        0
 91
        1
 62
     0
 92
       -2
340
0
 93
        0
 40
0.045
309
GRIDFORMAT_END
 95
       16
302
GRIDFORMAT
  1
GRIDFORMAT_BEGIN
 90
        0
 91
        1
 62
     0
 92
       -2
340
0
 93
        0
 40
0.045
309
GRIDFORMAT_END
 95
       32
302
GRIDFORMAT
  1
GRIDFORMAT_BEGIN
 90
        0
 91
        1
 62
     0
 92
       -2
340
0
 93
        0
 40
0.045
309
GRIDFORMAT_END
309
TABLEFORMAT_END
  1
CELLSTYLE_BEGIN
 90
        2
 91
        1
300
_HEADER
309
CELLSTYLE_END
300
CELLSTYLE
  1
TABLEFORMAT_BEGIN
 90
        5
170
     1
 91
        0
 92
        0
 62
   257
 93
        1
300
CONTENTFORMAT
  1
CONTENTFORMAT_BEGIN
 90
        0
 91
        0
 92
      512
 93
        0
300

 40
0.0
140
1.0
 94
        2
 62
     0
340
11
144
0.18
309
CONTENTFORMAT_END
171
     0
 94
        6
 95
        1
302
GRIDFORMAT
  1
GRIDFORMAT_BEGIN
 90
        0
 91
        1
 62
     0
 92
       -2
340
0
 93
        0
 40
0.045
309
GRIDFORMAT_END
 95
        2
302
GRIDFORMAT
  1
GRIDFORMAT_BEGIN
 90
        0
 91
        1
 62
     0
 92
       -2
340
0
 93
        0
 40
0.045
309
GRIDFORMAT_END
 95
        4
302
GRIDFORMAT
  1
GRIDFORMAT_BEGIN
 90
        0
 91
        1
 62
     0
 92
       -2
340
0
 93
        0
 40
0.045
309
GRIDFORMAT_END
 95
        8
302
GRIDFORMAT
  1
GRIDFORMAT_BEGIN
 90
        0
 91
        1
 62
     0
 92
       -2
340
0
 93
        0
 40
0.045
309
GRIDFORMAT_END
 95
       16
302
GRIDFORMAT
  1
GRIDFORMAT_BEGIN
 90
        0
 91
        1
 62
     0
 92
       -2
340
0
 93
        0
 40
0.045
309
GRIDFORMAT_END
 95
       32
302
GRIDFORMAT
  1
GRIDFORMAT_BEGIN
 90
        0
 91
        1
 62
     0
 92
       -2
340
0
 93
        0
 40
0.045
309
GRIDFORMAT_END
309
TABLEFORMAT_END
  1
CELLSTYLE_BEGIN
 90
        3
 91
        2
300
_DATA
309
CELLSTYLE_END
  0
ENDSEC
  0
EOF
