  0
SECTION
  2
HEADER
  9
$ACADVER
  1
AC1021
  9
$ACADMAINTVER
 70
    50
  9
$DWGCODEPAGE
  3
ANSI_936
  9
$LASTSAVEDBY
  1
kocb568
  9
$INSBASE
 10
0.0
 20
0.0
 30
0.0
  9
$EXTMIN
 10
0.0
 20
0.0
 30
0.0
  9
$EXTMAX
 10
22.0
 20
17.0
 30
0.0
  9
$LIMMIN
 10
0.0
 20
0.0
  9
$LIMMAX
 10
22.0
 20
17.0
  9
$ORTHOMODE
 70
     0
  9
$REGENMODE
 70
     1
  9
$FILLMODE
 70
     1
  9
$QTEXTMODE
 70
     0
  9
$MIRRTEXT
 70
     0
  9
$LTSCALE
 40
1.209999999999998
  9
$ATTMODE
 70
     1
  9
$TEXTSIZE
 40
0.2
  9
$TRACEWID
 40
0.05
  9
$TEXTSTYLE
  7
STANDARD
  9
$CLAYER
  8
0
  9
$CELTYPE
  6
BYLAYER
  9
$CECOLOR
 62
   256
  9
$CELTSCALE
 40
1.0
  9
$DISPSILH
 70
     0
  9
$DIMSCALE
 40
1.0
  9
$DIMASZ
 40
0.12
  9
$DIMEXO
 40
0.05
  9
$DIMDLI
 40
0.5
  9
$DIMRND
 40
0.0
  9
$DIMDLE
 40
0.0
  9
$DIMEXE
 40
0.1
  9
$DIMTP
 40
0.1
  9
$DIMTM
 40
0.1
  9
$DIMTXT
 40
0.12
  9
$DIMCEN
 40
0.0
  9
$DIMTSZ
 40
0.0
  9
$DIMTOL
 70
     0
  9
$DIMLIM
 70
     0
  9
$DIMTIH
 70
     1
  9
$DIMTOH
 70
     1
  9
$DIMSE1
 70
     0
  9
$DIMSE2
 70
     0
  9
$DIMTAD
 70
     0
  9
$DIMZIN
 70
     7
  9
$DIMBLK
  1

  9
$DIMASO
 70
     1
  9
$DIMSHO
 70
     1
  9
$DIMPOST
  1

  9
$DIMAPOST
  1
mm
  9
$DIMALT
 70
     0
  9
$DIMALTD
 70
     2
  9
$DIMALTF
 40
25.4
  9
$DIMLFAC
 40
1.0
  9
$DIMTOFL
 70
     0
  9
$DIMTVP
 40
0.0
  9
$DIMTIX
 70
     0
  9
$DIMSOXD
 70
     0
  9
$DIMSAH
 70
     0
  9
$DIMBLK1
  1

  9
$DIMBLK2
  1

  9
$DIMSTYLE
  2
AM_ANSI
  9
$DIMCLRD
 70
   256
  9
$DIMCLRE
 70
   256
  9
$DIMCLRT
 70
   140
  9
$DIMTFAC
 40
0.71
  9
$DIMGAP
 40
0.06
  9
$DIMJUST
 70
     0
  9
$DIMSD1
 70
     0
  9
$DIMSD2
 70
     0
  9
$DIMTOLJ
 70
     1
  9
$DIMTZIN
 70
     7
  9
$DIMALTZ
 70
     0
  9
$DIMALTTZ
 70
     0
  9
$DIMUPT
 70
     0
  9
$DIMDEC
 70
     4
  9
$DIMTDEC
 70
     4
  9
$DIMALTU
 70
     2
  9
$DIMALTTD
 70
     4
  9
$DIMTXSTY
  7
STANDARD
  9
$DIMAUNIT
 70
     0
  9
$DIMADEC
 70
     0
  9
$DIMALTRND
 40
0.0
  9
$DIMAZIN
 70
     2
  9
$DIMDSEP
 70
    46
  9
$DIMATFIT
 70
     3
  9
$DIMFRAC
 70
     0
  9
$DIMLDRBLK
  1

  9
$DIMLUNIT
 70
     2
  9
$DIMLWD
 70
    -1
  9
$DIMLWE
 70
    -1
  9
$DIMTMOVE
 70
     0
  9
$DIMFXL
 40
1.0
  9
$DIMFXLON
 70
     0
  9
$DIMJOGANG
 40
0.7853981633974483
  9
$DIMTFILL
 70
     0
  9
$DIMTFILLCLR
 70
     0
  9
$DIMARCSYM
 70
     1
  9
$DIMLTYPE
  6
BYBLOCK
  9
$DIMLTEX1
  6
BYBLOCK
  9
$DIMLTEX2
  6
BYBLOCK
  9
$LUNITS
 70
     2
  9
$LUPREC
 70
     4
  9
$SKETCHINC
 40
0.1
  9
$FILLETRAD
 40
0.0
  9
$AUNITS
 70
     0
  9
$AUPREC
 70
     0
  9
$MENU
  1
.
  9
$ELEVATION
 40
0.0
  9
$PELEVATION
 40
0.0
  9
$THICKNESS
 40
0.0
  9
$LIMCHECK
 70
     0
  9
$CHAMFERA
 40
0.0
  9
$CHAMFERB
 40
0.0
  9
$CHAMFERC
 40
0.0
  9
$CHAMFERD
 40
0.0
  9
$SKPOLY
 70
     0
  9
$TDCREATE
 40
2455875.540893808
  9
$TDUCREATE
 40
2455875.207560475
  9
$TDUPDATE
 40
2455875.545500556
  9
$TDUUPDATE
 40
2455875.212167222
  9
$TDINDWG
 40
0.0030809838
  9
$TDUSRTIMER
 40
0.0030807986
  9
$USRTIMER
 70
     1
  9
$ANGBASE
 50
0.0
  9
$ANGDIR
 70
     0
  9
$PDMODE
 70
     3
  9
$PDSIZE
 40
0.3125
  9
$PLINEWID
 40
0.0
  9
$SPLFRAME
 70
     0
  9
$SPLINETYPE
 70
     6
  9
$SPLINESEGS
 70
     8
  9
$HANDSEED
  5
59F
  9
$SURFTAB1
 70
     6
  9
$SURFTAB2
 70
     6
  9
$SURFTYPE
 70
     6
  9
$SURFU
 70
     6
  9
$SURFV
 70
     6
  9
$UCSBASE
  2

  9
$UCSNAME
  2

  9
$UCSORG
 10
0.0
 20
0.0
 30
0.0
  9
$UCSXDIR
 10
1.0
 20
0.0
 30
0.0
  9
$UCSYDIR
 10
0.0
 20
1.0
 30
0.0
  9
$UCSORTHOREF
  2

  9
$UCSORTHOVIEW
 70
     0
  9
$UCSORGTOP
 10
0.0
 20
0.0
 30
0.0
  9
$UCSORGBOTTOM
 10
0.0
 20
0.0
 30
0.0
  9
$UCSORGLEFT
 10
0.0
 20
0.0
 30
0.0
  9
$UCSORGRIGHT
 10
0.0
 20
0.0
 30
0.0
  9
$UCSORGFRONT
 10
0.0
 20
0.0
 30
0.0
  9
$UCSORGBACK
 10
0.0
 20
0.0
 30
0.0
  9
$PUCSBASE
  2

  9
$PUCSNAME
  2

  9
$PUCSORG
 10
0.0
 20
0.0
 30
0.0
  9
$PUCSXDIR
 10
1.0
 20
0.0
 30
0.0
  9
$PUCSYDIR
 10
0.0
 20
1.0
 30
0.0
  9
$PUCSORTHOREF
  2

  9
$PUCSORTHOVIEW
 70
     0
  9
$PUCSORGTOP
 10
0.0
 20
0.0
 30
0.0
  9
$PUCSORGBOTTOM
 10
0.0
 20
0.0
 30
0.0
  9
$PUCSORGLEFT
 10
0.0
 20
0.0
 30
0.0
  9
$PUCSORGRIGHT
 10
0.0
 20
0.0
 30
0.0
  9
$PUCSORGFRONT
 10
0.0
 20
0.0
 30
0.0
  9
$PUCSORGBACK
 10
0.0
 20
0.0
 30
0.0
  9
$USERI1
 70
     0
  9
$USERI2
 70
     0
  9
$USERI3
 70
     0
  9
$USERI4
 70
     0
  9
$USERI5
 70
     0
  9
$USERR1
 40
0.0
  9
$USERR2
 40
0.0
  9
$USERR3
 40
0.0
  9
$USERR4
 40
0.0
  9
$USERR5
 40
0.0
  9
$WORLDVIEW
 70
     1
  9
$SHADEDGE
 70
     3
  9
$SHADEDIF
 70
    70
  9
$TILEMODE
 70
     1
  9
$MAXACTVP
 70
    64
  9
$PINSBASE
 10
0.0
 20
0.0
 30
0.0
  9
$PLIMCHECK
 70
     0
  9
$PEXTMIN
 10
1.000000000000000E+20
 20
1.000000000000000E+20
 30
1.000000000000000E+20
  9
$PEXTMAX
 10
-1.000000000000000E+20
 20
-1.000000000000000E+20
 30
-1.000000000000000E+20
  9
$PLIMMIN
 10
0.0
 20
0.0
  9
$PLIMMAX
 10
12.0
 20
9.0
  9
$UNITMODE
 70
     0
  9
$VISRETAIN
 70
     1
  9
$PLINEGEN
 70
     0
  9
$PSLTSCALE
 70
     1
  9
$TREEDEPTH
 70
  3020
  9
$CMLSTYLE
  2
Standard
  9
$CMLJUST
 70
     0
  9
$CMLSCALE
 40
1.0
  9
$PROXYGRAPHICS
 70
     1
  9
$MEASUREMENT
 70
     0
  9
$CELWEIGHT
370
    -1
  9
$ENDCAPS
280
     0
  9
$JOINSTYLE
280
     0
  9
$LWDISPLAY
290
     0
  9
$INSUNITS
 70
     1
  9
$HYPERLINKBASE
  1

  9
$STYLESHEET
  1

  9
$XEDIT
290
     1
  9
$CEPSNTYPE
380
     0
  9
$PSTYLEMODE
290
     1
  9
$FINGERPRINTGUID
  2
{C584B0E7-02C8-4A73-8055-369BEFE42E64}
  9
$VERSIONGUID
  2
{E3271B4B-4C73-49C7-BE7C-5D88D5527DA1}
  9
$EXTNAMES
290
     1
  9
$PSVPSCALE
 40
0.0
  9
$OLESTARTUP
290
     0
  9
$SORTENTS
280
   127
  9
$INDEXCTL
280
     0
  9
$HIDETEXT
280
     1
  9
$XCLIPFRAME
290
     0
  9
$HALOGAP
280
     0
  9
$OBSCOLOR
 70
   257
  9
$OBSLTYPE
280
     0
  9
$INTERSECTIONDISPLAY
280
     0
  9
$INTERSECTIONCOLOR
 70
   257
  9
$DIMASSOC
280
     2
  9
$PROJECTNAME
  1

  9
$CAMERADISPLAY
290
     0
  9
$LENSLENGTH
 40
50.0
  9
$CAMERAHEIGHT
 40
0.0
  9
$STEPSPERSEC
 40
2.0
  9
$STEPSIZE
 40
6.0
  9
$3DDWFPREC
 40
2.0
  9
$PSOLWIDTH
 40
0.25
  9
$PSOLHEIGHT
 40
4.0
  9
$LOFTANG1
 40
1.570796326794896
  9
$LOFTANG2
 40
1.570796326794896
  9
$LOFTMAG1
 40
0.0
  9
$LOFTMAG2
 40
0.0
  9
$LOFTPARAM
 70
     7
  9
$LOFTNORMALS
280
     1
  9
$LATITUDE
 40
37.795
  9
$LONGITUDE
 40
-122.394
  9
$NORTHDIRECTION
 40
0.0
  9
$TIMEZONE
 70
 -8000
  9
$LIGHTGLYPHDISPLAY
280
     1
  9
$TILEMODELIGHTSYNCH
280
     1
  9
$CMATERIAL
347
413
  9
$SOLIDHIST
280
     1
  9
$SHOWHIST
280
     1
  9
$DWFFRAME
280
     2
  9
$DGNFRAME
280
     0
  9
$REALWORLDSCALE
290
     1
  9
$INTERFERECOLOR
 62
     1
  9
$INTERFEREOBJVS
345
435
  9
$INTERFEREVPVS
346
432
  9
$CSHADOW
280
     0
  9
$SHADOWPLANELOCATION
 40
0.0
  0
ENDSEC
  0
SECTION
  2
CLASSES
  0
CLASS
  1
ACDBDICTIONARYWDFLT
  2
AcDbDictionaryWithDefault
  3
ObjectDBX Classes
 90
        0
 91
        1
280
     0
281
     0
  0
CLASS
  1
MATERIAL
  2
AcDbMaterial
  3
ObjectDBX Classes
 90
     1153
 91
        3
280
     0
281
     0
  0
CLASS
  1
VISUALSTYLE
  2
AcDbVisualStyle
  3
ObjectDBX Classes
 90
     4095
 91
       16
280
     0
281
     0
  0
CLASS
  1
TABLESTYLE
  2
AcDbTableStyle
  3
ObjectDBX Classes
 90
     4095
 91
        1
280
     0
281
     0
  0
CLASS
  1
SCALE
  2
AcDbScale
  3
ObjectDBX Classes
 90
     1153
 91
       33
280
     0
281
     0
  0
CLASS
  1
MLEADERSTYLE
  2
AcDbMLeaderStyle
  3
ACDB_MLEADERSTYLE_CLASS
 90
     4095
 91
        1
280
     0
281
     0
  0
CLASS
  1
AMGSETTINGSOBJ
  2
AmgSettingsObj
  3
"AcadM|Product Description: AutoCAD Mechanical|Company: Autodesk, Inc."
 90
     1024
 91
        2
280
     0
281
     0
  0
CLASS
  1
ACME_DOCUMENT
  2
AcMeDbDoc
  3
AcMeServices
 90
     1024
 91
        1
280
     0
281
     0
  0
CLASS
  1
ACMESCOPE
  2
AcMeScope
  3
AcMeServices
 90
     1024
 91
        1
280
     0
281
     0
  0
CLASS
  1
ACMECOMMANDHISTORY
  2
AcMeCommandHistory
  3
AcMeServices
 90
     1024
 91
        1
280
     0
281
     0
  0
CLASS
  1
ACIMSYSVARMAN
  2
AcImSysVarManager
  3
AcMeServices
 90
     1024
 91
        5
280
     0
281
     0
  0
CLASS
  1
ACIMINTSYSVAR
  2
AcImIntSysVar
  3
AcMeServices
 90
     1024
 91
       27
280
     0
281
     0
  0
CLASS
  1
ACMEDRAWINGMAN
  2
AcMeDrawingMan
  3
AcMeServices
 90
     1024
 91
        1
280
     0
281
     0
  0
CLASS
  1
ACMEVIEW
  2
AcMeView
  3
AcMeServices
 90
     1024
 91
        1
280
     0
281
     0
  0
CLASS
  1
ACDBENTITYCACHE
  2
AcMeEntityCache
  3
AcMeServices
 90
     1024
 91
        1
280
     0
281
     0
  0
CLASS
  1
GSMANAGER
  2
AcMeGSManager
  3
AcMeServices
 90
     1024
 91
        1
280
     0
281
     0
  0
CLASS
  1
AMDTINTERNALREACTOR
  2
AmdtInternalReactor
  3
AcMeServices
 90
     1024
 91
        2
280
     0
281
     0
  0
CLASS
  1
ACMESTATEMGR
  2
AcMeStateMgr
  3
AcMeServices
 90
     1024
 91
        1
280
     0
281
     0
  0
CLASS
  1
ACGREFMASTER
  2
AcGrefMaster
  3
AcAttribServices
 90
     1024
 91
        1
280
     0
281
     0
  0
CLASS
  1
AM_DRAWING_MGR
  2
AcDmDwgMgr
  3
AcMechDwgViewMgmt
 90
     1024
 91
        1
280
     0
281
     0
  0
CLASS
  1
AM_DWG_DOCUMENT
  2
AcDmDwgDocument
  3
AcMechDwgViewMgmt
 90
     1024
 91
        1
280
     0
281
     0
  0
CLASS
  1
AM_DWG_SHEET
  2
AcDmSheet
  3
AcMechDwgViewMgmt
 90
     1024
 91
        1
280
     0
281
     0
  0
CLASS
  1
AM_VIEWDIMPARMAP
  2
AcDmViewDimParMap
  3
AcMechDwgViewMgmt
 90
     1024
 91
        1
280
     0
281
     0
  0
CLASS
  1
ACIMREALSYSVAR
  2
AcImRealSysVar
  3
AcMeServices
 90
     1024
 91
        1
280
     0
281
     0
  0
CLASS
  1
AM_DWGMGR_NAME
  2
AcDmDwgMgrName
  3
AcMechDwgViewMgmt
 90
     1024
 91
        1
280
     0
281
     0
  0
CLASS
  1
ACME_DATABASE
  2
AcMeDbDatabase
  3
AcMeServices
 90
     1024
 91
        1
280
     0
281
     0
  0
CLASS
  1
ACRFINSADJUSTERMGR
  2
AcRfInsAdjusterMgr
  3
AcMeServices
 90
     1024
 91
        1
280
     0
281
     0
  0
CLASS
  1
ACGREFACADMASTER
  2
AcGrefacadMaster
  3
AcGrefServices
 90
     1024
 91
        1
280
     0
281
     0
  0
CLASS
  1
AMDTMENUSTATEMGR
  2
AmdtMenuStateMgr
  3
McadcomServices
 90
     1024
 91
        1
280
     0
281
     0
  0
CLASS
  1
AMDTMCOMMENUSTATE
  2
AmdtMcomMenuState
  3
McadcomServices
 90
     1024
 91
        1
280
     0
281
     0
  0
CLASS
  1
AMIMASTER
  2
AmiMaster
  3
AmiServices
 90
     1024
 91
        1
280
     0
281
     0
  0
CLASS
  1
MAPIAMMOUDLE
  2
MApiAmModule
  3
MApiAmServices
 90
     1024
 91
        1
280
     0
281
     0
  0
CLASS
  1
ACIMSTRSYSVAR
  2
AcImStrSysVar
  3
AcMeServices
 90
     1024
 91
        5
280
     0
281
     0
  0
CLASS
  1
AMDTADMENUSTATE
  2
AmdtAdMenuState
  3
DesignerServices
 90
     1024
 91
        1
280
     0
281
     0
  0
CLASS
  1
ADAPPL
  2
AcAdAppl
  3
DesignerServices
 90
     1024
 91
        1
280
     0
281
     0
  0
CLASS
  1
DEPMGR
  2
AcAdDepMgr
  3
DesignerServices
 90
     1024
 91
        1
280
     0
281
     0
  0
CLASS
  1
PARAMMGR
  2
AcAdParamMgr
  3
DesignerServices
 90
     1024
 91
        1
280
     0
281
     0
  0
CLASS
  1
PARAMSCOPE
  2
AcAdParamScope
  3
DesignerServices
 90
     1024
 91
        1
280
     0
281
     0
  0
CLASS
  1
NAMEDAPPL
  2
AcAdNamedAppl
  3
DesignerServices
 90
     1024
 91
        1
280
     0
281
     0
  0
CLASS
  1
AMDTDMMENUSTATE
  2
AmdtDmMenuState
  3
AcMechDwgViewMgmt
 90
     1024
 91
        1
280
     0
281
     0
  0
CLASS
  1
AMDTAMMENUSTATE
  2
AmdtAmMenuState
  3
DesignerAssemblies
 90
     1024
 91
        1
280
     0
281
     0
  0
CLASS
  1
ACAMPROJECT
  2
AcAmProject
  3
DesignerAssemblies
 90
     1024
 91
        1
280
     0
281
     0
  0
CLASS
  1
ACAMGRCOMPDEF
  2
AcAmGrCompDef
  3
DesignerAssemblies
 90
     1024
 91
        1
280
     0
281
     0
  0
CLASS
  1
ACCMCONTEXT
  2
AcCmContext
  3
DesignerAssemblies
 90
     1024
 91
        1
280
     0
281
     0
  0
CLASS
  1
ACAMCOMPDEF
  2
AcAmCompDef
  3
DesignerAssemblies
 90
     1024
 91
        1
280
     0
281
     0
  0
CLASS
  1
ACAMCOMPDEFMGR
  2
AcAmCompDefMgr
  3
DesignerAssemblies
 90
     1024
 91
        1
280
     0
281
     0
  0
CLASS
  1
AMCONTEXTMGR
  2
AcAmContextMgr
  3
DesignerAssemblies
 90
     1024
 91
        1
280
     0
281
     0
  0
CLASS
  1
ACAMCONTEXTMODELER
  2
AcAmContextModeler
  3
DesignerAssemblies
 90
     1024
 91
        1
280
     0
281
     0
  0
CLASS
  1
ACMDATADICTIONARY
  2
AcmDataDictionary
  3
"AcmSymBB|Product Description: AutoCAD Mechanical|Company: Autodesk, Inc."
 90
     1024
 91
        1
280
     0
281
     0
  0
CLASS
  1
CATALOGSTATE
  2
AcAmCatalogState
  3
DesignerAssemblies
 90
     1024
 91
        1
280
     0
281
     0
  0
CLASS
  1
ACAMGRCOMPDEFSET
  2
AcAmGrCompDefSet
  3
DesignerAssemblies
 90
     1024
 91
        1
280
     0
281
     0
  0
CLASS
  1
AMDTBROWSERDBTAB
  2
AmdtBrowserDbTab
  3
McadcomServices
 90
     1024
 91
        1
280
     0
281
     0
  0
CLASS
  1
CBROWSERAPPOBJECT
  2
CBrowserAppObject
  3
McadcomServices
 90
     1024
 91
        3
280
     0
281
     0
  0
CLASS
  1
DM_PLACEHOLDER
  2
AcDmSelsetPlaceholder
  3
AcMechDwgViewMgmt
 90
     1024
 91
        1
280
     0
281
     0
  0
CLASS
  1
EXACXREFPANELOBJECT
  2
ExAcXREFPanelObject
  3
EXAC_ESW
 90
     1025
 91
        1
280
     0
281
     0
  0
CLASS
  1
NPOCOLLECTION
  2
AcDbImpNonPersistentObjectsCollection
  3
ObjectDBX Classes
 90
     1153
 91
        1
280
     0
281
     0
  0
CLASS
  1
ACMSTANDARDANSI
  2
AcmStandardANSI
  3
"Amdt_StdImp|Product Description: AutoCAD Mechanical|Company: Autodesk, Inc."
 90
     1024
 91
        1
280
     0
281
     0
  0
CLASS
  1
ACMSURFSTANDARDANSI
  2
AcmSurfTextStdANSI
  3
"Amdt_StdImp|Product Description: AutoCAD Mechanical|Company: Autodesk, Inc."
 90
     1024
 91
        1
280
     0
281
     0
  0
CLASS
  1
ACMFCFSTANDARDANSI
  2
AcmFCFStdANSI
  3
"Amdt_StdImp|Product Description: AutoCAD Mechanical|Company: Autodesk, Inc."
 90
     1024
 91
        1
280
     0
281
     0
  0
CLASS
  1
ACMWELDSTANDARDANSI
  2
AcmWeldingStdANSI
  3
"Amdt_StdImp|Product Description: AutoCAD Mechanical|Company: Autodesk, Inc."
 90
     1024
 91
        1
280
     0
281
     0
  0
CLASS
  1
ACMIDSTANDARDANSI
  2
AcmIdStdANSI
  3
"Amdt_StdImp|Product Description: AutoCAD Mechanical|Company: Autodesk, Inc."
 90
     1024
 91
        1
280
     0
281
     0
  0
CLASS
  1
ACMDATUMSTANDARDANSI
  2
AcmDatumStdANSI
  3
"Amdt_StdImp|Product Description: AutoCAD Mechanical|Company: Autodesk, Inc."
 90
     1024
 91
        1
280
     0
281
     0
  0
CLASS
  1
ACMBOMSTANDARDANSI
  2
AcmBOMStdANSI
  3
"Amdt_StdImp|Product Description: AutoCAD Mechanical|Company: Autodesk, Inc."
 90
     1024
 91
        1
280
     0
281
     0
  0
CLASS
  1
ACMDETAILSTANDARDANSI
  2
AmdtDetailSymStdANSI
  3
"Amdt_StdImp|Product Description: AutoCAD Mechanical|Company: Autodesk, Inc."
 90
     1024
 91
        1
280
     0
281
     0
  0
CLASS
  1
ACMSECTIONSTANDARDANSI
  2
AmdtSectionSymStdANSI
  3
"Amdt_StdImp|Product Description: AutoCAD Mechanical|Company: Autodesk, Inc."
 90
     1024
 91
        1
280
     0
281
     0
  0
CLASS
  1
ACMCENTERLINESTANDARDANSI
  2
AmdtCenterLineStdANSI
  3
"Amdt_StdImp|Product Description: AutoCAD Mechanical|Company: Autodesk, Inc."
 90
     1024
 91
        1
280
     0
281
     0
  0
CLASS
  1
ACMTHREADLINESTANDARDANSI
  2
AmdtThreadLineStdANSI
  3
"Amdt_StdImp|Product Description: AutoCAD Mechanical|Company: Autodesk, Inc."
 90
     1024
 91
        1
280
     0
281
     0
  0
CLASS
  1
ACMNOTESTANDARDANSI
  2
AmdtNoteStdANSI
  3
"Amdt_StdImp|Product Description: AutoCAD Mechanical|Company: Autodesk, Inc."
 90
     1024
 91
        1
280
     0
281
     0
  0
CLASS
  1
ACMTAPERSTANDARDANSI
  2
AcmTaperStdANSI
  3
"Amdt_StdImp|Product Description: AutoCAD Mechanical|Company: Autodesk, Inc."
 90
     1024
 91
        1
280
     0
281
     0
  0
CLASS
  1
ACMANOOTATIONVIEWSTANDARDANSI
  2
AmdtAnViewStdANSI
  3
"Amdt_StdImp|Product Description: AutoCAD Mechanical|Company: Autodesk, Inc."
 90
     1024
 91
        1
280
     0
281
     0
  0
CLASS
  1
ACAMGLAYSTD
  2
AcAmgLayStd
  3
"AmgLay|Product Description: AutoCAD Mechanical|Company: Autodesk, Inc."
 90
     1024
 91
        1
280
     0
281
     0
  0
CLASS
  1
ACAMGDIMSTD
  2
AcAmgDimStd
  3
"AmgDim|Product Description: AutoCAD Mechanical|Company: Autodesk, Inc."
 90
     1024
 91
        1
280
     0
281
     0
  0
CLASS
  1
AMGOBJPROPCFG
  2
AmgObjPropCfg
  3
"AmgLay|Product Description: AutoCAD Mechanical|Company: Autodesk, Inc."
 90
     1025
 91
        1
280
     0
281
     0
  0
CLASS
  1
ACAMGHOLECHARTSTDANSI
  2
AcAmgHoleChartStdANSI
  3
AmgDim|Product Description: AutoCAD Mechanical|Company: Autodesk, Inc.
 90
     1024
 91
        1
280
     0
281
     0
  0
CLASS
  1
ACAMGTITLESTD
  2
AcAmgTitleStd
  3
"AmgTitle|Product Description: AutoCAD Mechanical|Company: Autodesk, Inc."
 90
     4095
 91
        1
280
     0
281
     0
  0
CLASS
  1
AMDTNOTETEMPLATEDB
  2
AmdtNoteTemplateDB
  3
AcmSymBB|Product Description: AutoCAD Mechanical|Company: Autodesk, Inc.
 90
     1024
 91
        6
280
     0
281
     0
  0
CLASS
  1
ACAMGFILTERDAT
  2
AcAmgFilterDat
  3
"AcadM|Product Description: AutoCAD Mechanical|Company: Autodesk, Inc."
 90
     1024
 91
        0
280
     0
281
     0
  0
CLASS
  1
DICTIONARYVAR
  2
AcDbDictionaryVar
  3
ObjectDBX Classes
 90
        0
 91
        3
280
     0
281
     0
  0
CLASS
  1
CELLSTYLEMAP
  2
AcDbCellStyleMap
  3
ObjectDBX Classes
 90
     1152
 91
        2
280
     0
281
     0
  0
ENDSEC
  0
SECTION
  2
TABLES
  0
TABLE
  2
VPORT
  5
8
330
0
100
AcDbSymbolTable
 70
     1
  0
VPORT
  5
1F4
330
8
100
AcDbSymbolTableRecord
100
AcDbViewportTableRecord
  2
*ACTIVE
 70
     0
 10
0.0
 20
0.0
 11
1.0
 21
1.0
 12
11.28143398343959
 22
4.855541867914382
 13
0.0
 23
0.0
 14
1.0
 24
1.0
 15
0.0
 25
0.0
 16
0.0
 26
0.0
 36
1.0
 17
0.0
 27
0.0
 37
0.0
 40
18.64672472687962
 41
1.605849582172701
 42
50.0
 43
0.0
 44
0.0
 50
0.0
 51
0.0
 71
     0
 72
   100
 73
     1
 74
     1
 75
     0
 76
     0
 77
     0
 78
     0
281
     0
 65
     0
110
0.0
120
0.0
130
0.0
111
1.0
121
0.0
131
0.0
112
0.0
122
1.0
132
0.0
 79
     0
146
0.0
348
431
 60
     3
 61
     5
292
     1
282
     1
141
0.0
142
0.0
 63
   250
421
  3355443
  0
ENDTAB
  0
TABLE
  2
LTYPE
  5
5
330
0
100
AcDbSymbolTable
 70
    19
  0
LTYPE
  5
14
330
5
100
AcDbSymbolTableRecord
100
AcDbLinetypeTableRecord
  2
BYBLOCK
 70
     0
  3

 72
    65
 73
     0
 40
0.0
  0
LTYPE
  5
15
330
5
100
AcDbSymbolTableRecord
100
AcDbLinetypeTableRecord
  2
BYLAYER
 70
     0
  3

 72
    65
 73
     0
 40
0.0
  0
LTYPE
  5
16
330
5
100
AcDbSymbolTableRecord
100
AcDbLinetypeTableRecord
  2
CONTINUOUS
 70
     0
  3
Solid line
 72
    65
 73
     0
 40
0.0
  0
LTYPE
  5
1F5
330
5
100
AcDbSymbolTableRecord
100
AcDbLinetypeTableRecord
  2
CENTER
 70
     0
  3
____ _ ____ _ ____ _ ____ _ ____ _ ____ _ ____
 72
    65
 73
     4
 40
0.6
 49
0.375
 74
     0
 49
-0.075
 74
     0
 49
0.075
 74
     0
 49
-0.075
 74
     0
  0
LTYPE
  5
1F6
330
5
100
AcDbSymbolTableRecord
100
AcDbLinetypeTableRecord
  2
HIDDEN
 70
     0
  3
- - - - - - - - - - - - - - - - - - - -
 72
    65
 73
     2
 40
0.2
 49
0.1
 74
     0
 49
-0.1
 74
     0
  0
LTYPE
  5
1F7
330
5
100
AcDbSymbolTableRecord
100
AcDbLinetypeTableRecord
  2
PHANTOM
 70
     0
  3
_____ _ _ _____ _ _ _____ _ _ _____
 72
    65
 73
     6
 40
0.8
 49
0.45
 74
     0
 49
-0.05
 74
     0
 49
0.1
 74
     0
 49
-0.05
 74
     0
 49
0.1
 74
     0
 49
-0.05
 74
     0
  0
LTYPE
  5
1F8
330
5
100
AcDbSymbolTableRecord
100
AcDbLinetypeTableRecord
  2
DOT
 70
     0
  3
. . . . . . . . . . . . . . . . . . . .
 72
    65
 73
     2
 40
0.2
 49
0.1
 74
     0
 49
-0.1
 74
     0
  0
LTYPE
  5
1F9
330
5
100
AcDbSymbolTableRecord
100
AcDbLinetypeTableRecord
  2
DASHED
 70
     0
  3
- - - - - - - - - - - - - - - - - - - -
 72
    65
 73
     2
 40
0.2
 49
0.1
 74
     0
 49
-0.1
 74
     0
  0
LTYPE
  5
499
330
5
100
AcDbSymbolTableRecord
100
AcDbLinetypeTableRecord
  2
PHANTOM2
 70
     0
  3
Phantom (.5x) ___ _ _ ___ _ _ ___ _ _ ___ _ _
 72
    65
 73
     6
 40
1.25
 49
0.625
 74
     0
 49
-0.125
 74
     0
 49
0.125
 74
     0
 49
-0.125
 74
     0
 49
0.125
 74
     0
 49
-0.125
 74
     0
  0
LTYPE
  5
4E0
330
5
100
AcDbSymbolTableRecord
100
AcDbLinetypeTableRecord
  2
AM_ISO02W050
 70
     0
  3
__ __ __ __ __ __ __ __ __ __ __ __ __ __ __
 72
    65
 73
     2
 40
7.5
 49
6.0
 74
     0
 49
-1.5
 74
     0
  0
LTYPE
  5
4E1
330
5
100
AcDbSymbolTableRecord
100
AcDbLinetypeTableRecord
  2
AM_ISO08W050
 70
     0
  3
____ . ____ . ____ . ____ . ____ . ____ . ____
 72
    65
 73
     4
 40
18.0
 49
12.0
 74
     0
 49
-1.5
 74
     0
 49
3.0
 74
     0
 49
-1.5
 74
     0
  0
LTYPE
  5
4E2
330
5
100
AcDbSymbolTableRecord
100
AcDbLinetypeTableRecord
  2
AM_ISO09W050
 70
     0
  3
_____ . . _____ . . _____ . . ____ .. ____
 72
    65
 73
     6
 40
22.5
 49
12.0
 74
     0
 49
-1.5
 74
     0
 49
3.0
 74
     0
 49
-1.5
 74
     0
 49
3.0
 74
     0
 49
-1.5
 74
     0
  0
LTYPE
  5
4E3
330
5
100
AcDbSymbolTableRecord
100
AcDbLinetypeTableRecord
  2
Amconstr
 70
     0
  3
_______________________
 72
    65
 73
     2
 40
9999.0
 49
9999.0
 74
     0
 49
0.0
 74
     0
  0
LTYPE
  5
4E4
330
5
100
AcDbSymbolTableRecord
100
AcDbLinetypeTableRecord
  2
AM_ISO08W050x2
 70
     0
  3
__ . __ . __ . __ . __ . __
 72
    65
 73
     4
 40
9.0
 49
6.0
 74
     0
 49
-0.75
 74
     0
 49
1.5
 74
     0
 49
-0.75
 74
     0
  0
LTYPE
  5
4E5
330
5
100
AcDbSymbolTableRecord
100
AcDbLinetypeTableRecord
  2
AM_ISO02W050x2
 70
     0
  3
 _ _ _ _ _ _ _ _ _ _ _ _
 72
    65
 73
     2
 40
3.75
 49
3.0
 74
     0
 49
-0.75
 74
     0
  0
LTYPE
  5
4E8
330
5
100
AcDbSymbolTableRecord
100
AcDbLinetypeTableRecord
  2
Amzigzag
 70
     0
  3
/\/-/\/-/\/-/\/-/\/-/\/
 72
    65
 73
     2
 40
11.0001
 49
0.0001
 74
     4
 75
   136
340
4E7
 46
0.04
 50
0.0
 44
0.0
 45
0.0
 49
-11.0
 74
     0
  0
LTYPE
  5
4E9
330
5
100
AcDbSymbolTableRecord
100
AcDbLinetypeTableRecord
  2
CENTER2
 70
     0
  3
Center (.5x) ___ _ ___ _ ___ _ ___ _ ___ _ ___
 72
    65
 73
     4
 40
1.125
 49
0.75
 74
     0
 49
-0.125
 74
     0
 49
0.125
 74
     0
 49
-0.125
 74
     0
  0
LTYPE
  5
4EA
330
5
100
AcDbSymbolTableRecord
100
AcDbLinetypeTableRecord
  2
HIDDEN2
 70
     0
  3
Hidden (.5x) _ _ _ _ _ _ _ _ _ _ _ _ _ _ _ _ _
 72
    65
 73
     2
 40
0.1875
 49
0.125
 74
     0
 49
-0.0625
 74
     0
  0
LTYPE
  5
4EB
330
5
100
AcDbSymbolTableRecord
100
AcDbLinetypeTableRecord
  2
Amzigzag2
 70
     0
  3
/\/-/\/-/\/-/\/-/\/-/\/
 72
    65
 73
     2
 40
0.4401
 49
0.0001
 74
     4
 75
   136
340
4E7
 46
0.0016
 50
0.0
 44
0.0
 45
0.0
 49
-0.4400000000000002
 74
     0
  0
LTYPE
  5
4F9
330
5
100
AcDbSymbolTableRecord
100
AcDbLinetypeTableRecord
  2
ACANSTGB
 70
     0
  3
__ . . __ . .
 72
    65
 73
     6
 40
0.35433070866
 49
0.15748031496
 74
     0
 49
-0.03937007874
 74
     0
 49
0.03937007874
 74
     0
 49
-0.03937007874
 74
     0
 49
0.03937007874
 74
     0
 49
-0.03937007874
 74
     0
  0
LTYPE
  5
4FA
330
5
100
AcDbSymbolTableRecord
100
AcDbLinetypeTableRecord
  2
ACANSTGL
 70
     0
  3
_ _ _ _ _
 72
    65
 73
     2
 40
0.11811023622
 49
0.07874015748
 74
     0
 49
-0.03937007874
 74
     0
  0
ENDTAB
  0
TABLE
  2
LAYER
  5
2
330
0
100
AcDbSymbolTable
 70
    13
  0
LAYER
  5
10
330
2
100
AcDbSymbolTableRecord
100
AcDbLayerTableRecord
  2
0
 70
     0
 62
     7
  6
CONTINUOUS
370
    -3
390
F
347
423
  0
LAYER
  5
1FA
330
2
100
AcDbSymbolTableRecord
100
AcDbLayerTableRecord
  2
DEFAULT_1
 70
     0
 62
     7
  6
CENTER
370
    -3
390
F
347
423
  0
LAYER
  5
1FB
330
2
100
AcDbSymbolTableRecord
100
AcDbLayerTableRecord
  2
DEFAULT_2
 70
     0
 62
     8
  6
HIDDEN
370
    -3
390
F
347
423
  0
LAYER
  5
1FC
330
2
100
AcDbSymbolTableRecord
100
AcDbLayerTableRecord
  2
DEFAULT_3
 70
     0
 62
     7
  6
PHANTOM
370
    -3
390
F
347
423
  0
LAYER
  5
1FD
330
2
100
AcDbSymbolTableRecord
100
AcDbLayerTableRecord
  2
DATUMS
 70
     0
 62
     7
  6
CONTINUOUS
370
    -3
390
F
347
423
  0
LAYER
  5
1FE
330
2
100
AcDbSymbolTableRecord
100
AcDbLayerTableRecord
  2
DATUM_AXIS
 70
     0
 62
     7
  6
CONTINUOUS
370
    -3
390
F
347
423
  0
LAYER
  5
1FF
330
2
100
AcDbSymbolTableRecord
100
AcDbLayerTableRecord
  2
DATUM_CSYS
 70
     0
 62
     7
  6
CONTINUOUS
370
    -3
390
F
347
423
  0
LAYER
  5
200
330
2
100
AcDbSymbolTableRecord
100
AcDbLayerTableRecord
  2
DATUM_PLANE
 70
     0
 62
     7
  6
CONTINUOUS
370
    -3
390
F
347
423
  0
LAYER
  5
201
330
2
100
AcDbSymbolTableRecord
100
AcDbLayerTableRecord
  2
DATUM_POINT
 70
     0
 62
     7
  6
CONTINUOUS
370
    -3
390
F
347
423
  0
LAYER
  5
202
330
2
100
AcDbSymbolTableRecord
100
AcDbLayerTableRecord
  2
_CURVE
 70
     0
 62
     7
  6
CONTINUOUS
370
    -3
390
F
347
423
  0
LAYER
  5
203
330
2
100
AcDbSymbolTableRecord
100
AcDbLayerTableRecord
  2
_SURFACE
 70
     0
 62
     7
  6
CONTINUOUS
370
    -3
390
F
347
423
  0
LAYER
  5
204
330
2
100
AcDbSymbolTableRecord
100
AcDbLayerTableRecord
  2
__REF_CURVE
 70
     0
 62
     7
  6
CONTINUOUS
370
    -3
390
F
347
423
  0
LAYER
  5
205
330
2
100
AcDbSymbolTableRecord
100
AcDbLayerTableRecord
  2
__REF_SURFACE
 70
     0
 62
     7
  6
CONTINUOUS
370
    -3
390
F
347
423
  0
ENDTAB
  0
TABLE
  2
STYLE
  5
3
330
0
100
AcDbSymbolTable
 70
     5
  0
STYLE
  5
11
330
3
100
AcDbSymbolTableRecord
100
AcDbTextStyleTableRecord
  2
STANDARD
 70
     0
 40
0.0
 41
0.8
 50
0.0
 71
     0
 42
0.2
  3
txt
  4

  0
STYLE
  5
206
330
3
100
AcDbSymbolTableRecord
100
AcDbTextStyleTableRecord
  2
TEXTSTYLE_1
 70
     0
 40
0.0
 41
0.8
 50
0.0
 71
     0
 42
0.2
  3
gdt
  4

  0
STYLE
  5
4E7
330
3
100
AcDbSymbolTableRecord
100
AcDbTextStyleTableRecord
  2

 70
     1
 40
0.0
 41
1.0
 50
0.0
 71
     0
 42
0.2
  3
genltshp.shx
  4

  0
STYLE
  5
4F7
330
3
100
AcDbSymbolTableRecord
100
AcDbTextStyleTableRecord
  2
ACANSTS
 70
     0
 40
1.0
 41
1.0
 50
0.0
 71
     0
 42
0.2
  3
romans.shx
  4

  0
STYLE
  5
4F8
330
3
100
AcDbSymbolTableRecord
100
AcDbTextStyleTableRecord
  2
ACANSGDT
 70
     0
 40
0.0
 41
1.0
 50
0.0
 71
     0
 42
0.2
  3
amgdt.shx
  4

  0
ENDTAB
  0
TABLE
  2
VIEW
  5
6
330
0
100
AcDbSymbolTable
 70
     0
  0
ENDTAB
  0
TABLE
  2
UCS
  5
7
330
0
100
AcDbSymbolTable
 70
     0
  0
ENDTAB
  0
TABLE
  2
APPID
  5
9
330
0
100
AcDbSymbolTable
 70
     9
  0
APPID
  5
207
330
9
100
AcDbSymbolTableRecord
100
AcDbRegAppTableRecord
  2
ACAD
 70
     0
  0
APPID
  5
463
330
9
100
AcDbSymbolTableRecord
100
AcDbRegAppTableRecord
  2
ACAD_MLEADERVER
 70
     0
  0
APPID
  5
46C
330
9
100
AcDbSymbolTableRecord
100
AcDbRegAppTableRecord
  2
MCAD_NO_VIS
 70
     0
  0
APPID
  5
46D
330
9
100
AcDbSymbolTableRecord
100
AcDbRegAppTableRecord
  2
ACAD_TEMP_GRAPHIC
 70
     0
  0
APPID
  5
49B
330
9
100
AcDbSymbolTableRecord
100
AcDbRegAppTableRecord
  2
AD_DRAW
 70
     0
  0
APPID
  5
49E
330
9
100
AcDbSymbolTableRecord
100
AcDbRegAppTableRecord
  2
ACATTRIBSERVICES
 70
     0
  0
APPID
  5
4BF
330
9
100
AcDbSymbolTableRecord
100
AcDbRegAppTableRecord
  2
DESIGNERASSEMBLIES
 70
     0
  0
APPID
  5
4C5
330
9
100
AcDbSymbolTableRecord
100
AcDbRegAppTableRecord
  2
ACADM_DIM_EDIT
 70
     0
  0
APPID
  5
4C6
330
9
100
AcDbSymbolTableRecord
100
AcDbRegAppTableRecord
  2
AMDT_DM_ADJ
 70
     0
  0
ENDTAB
  0
TABLE
  2
DIMSTYLE
  5
A
330
0
100
AcDbSymbolTable
 70
     7
100
AcDbDimStyleTable
 71
     1
340
4DE
  0
DIMSTYLE
105
20A
330
A
100
AcDbSymbolTableRecord
100
AcDbDimStyleTableRecord
  2
STANDARD
 70
     0
 41
0.1875
 47
0.01
 48
0.01
 71
     1
 78
     4
140
0.15625
271
     3
272
     3
284
     4
340
11
  0
DIMSTYLE
105
4DE
102
{ACAD_REACTORS
330
585
102
}
330
A
100
AcDbSymbolTableRecord
100
AcDbDimStyleTableRecord
  2
AM_ANSI
 70
     0
  4
mm
 41
0.12
 42
0.05
 43
0.5
 44
0.1
 47
0.1
 48
0.1
 78
     7
 79
     2
 90
     1
140
0.12
141
0.0
146
0.71
147
0.06
176
   256
177
   256
178
   140
274
     4
284
     7
340
11
345
14
346
14
347
14
371
    -1
372
    -1
  0
DIMSTYLE
105
4EC
330
A
100
AcDbSymbolTableRecord
100
AcDbDimStyleTableRecord
  2
AM_ANSI$3
 70
     0
  4
mm
 41
0.12
 42
0.05
 43
0.5
 44
0.1
 47
0.1
 48
0.1
 78
     7
 79
     2
 90
     1
140
0.12
141
0.0
146
0.71
147
0.06
176
   256
177
   256
178
   140
274
     4
284
     7
288
     1
289
     0
340
11
345
14
346
14
347
14
371
    -1
372
    -1
  0
DIMSTYLE
105
4ED
330
A
100
AcDbSymbolTableRecord
100
AcDbDimStyleTableRecord
  2
AM_ANSI$4
 70
     0
  4
mm
 41
0.12
 42
0.05
 43
0.5
 44
0.1
 47
0.1
 48
0.1
 78
     7
 79
     2
 90
     1
140
0.12
141
0.0
146
0.71
147
0.06
176
   256
177
   256
178
   140
274
     4
284
     7
340
11
345
14
346
14
347
14
371
    -1
372
    -1
  0
DIMSTYLE
105
4EE
330
A
100
AcDbSymbolTableRecord
100
AcDbDimStyleTableRecord
  2
AM_ANSI$7
 70
     0
  4
mm
 41
0.12
 42
0.05
 43
0.5
 44
0.1
 47
0.1
 48
0.1
 78
     7
 79
     2
 90
     1
140
0.12
141
0.0
146
0.71
147
0.06
176
   256
177
   256
178
   140
274
     4
284
     7
340
11
345
14
346
14
347
14
371
    -1
372
    -1
  0
DIMSTYLE
105
4EF
330
A
100
AcDbSymbolTableRecord
100
AcDbDimStyleTableRecord
  2
AM_ANSI$SF
 70
     0
  4
mm
 41
0.12
 42
0.05
 43
0.5
 44
0.1
 47
0.1
 48
0.1
 75
     1
 76
     1
 78
     7
 79
     2
 90
     1
140
0.12
141
0.0
146
0.71
147
0.06
176
   256
177
   256
178
   140
274
     4
284
     7
340
11
345
14
346
14
347
14
371
    -1
372
    -1
  0
DIMSTYLE
105
4F4
330
A
100
AcDbSymbolTableRecord
100
AcDbDimStyleTableRecord
  2
AM_ANSI$SH
 70
     0
  4
mm
 41
0.12
 42
0.05
 43
0.5
 44
0.1
 47
0.1
 48
0.1
 75
     1
 76
     1
 78
     7
 79
     2
 90
     1
140
0.12
141
0.0
146
0.71
147
0.06
173
     1
176
   256
177
   256
178
   140
274
     4
284
     7
340
11
343
4F0
345
14
346
14
347
14
371
    -1
372
    -1
  0
ENDTAB
  0
TABLE
  2
BLOCK_RECORD
  5
1
330
0
100
AcDbSymbolTable
 70
     2
  0
BLOCK_RECORD
  5
208
330
1
100
AcDbSymbolTableRecord
100
AcDbBlockTableRecord
  2
*Model_Space
340
40E
 70
     0
280
     1
281
     0
  0
BLOCK_RECORD
  5
209
330
1
100
AcDbSymbolTableRecord
100
AcDbBlockTableRecord
  2
*Paper_Space
340
40F
 70
     0
280
     1
281
     0
  0
BLOCK_RECORD
  5
4F0
330
1
100
AcDbSymbolTableRecord
100
AcDbBlockTableRecord
  2
GENAXEH
340
0
 70
     0
280
     1
281
     0
  0
ENDTAB
  0
ENDSEC
  0
SECTION
  2
BLOCKS
  0
BLOCK
  5
20
330
208
100
AcDbEntity
  8
0
100
AcDbBlockBegin
  2
*Model_Space
 70
     0
 10
0.0
 20
0.0
 30
0.0
  3
*Model_Space
  1

  0
ENDBLK
  5
21
330
208
100
AcDbEntity
  8
0
100
AcDbBlockEnd
  0
BLOCK
  5
1C
330
209
100
AcDbEntity
 67
     1
  8
0
100
AcDbBlockBegin
  2
*Paper_Space
 70
     0
 10
0.0
 20
0.0
 30
0.0
  3
*Paper_Space
  1

  0
ENDBLK
  5
1D
330
209
100
AcDbEntity
 67
     1
  8
0
100
AcDbBlockEnd
  0
BLOCK
  5
4F2
330
4F0
100
AcDbEntity
  8
0
100
AcDbBlockBegin
  2
GENAXEH
 70
     0
 10
0.0
 20
0.0
 30
0.0
  3
GENAXEH
  1

  0
LINE
  5
4F1
330
4F0
100
AcDbEntity
  8
0
100
AcDbLine
 10
-1.0
 20
0.0
 30
0.0
 11
1.0
 21
0.0
 31
0.0
  0
ENDBLK
  5
4F3
330
4F0
100
AcDbEntity
  8
0
100
AcDbBlockEnd
  0
ENDSEC
  0
SECTION
  2
ENTITIES
  0
LWPOLYLINE
  5
240
330
208
100
AcDbEntity
  8
0
  6
Continuous
 62
     7
100
AcDbPolyline
 90
      110
 70
     0
 43
0.0
 10
0.7741558567000002
 20
7.6398512934
 10
0.7744962364
 20
7.586448156
 10
0.7752824280000002
 20
7.532065133999998
 10
0.7765121440999999
 20
7.477682152799998
 10
0.778185373
 20
7.423301850499999
 10
0.7803020490000003
 20
7.3689288958
 10
0.7828619692000001
 20
7.314569985499999
 10
0.7858650115000003
 20
7.260228782999999
 10
0.7893110543000002
 20
7.205908941799999
 10
0.7931997473000001
 20
7.1516171396
 10
0.7975308874
 20
7.097357118899998
 10
0.8023042845999999
 20
7.0431324535
 10
0.8075194662000001
 20
6.988949558899999
 10
0.8131761245999998
 20
6.9348124961
 10
0.8192740339
 20
6.8807245098
 10
0.8258127398999999
 20
6.826690779299999
 10
0.8327919254000001
 20
6.7727150746
 10
0.8402113041999999
 20
6.7188009199
 10
0.8480703466999999
 20
6.664953109899999
 10
0.8563683294
 20
6.611175233099999
 10
0.8651044004
 20
6.557470859999998
 10
0.8742775059000001
 20
6.5038447109
 10
0.8838867393000001
 20
6.4503004932
 10
0.8939312455999999
 20
6.3968416227
 10
0.9044100026
 20
6.343472371599998
 10
0.9153220124
 20
6.290196781
 10
0.9266664732999998
 20
6.237017913499999
 10
0.9384426590999998
 20
6.183938571299998
 10
0.9506496695
 20
6.130962407899999
 10
0.9632866506999999
 20
6.078092871299999
 10
0.9763529907999998
 20
6.025332462699998
 10
0.9898478398999998
 20
5.972684735599999
 10
1.0037703487
 20
5.920153241599998
 10
1.018119957499999
 20
5.867740490399999
 10
1.032895765499999
 20
5.8154503083
 10
1.048097015299998
 20
5.763285977699998
 10
1.063723214199999
 20
5.711249144199999
 10
1.079772843199999
 20
5.659344010899999
 10
1.0962448484
 20
5.6075732002
 10
1.113139325199999
 20
5.555935954999998
 10
1.1304553847
 20
5.5044348507
 10
1.1481915579
 20
5.453074211599998
 10
1.1663472094
 20
5.401855951199999
 10
1.184922337799998
 20
5.3507804159
 10
1.2039146942
 20
5.299854210899999
 10
1.223320117499999
 20
5.249088583599998
 10
1.2431370718
 20
5.1984874196
 10
1.263364400499999
 20
5.1480536232
 10
1.283998168599999
 20
5.097796833999999
 10
1.3050353178
 20
5.0477240635
 10
1.3264758608
 20
4.9978349291
 10
1.348320435099999
 20
4.9481279631
 10
1.3705675852
 20
4.8986067197
 10
1.3932159436
 20
4.849274348499998
 10
1.4162662659
 20
4.800128762399999
 10
1.4397179277
 20
4.7511709762
 10
1.463568204799998
 20
4.702406433399999
 10
1.4878147262
 20
4.653839700899998
 10
1.512455965999999
 20
4.605473595
 10
1.537490004399999
 20
4.557311713399998
 10
1.5629137846
 20
4.5093597473
 10
1.588725263499999
 20
4.461621338699998
 10
1.614922903899999
 20
4.414099185299999
 10
1.641504321
 20
4.366797513899999
 10
1.6684676384
 20
4.319719592799998
 10
1.6958111099
 20
4.272868460599998
 10
1.7235325036
 20
4.2262479736
 10
1.751629994099999
 20
4.1798612716
 10
1.780101756399998
 20
4.133711493299998
 10
1.8089455268
 20
4.087802469299997
 10
1.838159391399998
 20
4.042137410099998
 10
1.8677413305
 20
3.9967191908
 10
1.8976888037
 20
3.951551060899998
 10
1.927999306399998
 20
3.9066361766
 10
1.9586707683
 20
3.8619770454
 10
1.989701300299999
 20
3.8175759397
 10
2.0210885858
 20
3.773435766
 10
2.0528304061
 20
3.7295592924
 10
2.084925053
 20
3.6859486038
 10
2.117370280699998
 20
3.642606547799998
 10
2.150163844699998
 20
3.5995359699
 10
2.183304077299998
 20
3.5567389774
 10
2.2167886702
 20
3.5142185331
 10
2.250615481699998
 20
3.471977386199998
 10
2.284783138899999
 20
3.4300173567
 10
2.319289222299998
 20
3.3883415863
 10
2.354131753799999
 20
3.346952678999998
 10
2.3893100936
 20
3.3058517054
 10
2.424822215999999
 20
3.265041256099998
 10
2.4606654079
 20
3.2245241798
 10
2.496838063199998
 20
3.184301990699998
 10
2.5333383928
 20
3.144376469599998
 10
2.570163143199998
 20
3.104751011999998
 10
2.6073085038
 20
3.0654295472
 10
2.6447720227
 20
3.0264145131
 10
2.682551029899999
 20
2.9877085767
 10
2.720641313999998
 20
2.949315939299998
 10
2.7590401942
 20
2.9112391893
 10
2.7977451473
 20
2.873480757799998
 10
2.836752124399998
 20
2.8360445329
 10
2.8760583392
 20
2.7989331312
 10
2.915661310899998
 20
2.7621488781
 10
2.9555573947
 20
2.725695163199998
 10
2.995743439199998
 20
2.689574876
 10
3.0362172872
 20
2.653790004799998
 10
3.0769767625
 20
2.6183425576
 10
3.1180189373
 20
2.583234849
 10
3.1593409599
 20
2.548468865999999
 10
3.2009406817
 20
2.5140460183
 10
3.242815212
 20
2.4799683583
  0
LWPOLYLINE
  5
241
330
208
100
AcDbEntity
  8
0
  6
Continuous
 62
     7
100
AcDbPolyline
 90
       49
 70
     0
 43
0.0
 10
3.242815212
 20
2.4799683583
 10
3.283613530199998
 20
2.447258462799998
 10
3.288775794399998
 20
2.442943641799999
 10
3.2939201797
 20
2.4384910491
 10
3.2990432518
 20
2.433903551899998
 10
3.304146928199998
 20
2.4291793678
 10
3.309238230199998
 20
2.424311494499999
 10
3.3143162724
 20
2.4192999551
 10
3.319379892099998
 20
2.414145123399999
 10
3.3244352451
 20
2.408839675799999
 10
3.3294808597
 20
2.403383822599999
 10
3.3345156822
 20
2.397777427499999
 10
3.3395460231
 20
2.392011864799998
 10
3.3445702412
 20
2.386087111399998
 10
3.3495868931
 20
2.380003033599999
 10
3.354602064599998
 20
2.373750088199999
 10
3.359613901699998
 20
2.367328105399999
 10
3.364620550899998
 20
2.360737058199998
 10
3.3696275431
 20
2.353966948
 10
3.374633903599998
 20
2.3470159954
 10
3.379636195099998
 20
2.339885968499999
 10
3.3846358066
 20
2.3325718422
 10
3.3896314401
 20
2.325072301999998
 10
3.394619532699998
 20
2.317389591099999
 10
3.399597880199998
 20
2.3095241604
 10
3.404563566899998
 20
2.301477799999998
 10
3.4095144898
 20
2.293251222799999
 10
3.414449542599998
 20
2.284843581999998
 10
3.419365058099999
 20
2.2762585438
 10
3.424259389799998
 20
2.267496541299999
 10
3.4291341347
 20
2.258552058199998
 10
3.4339856257
 20
2.249429070699998
 10
3.438811578899998
 20
2.2401292789
 10
3.4436150667
 20
2.2306438427
 10
3.4483921948
 20
2.2209772966
 10
3.453139996
 20
2.211132671999998
 10
3.457862108899998
 20
2.2010990525
 10
3.4625539987
 20
2.1908823862
 10
3.4672121888
 20
2.180486768899998
 10
3.4718408463
 20
2.169898907999999
 10
3.476434044899998
 20
2.159127998199998
 10
3.480988251799998
 20
2.148178212199999
 10
3.4855097364
 20
2.1370294828
 10
3.489991779599998
 20
2.1256926943
 10
3.4944294616
 20
2.1141749005
 10
3.4988296729
 20
2.102451696
 10
3.5031893536
 20
2.090523206699999
 10
3.5074967124
 20
2.078413999999999
 10
3.511160031999998
 20
2.0678472121
  0
LINE
  5
242
330
208
100
AcDbEntity
  8
0
  6
Continuous
 62
     7
100
AcDbLine
 10
3.930516568999998
 20
7.512246199799998
 30
0.0
 11
3.9273294516
 21
7.496823341199998
 31
0.0
  0
LINE
  5
243
330
208
100
AcDbEntity
  8
0
  6
Continuous
 62
     7
100
AcDbLine
 10
3.9266350381
 20
7.513047141499998
 30
0.0
 11
3.923435957099998
 21
7.4976223444
 31
0.0
  0
LWPOLYLINE
  5
244
330
208
100
AcDbEntity
  8
0
  6
Continuous
 62
     7
100
AcDbPolyline
 90
       47
 70
     0
 43
0.0
 10
11.1809214461
 20
1.9863451608
 10
11.1820635644
 20
1.9863617306
 10
11.1832047214
 20
1.9864114261
 10
11.1843439565
 20
1.986494205399998
 10
11.1854803107
 20
1.986609998899998
 10
11.1866128275
 20
1.986758709099999
 10
11.1877405535
 20
1.9869402108
 10
11.1888625397
 20
1.987154351299998
 10
11.1899778414
 20
1.987400950199998
 10
11.1910855199
 20
1.9876798001
 10
11.1921846429
 20
1.9879906661
 10
11.1932742852
 20
1.988333286699998
 10
11.1943535294
 20
1.9887073734
 10
11.1954214673
 20
1.989112611299999
 10
11.1964771999
 20
1.9895486594
 10
11.1975198384
 20
1.9900151506
 10
11.1985485053
 20
1.990511692199999
 10
11.1995623347
 20
1.991037866299999
 10
11.2005604732
 20
1.9915932299
 10
11.2015420807
 20
1.9921773156
 10
11.2025063308
 20
1.9927896318
 10
11.2034524118
 20
1.993429663
 10
11.2043795276
 20
1.994096870399999
 10
11.2052868976
 20
1.9947906925
 10
11.206173758
 20
1.995510545299999
 10
11.2070393625
 20
1.9962558227
 10
11.2078829822
 20
1.9970258975
 10
11.2087039072
 20
1.9978201215
 10
11.2095014464
 20
1.9986378261
 10
11.2102749285
 20
1.999478323
 10
11.2110237024
 20
2.000340904799998
 10
11.2117471378
 20
2.001224845399999
 10
11.2124446258
 20
2.002129400599998
 10
11.2131155793
 20
2.003053809199998
 10
11.2137594335
 20
2.003997293
 10
11.2143756464
 20
2.004959057799998
 10
11.2149636994
 20
2.005938293999999
 10
11.2155230974
 20
2.0069341774
 10
11.2160533696
 20
2.007945869699998
 10
11.2165540696
 20
2.008972519399998
 10
11.2170247759
 20
2.0100132621
 10
11.2174650924
 20
2.011067221999998
 10
11.2178746484
 20
2.0121335118
 10
11.2182530992
 20
2.013211233999999
 10
11.2186001262
 20
2.014299481399998
 10
11.2189154372
 20
2.015397338
 10
11.218962382
 20
2.015571785999998
  0
LINE
  5
245
330
208
100
AcDbEntity
  8
0
  6
Continuous
 62
     7
100
AcDbLine
 10
9.2470426251
 20
1.946975082099998
 30
0.0
 11
8.7273575857
 21
1.946975082099998
 31
0.0
  0
LINE
  5
246
330
208
100
AcDbEntity
  8
0
  6
Continuous
 62
     7
100
AcDbLine
 10
6.018696168399999
 20
1.946975082099998
 30
0.0
 11
5.499011128999998
 21
1.946975082099998
 31
0.0
  0
LINE
  5
247
330
208
100
AcDbEntity
  8
0
  6
Continuous
 62
     7
100
AcDbLine
 10
5.4832630975
 20
1.9627231136
 30
0.0
 11
6.0344441999
 21
1.9627231136
 31
0.0
  0
LINE
  5
248
330
208
100
AcDbEntity
  8
0
  6
Continuous
 62
     7
100
AcDbLine
 10
8.711609554199997
 20
1.9627231136
 30
0.0
 11
9.2627906566
 21
1.9627231136
 31
0.0
  0
LINE
  5
249
330
208
100
AcDbEntity
  8
0
  6
Continuous
 62
     7
100
AcDbLine
 10
11.1809214189
 20
1.9863451608
 30
0.0
 11
3.565103827699998
 21
1.9863451608
 31
0.0
  0
LINE
  5
24A
330
208
100
AcDbEntity
  8
0
  6
Continuous
 62
     7
100
AcDbLine
 10
5.4832630975
 20
1.9627231136
 30
0.0
 11
5.4832630975
 21
1.9863451608
 31
0.0
  0
LINE
  5
24B
330
208
100
AcDbEntity
  8
0
  6
Continuous
 62
     7
100
AcDbLine
 10
5.4990111282
 20
1.9863451608
 30
0.0
 11
5.499011128999998
 21
1.946975082099998
 31
0.0
  0
LINE
  5
24C
330
208
100
AcDbEntity
  8
0
  6
Continuous
 62
     7
100
AcDbLine
 10
6.018696168399999
 20
1.946975082099998
 30
0.0
 11
6.0186961702
 21
1.9863451608
 31
0.0
  0
LINE
  5
24D
330
208
100
AcDbEntity
  8
0
  6
Continuous
 62
     7
100
AcDbLine
 10
6.0344441999
 20
1.9627231136
 30
0.0
 11
6.0344441999
 21
1.9863451608
 31
0.0
  0
LINE
  5
24E
330
208
100
AcDbEntity
  8
0
  6
Continuous
 62
     7
100
AcDbLine
 10
7.3730268776
 20
6.7863995372
 30
0.0
 11
7.373026877
 21
4.1689598825
 31
0.0
  0
LINE
  5
24F
330
208
100
AcDbEntity
  8
0
  6
Continuous
 62
     7
100
AcDbLine
 10
7.373026877
 20
4.168929543099999
 30
0.0
 11
7.373026886499998
 21
2.070162344099998
 31
0.0
  0
LINE
  5
250
330
208
100
AcDbEntity
  8
0
  6
Continuous
 62
     7
100
AcDbLine
 10
8.711609554199997
 20
1.9627231136
 30
0.0
 11
8.711609554199997
 21
1.9863451608
 31
0.0
  0
LINE
  5
251
330
208
100
AcDbEntity
  8
0
  6
Continuous
 62
     7
100
AcDbLine
 10
8.7273575852
 20
1.9863451608
 30
0.0
 11
8.7273575857
 21
1.946975082099998
 31
0.0
  0
LINE
  5
252
330
208
100
AcDbEntity
  8
0
  6
Continuous
 62
     7
100
AcDbLine
 10
9.2470426251
 20
1.946975082099998
 30
0.0
 11
9.2470426269
 21
1.9863451608
 31
0.0
  0
LINE
  5
253
330
208
100
AcDbEntity
  8
0
  6
Continuous
 62
     7
100
AcDbLine
 10
9.2627906566
 20
1.9627231136
 30
0.0
 11
9.2627906566
 21
1.9863451608
 31
0.0
  0
LINE
  5
254
330
208
100
AcDbEntity
  8
0
  6
Continuous
 62
     7
100
AcDbLine
 10
9.6940526174
 20
7.2285471338
 30
0.0
 11
9.5367324946
 21
7.1845941685
 31
0.0
  0
LINE
  5
255
330
208
100
AcDbEntity
  8
0
  6
Continuous
 62
     7
100
AcDbLine
 10
9.561404765499998
 20
7.191485372
 30
0.0
 11
9.482652424999999
 21
7.1695075834
 31
0.0
  0
LINE
  5
256
330
208
100
AcDbEntity
  8
0
  6
Continuous
 62
     7
100
AcDbLine
 10
9.746606873999999
 20
7.2432005601
 30
0.0
 11
9.7008343698
 21
7.2304396623
 31
0.0
  0
LINE
  5
257
330
208
100
AcDbEntity
  8
0
  6
Continuous
 62
     7
100
AcDbLine
 10
9.514154420499998
 20
7.1782918622
 30
0.0
 11
9.4277872222
 21
7.154242255599999
 31
0.0
  0
LINE
  5
258
330
208
100
AcDbEntity
  8
0
  6
Continuous
 62
     7
100
AcDbLine
 10
9.4664538247
 20
7.164995484299999
 30
0.0
 11
9.417968061799999
 21
7.151515673799998
 31
0.0
  0
LINE
  5
259
330
208
100
AcDbEntity
  8
0
  6
Continuous
 62
     7
100
AcDbLine
 10
9.837113737000001
 20
7.2683345908
 30
0.0
 11
9.7920338388
 21
7.255835463799998
 31
0.0
  0
LWPOLYLINE
  5
25A
330
208
100
AcDbEntity
  8
0
  6
Continuous
 62
     7
100
AcDbPolyline
 90
        4
 70
     0
 43
0.0
 10
9.842815449099999
 20
7.2699120185
 10
9.794123714400001
 20
7.256415767899999
 10
9.744560566
 20
7.242630766599998
 10
9.6547408375
 20
7.217569007499998
  0
LINE
  5
25B
330
208
100
AcDbEntity
  8
0
  6
Continuous
 62
     7
100
AcDbLine
 10
9.4277872222
 20
7.154242255599999
 30
0.0
 11
9.3687059921
 21
7.1378690795
 31
0.0
  0
LINE
  5
25C
330
208
100
AcDbEntity
  8
0
  6
Continuous
 62
     7
100
AcDbLine
 10
9.890625360499999
 20
7.283107824299999
 30
0.0
 11
9.837113737000001
 21
7.2683345908
 31
0.0
  0
LINE
  5
25D
330
208
100
AcDbEntity
  8
0
  6
Continuous
 62
     7
100
AcDbLine
 10
9.3724137973
 20
7.138894317799998
 30
0.0
 11
9.316523877499999
 21
7.123481707499998
 31
0.0
  0
LINE
  5
25E
330
208
100
AcDbEntity
  8
0
  6
Continuous
 62
     7
100
AcDbLine
 10
9.937572522399999
 20
7.296000486699999
 30
0.0
 11
9.881850723899999
 21
7.280690663099999
 31
0.0
  0
LINE
  5
25F
330
208
100
AcDbEntity
  8
0
  6
Continuous
 62
     7
100
AcDbLine
 10
9.318646712899999
 20
7.124065588799998
 30
0.0
 11
9.2601095646
 21
7.108024136900001
 31
0.0
  0
LINE
  5
260
330
208
100
AcDbEntity
  8
0
  6
Continuous
 62
     7
100
AcDbLine
 10
9.9837742333
 20
7.3086150222
 30
0.0
 11
9.926248498199999
 21
7.2928970471
 31
0.0
  0
LINE
  5
261
330
208
100
AcDbEntity
  8
0
  6
Continuous
 62
     7
100
AcDbLine
 10
9.2674089314
 20
7.1100180696
 30
0.0
 11
9.203449375299999
 21
7.0926198053
 31
0.0
  0
LINE
  5
262
330
208
100
AcDbEntity
  8
0
  6
Continuous
 62
     7
100
AcDbLine
 10
10.0292437121
 20
7.320949184699999
 30
0.0
 11
9.970304501299999
 21
7.3049454423
 31
0.0
  0
LWPOLYLINE
  5
263
330
208
100
AcDbEntity
  8
0
  6
Continuous
 62
     7
100
AcDbPolyline
 90
        8
 70
     0
 43
0.0
 10
9.2149017817
 20
7.0957227708
 10
9.146530593899999
 20
7.0772868489
 10
9.0893516166
 20
7.062047163499999
 10
9.032209619499999
 20
7.0470015601
 10
8.9750932963
 20
7.032168111199998
 10
8.918003778799997
 20
7.0175679058
 10
8.861260899400001
 20
7.003300591699999
 10
8.804862404099997
 20
6.9893815084
  0
LWPOLYLINE
  5
264
330
208
100
AcDbEntity
  8
0
  6
Continuous
 62
     7
100
AcDbPolyline
 90
        7
 70
     0
 43
0.0
 10
9.161199813899999
 20
7.0812237158
 10
9.106167707999999
 20
7.0665107883
 10
9.0494960538
 20
7.051532686099998
 10
8.991473450199999
 20
7.036400626699999
 10
8.9328637619
 20
7.021346010599999
 10
8.873591629399998
 20
7.006379530499999
 10
8.813717412799999
 20
6.991548898099999
  0
LINE
  5
265
330
208
100
AcDbEntity
  8
0
  6
Continuous
 62
     7
100
AcDbLine
 10
8.813717412799999
 20
6.991548898099999
 30
0.0
 11
8.7488068368
 21
6.975827702799998
 31
0.0
  0
LWPOLYLINE
  5
266
330
208
100
AcDbEntity
  8
0
  6
Continuous
 62
     7
100
AcDbPolyline
 90
        3
 70
     0
 43
0.0
 10
8.754217666
 20
6.977123463799999
 10
8.693420497199998
 20
6.9627293759
 10
8.638737237699999
 20
6.9500995071
  0
LINE
  5
267
330
208
100
AcDbEntity
  8
0
  6
Continuous
 62
     7
100
AcDbLine
 10
8.695163500699999
 20
6.9631371574
 30
0.0
 11
8.636484907499998
 21
6.949586685499999
 31
0.0
  0
LWPOLYLINE
  5
268
330
208
100
AcDbEntity
  8
0
  6
Continuous
 62
     7
100
AcDbPolyline
 90
       15
 70
     0
 43
0.0
 10
10.6291233843
 20
7.4718010822
 10
10.5905472726
 20
7.462975216799999
 10
10.5516102067
 20
7.453920143099999
 10
10.5123143225
 20
7.4446377107
 10
10.4726685412
 20
7.435131877499999
 10
10.4326743362
 20
7.425405122199999
 10
10.392332459
 20
7.4154601258
 10
10.3516501361
 20
7.405301536299998
 10
10.3106276197
 20
7.3949326577
 10
10.2692643077
 20
7.3843568889
 10
10.2275655169
 20
7.3735795471
 10
10.1855299604
 20
7.362604692599998
 10
10.1431561475
 20
7.3514364997
 10
10.1004484757
 20
7.340081303499998
 10
10.0574046809
 20
7.3285440509
  0
LWPOLYLINE
  5
269
330
208
100
AcDbEntity
  8
0
  6
Continuous
 62
     7
100
AcDbPolyline
 90
       16
 70
     0
 43
0.0
 10
10.6381333525
 20
7.473841075299998
 10
10.6011878904
 20
7.465424379199999
 10
10.563787202
 20
7.456767490999999
 10
10.5259336997
 20
7.4478708835
 10
10.4875791093
 20
7.438723204999998
 10
10.4487257154
 20
7.429325090899999
 10
10.4093747836
 20
7.419677345599999
 10
10.3694761342
 20
7.4097684174
 10
10.3290307265
 20
7.3995993834
 10
10.2880392105
 20
7.389171855299998
 10
10.2464507023
 20
7.378474538499999
 10
10.2042655219
 20
7.3675095234
 10
10.1614827183
 20
7.356279194099998
 10
10.1180489284
 20
7.3447725424
 10
10.0739733363
 20
7.332995586799999
 10
10.0140221872
 20
7.316829682199998
  0
LWPOLYLINE
  5
26A
330
208
100
AcDbEntity
  8
0
  6
Continuous
 62
     7
100
AcDbPolyline
 90
       24
 70
     0
 43
0.0
 10
8.638737237699999
 20
6.9500995071
 10
8.5789559024
 20
6.9366614595
 10
8.5228487207
 20
6.924422706399998
 10
8.4679027896
 20
6.912804624899998
 10
8.414096411799999
 20
6.9017953464
 10
8.361492447699998
 20
6.8914052269
 10
8.310039066199998
 20
6.881619209299999
 10
8.259542176
 20
6.872390712799998
 10
8.209984012599997
 20
6.86370634
 10
8.161393807999999
 20
6.855562823899998
 10
8.113646475099999
 20
6.8479342445
 10
8.066739318499999
 20
6.840815147
 10
8.020684777299999
 20
6.8341973423
 10
7.975379372499999
 20
6.8280541314
 10
7.9308230833
 20
6.822375701499998
 10
7.887025295399999
 20
6.8171582233
 10
7.843895583099999
 20
6.8123873608
 10
7.801433629599999
 20
6.808057104199999
 10
7.759647372899999
 20
6.8041575948
 10
7.7184581807
 20
6.8006711047
 10
7.677870608099999
 20
6.797588433899998
 10
7.6378891795
 20
6.7949000995
 10
7.5984350939
 20
6.792593221699999
 10
7.5595115438
 20
6.790662828899998
  0
LINE
  5
26B
330
208
100
AcDbEntity
  8
0
  6
Continuous
 62
     7
100
AcDbLine
 10
10.6746207727
 20
7.482017371
 30
0.0
 11
10.6291233843
 21
7.4718010822
 31
0.0
  0
LINE
  5
26C
330
208
100
AcDbEntity
  8
0
  6
Continuous
 62
     7
100
AcDbLine
 10
10.7106979574
 20
7.4899645203
 30
0.0
 11
10.6673359234
 21
7.4803959533
 31
0.0
  0
LWPOLYLINE
  5
26D
330
208
100
AcDbEntity
  8
0
  6
Continuous
 62
     7
100
AcDbPolyline
 90
       24
 70
     0
 43
0.0
 10
8.584728598199999
 20
6.9379421385
 10
8.531633530499997
 20
6.926315171799999
 10
8.479558024999999
 20
6.9152363585
 10
8.4284061224
 20
6.9046842411
 10
8.3781147977
 20
6.894646346699999
 10
8.328707580899999
 20
6.8851264197
 10
8.280168097999997
 20
6.8761157208
 10
8.2323719393
 20
6.8675831382
 10
8.185311586299999
 20
6.8595231271
 10
8.139002622599997
 20
6.8519374709
 10
8.0933541396
 20
6.844809347899999
 10
8.0483568179
 20
6.838130730499999
 10
8.0040290399
 20
6.8318956839
 10
7.9603217701
 20
6.826090372899999
 10
7.9172380102
 20
6.820713305099999
 10
7.8747820157
 20
6.8157630376
 10
7.832905936399998
 20
6.811230910899999
 10
7.791613547999999
 20
6.8071098137
 10
7.7509087864
 20
6.803390652899999
 10
7.710744059099998
 20
6.800059970299998
 10
7.6711230945
 20
6.797110366699999
 10
7.6320497585
 20
6.794535860899999
 10
7.593476210399999
 20
6.7923274184
 10
7.555405907399999
 20
6.7904795133
  0
LINE
  5
26E
330
208
100
AcDbEntity
  8
0
  6
Continuous
 62
     7
100
AcDbLine
 10
10.7463786419
 20
7.497685936499998
 30
0.0
 11
10.7051748346
 21
7.488756895599999
 31
0.0
  0
LINE
  5
26F
330
208
100
AcDbEntity
  8
0
  6
Continuous
 62
     7
100
AcDbLine
 10
10.8422625648
 20
7.517955349099998
 30
0.0
 11
10.8194197456
 21
7.513046770099998
 31
0.0
  0
LINE
  5
270
330
208
100
AcDbEntity
  8
0
  6
Continuous
 62
     7
100
AcDbLine
 10
10.7816424946
 20
7.505177917799998
 30
0.0
 11
10.7426343355
 21
7.4968822341
 31
0.0
  0
LINE
  5
271
330
208
100
AcDbEntity
  8
0
  6
Continuous
 62
     7
100
AcDbLine
 10
10.8698662839
 20
7.5237936939
 30
0.0
 11
10.8421811317
 21
7.51793797
 31
0.0
  0
LINE
  5
272
330
208
100
AcDbEntity
  8
0
  6
Continuous
 62
     7
100
AcDbLine
 10
10.8973618845
 20
7.5295061309
 30
0.0
 11
10.8697822034
 21
7.5237760588
 31
0.0
  0
LINE
  5
273
330
208
100
AcDbEntity
  8
0
  6
Continuous
 62
     7
100
AcDbLine
 10
10.7816424946
 20
7.505177917799998
 30
0.0
 11
10.8194197006
 21
7.5130473522
 31
0.0
  0
LINE
  5
274
330
208
100
AcDbEntity
  8
0
  6
Continuous
 62
     7
100
AcDbLine
 10
10.8187243409
 20
7.4968233484
 30
0.0
 11
10.8226181703
 21
7.4976224238
 31
0.0
  0
LINE
  5
275
330
208
100
AcDbEntity
  8
0
  6
Continuous
 62
     7
100
AcDbLine
 10
10.9247432042
 20
7.535090925499999
 30
0.0
 11
10.8972753998
 21
7.5294883148
 31
0.0
  0
LWPOLYLINE
  5
276
330
208
100
AcDbEntity
  8
0
  6
Continuous
 62
     7
100
AcDbPolyline
 90
       23
 70
     0
 43
0.0
 10
7.1906380684
 20
6.7904799569
 10
7.147814420399999
 20
6.792582563499999
 10
7.1083391947
 20
6.794888805499999
 10
7.0683266071
 20
6.797578110299998
 10
7.0277081157
 20
6.800662628799998
 10
6.986488225299998
 20
6.804150568499998
 10
6.944671135399999
 20
6.8080517777
 10
6.9021885827
 20
6.812384429199999
 10
6.859051005099998
 20
6.817156508099999
 10
6.815255051
 20
6.8223722995
 10
6.770712459099998
 20
6.8280467635
 10
6.7254361109
 20
6.834186354999999
 10
6.679423729799998
 20
6.8407998876
 10
6.6325652769
 20
6.847911842899999
 10
6.5848720612
 20
6.855528571799999
 10
6.5363410485
 20
6.863657462499999
 10
6.486841201499998
 20
6.872328806399998
 10
6.4364021011
 20
6.881546562
 10
6.3850068222
 20
6.891321125299998
 10
6.3324551183
 20
6.901696693399999
 10
6.2786946882
 20
6.912690207299998
 10
6.223789146499998
 20
6.924295935199998
 10
6.167713077
 20
6.9365260333
  0
LWPOLYLINE
  5
277
330
208
100
AcDbEntity
  8
0
  6
Continuous
 62
     7
100
AcDbPolyline
 90
       23
 70
     0
 43
0.0
 10
7.1525655086
 20
6.792328018099999
 10
7.1139895946
 20
6.794536612399999
 10
7.074913788599999
 20
6.797111350399999
 10
7.0352902648
 20
6.8000613548
 10
6.9951229091
 20
6.8033926345
 10
6.954415492
 20
6.8071123935
 10
6.913120405099999
 20
6.8112340027
 10
6.871241541699999
 20
6.815766477999999
 10
6.8287826833
 20
6.820717148499999
 10
6.785696021399998
 20
6.826094832499999
 10
6.741985814999998
 20
6.831900932
 10
6.697655061699999
 20
6.8381368082
 10
6.652654736299998
 20
6.8448161958
 10
6.607003267599998
 20
6.8519451157
 10
6.560691293099999
 20
6.8595316322
 10
6.5136277689
 20
6.8675925498
 10
6.4658282869
 20
6.8761261187
 10
6.417285378699999
 20
6.8851379732
 10
6.367874481
 20
6.8946590186
 10
6.317579037699998
 20
6.904697998799998
 10
6.266422752899999
 20
6.915251689799998
 10
6.214342630199998
 20
6.926332034999998
 10
6.1612423696
 20
6.9379604691
  0
LINE
  5
278
330
208
100
AcDbEntity
  8
0
  6
Continuous
 62
     7
100
AcDbLine
 10
3.8487683587
 20
7.529490372999999
 30
0.0
 11
3.8213138511
 21
7.5350902576
 31
0.0
  0
LINE
  5
279
330
208
100
AcDbEntity
  8
0
  6
Continuous
 62
     7
100
AcDbLine
 10
3.923435957099998
 20
7.4976223444
 30
0.0
 11
3.9273294516
 21
7.496823341199998
 31
0.0
  0
LINE
  5
27A
330
208
100
AcDbEntity
  8
0
  6
Continuous
 62
     7
100
AcDbLine
 10
3.876264482799998
 20
7.5237775409
 30
0.0
 11
3.848694624499998
 21
7.529505563599999
 31
0.0
  0
LINE
  5
27B
330
208
100
AcDbEntity
  8
0
  6
Continuous
 62
     7
100
AcDbLine
 10
3.966347162499998
 20
7.504770287799998
 30
0.0
 11
3.9266350381
 21
7.513047141499998
 31
0.0
  0
LINE
  5
27C
330
208
100
AcDbEntity
  8
0
  6
Continuous
 62
     7
100
AcDbLine
 10
4.003433097799998
 20
7.4968792948
 30
0.0
 11
3.964409571999998
 21
7.505178272899999
 31
0.0
  0
LWPOLYLINE
  5
27D
330
208
100
AcDbEntity
  8
0
  6
Continuous
 62
     7
100
AcDbPolyline
 90
        3
 70
     0
 43
0.0
 10
3.9266346136
 20
7.513046636599998
 10
3.903868881
 20
7.5179387686
 10
3.876264482799998
 20
7.5237775409
  0
LINE
  5
27E
330
208
100
AcDbEntity
  8
0
  6
Continuous
 62
     7
100
AcDbLine
 10
4.0409001883
 20
7.488752241499998
 30
0.0
 11
3.9996716319
 21
7.497686682899999
 31
0.0
  0
LINE
  5
27F
330
208
100
AcDbEntity
  8
0
  6
Continuous
 62
     7
100
AcDbLine
 10
4.078747194199998
 20
7.4803894095
 30
0.0
 11
4.0353504197
 21
7.4899656945
 31
0.0
  0
LINE
  5
280
330
208
100
AcDbEntity
  8
0
  6
Continuous
 62
     7
100
AcDbLine
 10
6.167713077
 20
6.9365260333
 30
0.0
 11
6.107228331199999
 21
6.95011967
 31
0.0
  0
LINE
  5
281
330
208
100
AcDbEntity
  8
0
  6
Continuous
 62
     7
100
AcDbLine
 10
6.110203477799998
 20
6.949442927799998
 30
0.0
 11
6.0515336061
 21
6.962986012999999
 31
0.0
  0
LINE
  5
282
330
208
100
AcDbEntity
  8
0
  6
Continuous
 62
     7
100
AcDbLine
 10
6.0525397558
 20
6.962751047699998
 30
0.0
 11
5.9924788352
 21
6.976968918599999
 31
0.0
  0
LWPOLYLINE
  5
283
330
208
100
AcDbEntity
  8
0
  6
Continuous
 62
     7
100
AcDbPolyline
 90
        8
 70
     0
 43
0.0
 10
5.9971483215
 20
6.975851321299998
 10
5.932968510299998
 20
6.991394467
 10
5.873074819099998
 20
7.0062268819
 10
5.813778663699999
 20
7.0211961539
 10
5.755139944999998
 20
7.0362554874
 10
5.6970839013
 20
7.051394136699999
 10
5.6403799598
 20
7.066379151
 10
5.585317953599998
 20
7.081098763299999
  0
LWPOLYLINE
  5
284
330
208
100
AcDbEntity
  8
0
  6
Continuous
 62
     7
100
AcDbPolyline
 90
        7
 70
     0
 43
0.0
 10
5.941087953899998
 20
6.989406890399999
 10
5.8846851386
 20
7.0033271239
 10
5.827938601199998
 20
7.0175959126
 10
5.7708461889
 20
7.0321977109
 10
5.713728046099999
 20
7.047032116599998
 10
5.6565853608
 20
7.062078170399999
 10
5.599406709099998
 20
7.077318159899999
  0
LWPOLYLINE
  5
285
330
208
100
AcDbEntity
  8
0
  6
Continuous
 62
     7
100
AcDbPolyline
 90
       15
 70
     0
 43
0.0
 10
4.6720343994
 20
7.333007911799999
 10
4.627961706599998
 20
7.3447840309
 10
4.5845308117
 20
7.356289795499999
 10
4.541750860699998
 20
7.367519281399999
 10
4.4995684998
 20
7.378483468899998
 10
4.457982749
 20
7.3891799887
 10
4.4169939717
 20
7.3996067483
 10
4.376551236
 20
7.409775001599998
 10
4.3366551704
 20
7.419683217799998
 10
4.2973068024
 20
7.429330262599998
 10
4.2584559023
 20
7.438727707299999
 10
4.220103739499998
 20
7.447874746699999
 10
4.182252596899998
 20
7.4567707457
 10
4.144854185899998
 20
7.4654270608
 10
4.1079109096
 20
7.473843221
  0
LWPOLYLINE
  5
286
330
208
100
AcDbEntity
  8
0
  6
Continuous
 62
     7
100
AcDbPolyline
 90
       16
 70
     0
 43
0.0
 10
4.688837735999999
 20
7.3284932971
 10
4.6457821304
 20
7.3400340683
 10
4.603062722999998
 20
7.3513928008
 10
4.560677219399998
 20
7.362564437899999
 10
4.5186301025
 20
7.3735426948
 10
4.4769198898
 20
7.384323347699998
 10
4.4355452679
 20
7.394902354299999
 10
4.3945116605
 20
7.4052743808
 10
4.353818461999998
 20
7.4154360071
 10
4.313465920199998
 20
7.4253839295
 10
4.2734613366
 20
7.4351134884
 10
4.2338055079
 20
7.444621986299998
 10
4.194499857
 20
7.4539069463
 10
4.1555534059
 20
7.462964395599999
 10
4.1169683361
 20
7.471792472
 10
4.0714256005
 20
7.482019011699999
  0
LINE
  5
287
330
208
100
AcDbEntity
  8
0
  6
Continuous
 62
     7
100
AcDbLine
 10
5.599406709099998
 20
7.077318159899999
 30
0.0
 11
5.5315871535
 21
7.095604592799998
 31
0.0
  0
LINE
  5
288
330
208
100
AcDbEntity
  8
0
  6
Continuous
 62
     7
100
AcDbLine
 10
4.7322320586
 20
7.3167753486
 30
0.0
 11
4.6720343994
 21
7.333007911799999
 31
0.0
  0
LINE
  5
289
330
208
100
AcDbEntity
  8
0
  6
Continuous
 62
     7
100
AcDbLine
 10
4.7759615847
 20
7.304887537099999
 30
0.0
 11
4.716761107299999
 21
7.3209624096
 31
0.0
  0
LWPOLYLINE
  5
28A
330
208
100
AcDbEntity
  8
0
  6
Continuous
 62
     7
100
AcDbPolyline
 90
        5
 70
     0
 43
0.0
 10
5.542489243099999
 20
7.0926512483
 10
5.4790543274
 20
7.109906057299999
 10
5.42779507
 20
7.123958774299999
 10
5.3777173949
 20
7.137766814099998
 10
5.3284389426
 20
7.151417537799998
  0
LINE
  5
28B
330
208
100
AcDbEntity
  8
0
  6
Continuous
 62
     7
100
AcDbLine
 10
4.820029395499998
 20
7.292835620199998
 30
0.0
 11
4.7622275092
 21
7.308629194299999
 31
0.0
  0
LWPOLYLINE
  5
28C
330
208
100
AcDbEntity
  8
0
  6
Continuous
 62
     7
100
AcDbPolyline
 90
        4
 70
     0
 43
0.0
 10
5.4858315811
 20
7.1080552494
 10
5.429420763899998
 20
7.1235119336
 10
5.3735347632
 20
7.138923335399999
 10
5.318165793899999
 20
7.154270083099999
  0
LINE
  5
28D
330
208
100
AcDbEntity
  8
0
  6
Continuous
 62
     7
100
AcDbLine
 10
4.8644389158
 20
7.2806256244
 30
0.0
 11
4.808426093999998
 21
7.2960155628
 31
0.0
  0
LINE
  5
28E
330
208
100
AcDbEntity
  8
0
  6
Continuous
 62
     7
100
AcDbLine
 10
4.909187607599998
 20
7.2682659671
 30
0.0
 11
4.8553699997
 21
7.2831240261
 31
0.0
  0
LINE
  5
28F
330
208
100
AcDbEntity
  8
0
  6
Continuous
 62
     7
100
AcDbLine
 10
4.9542791568
 20
7.255763465299998
 30
0.0
 11
4.9031762556
 21
7.269929242299999
 31
0.0
  0
LINE
  5
290
330
208
100
AcDbEntity
  8
0
  6
Continuous
 62
     7
100
AcDbLine
 10
5.3284389426
 20
7.151417537799998
 30
0.0
 11
5.263305607599999
 21
7.169534247699998
 31
0.0
  0
LINE
  5
291
330
208
100
AcDbEntity
  8
0
  6
Continuous
 62
     7
100
AcDbLine
 10
5.0014229707
 20
7.242650232699998
 30
0.0
 11
4.9518640305
 21
7.256433915099998
 31
0.0
  0
LINE
  5
292
330
208
100
AcDbEntity
  8
0
  6
Continuous
 62
     7
100
AcDbLine
 10
5.279938851099998
 20
7.1649010734
 30
0.0
 11
5.2092307687
 21
7.1846194271
 31
0.0
  0
LINE
  5
293
330
208
100
AcDbEntity
  8
0
  6
Continuous
 62
     7
100
AcDbLine
 10
5.232225911999999
 20
7.1782007496
 30
0.0
 11
4.999717597
 21
7.2431252899
 31
0.0
  0
LINE
  5
294
330
208
100
AcDbEntity
  8
0
  6
Continuous
 62
     7
100
AcDbLine
 10
5.184963857499998
 20
7.1913974344
 30
0.0
 11
5.091605723399998
 21
7.217487190099999
 31
0.0
  0
LINE
  5
295
330
208
100
AcDbEntity
  8
0
  6
Continuous
 62
     7
100
AcDbLine
 10
10.9520118005
 20
7.540547970599999
 30
0.0
 11
10.9246545397
 21
7.5350730038
 31
0.0
  0
LINE
  5
296
330
208
100
AcDbEntity
  8
0
  6
Continuous
 62
     7
100
AcDbLine
 10
10.9791768382
 20
7.5458786934
 30
0.0
 11
10.95192118
 21
7.540530016599998
 31
0.0
  0
LINE
  5
297
330
208
100
AcDbEntity
  8
0
  6
Continuous
 62
     7
100
AcDbLine
 10
11.0062359637
 20
7.551082277799998
 30
0.0
 11
10.9790845035
 21
7.5458607621
 31
0.0
  0
LINE
  5
298
330
208
100
AcDbEntity
  8
0
  6
Continuous
 62
     7
100
AcDbLine
 10
11.0331868667
 20
7.5561579601
 30
0.0
 11
11.0061421598
 21
7.551064425899999
 31
0.0
  0
LINE
  5
299
330
208
100
AcDbEntity
  8
0
  6
Continuous
 62
     7
100
AcDbLine
 10
11.0600387161
 20
7.561107147799998
 30
0.0
 11
11.0330918303
 21
7.5561402509
 31
0.0
  0
LWPOLYLINE
  5
29A
330
208
100
AcDbEntity
  8
0
  6
Continuous
 62
     7
100
AcDbPolyline
 90
       15
 70
     0
 43
0.0
 10
11.4514169938
 20
7.6200934538
 10
11.4259219369
 20
7.617045571499998
 10
11.4003499805
 20
7.613871895299998
 10
11.3746929127
 20
7.6105715461
 10
11.3489533714
 20
7.6071449345
 10
11.3231334729
 20
7.603592411699999
 10
11.2972241705
 20
7.599912768999998
 10
11.2712277072
 20
7.5961064798
 10
11.245146321
 20
7.592174081799999
 10
11.2189708281
 20
7.588114330999998
 10
11.1927035071
 20
7.5839276708
 10
11.1663466091
 20
7.579614668099999
 10
11.1398909372
 20
7.5751740083
 10
11.1133387667
 20
7.5706062033
 10
11.0866924075
 20
7.565911850499999
  0
LWPOLYLINE
  5
29B
330
208
100
AcDbEntity
  8
0
  6
Continuous
 62
     7
100
AcDbPolyline
 90
       16
 70
     0
 43
0.0
 10
11.4515057484
 20
7.620103860299998
 10
11.4260122137
 20
7.617056581399999
 10
11.4004416862
 20
7.613883496699999
 10
11.374785916
 20
7.6105837248
 10
11.3490475328
 20
7.6071576811
 10
11.3232286501
 20
7.6036057225
 10
11.2973202047
 20
7.5999266296
 10
11.2713244508
 20
7.596120862799998
 10
11.2452436226
 20
7.592188963099999
 10
11.2190685093
 20
7.588129686699999
 10
11.1928013927
 20
7.583943474199999
 10
11.1664445306
 20
7.5796308839
 10
11.1399886935
 20
7.575190602899999
 10
11.1134361524
 20
7.5706231497
 10
11.0867892288
 20
7.565929108599998
 10
11.0599426737
 20
7.5610896364
  0
LWPOLYLINE
  5
29C
330
208
100
AcDbEntity
  8
0
  6
Continuous
 62
     7
100
AcDbPolyline
 90
        3
 70
     0
 43
0.0
 10
11.5274285603
 20
7.628480382999999
 10
11.5021687533
 20
7.6258106732
 10
11.4768335901
 20
7.623015252899999
  0
LWPOLYLINE
  5
29D
330
208
100
AcDbEntity
  8
0
  6
Continuous
 62
     7
100
AcDbPolyline
 90
        4
 70
     0
 43
0.0
 10
11.5275122611
 20
7.628489028099999
 10
11.5022541889
 20
7.625819896799999
 10
11.4769207286
 20
7.6230250638
 10
11.4514169938
 20
7.6200934538
  0
LINE
  5
29E
330
208
100
AcDbEntity
  8
0
  6
Continuous
 62
     7
100
AcDbLine
 10
7.5595115438
 20
6.790662828899998
 30
0.0
 11
7.5178420232
 21
6.788985647599998
 31
0.0
  0
LINE
  5
29F
330
208
100
AcDbEntity
  8
0
  6
Continuous
 62
     7
100
AcDbLine
 10
7.5211219307
 20
6.789102852
 30
0.0
 11
7.480735823599999
 21
6.7878373309
 31
0.0
  0
LINE
  5
2A0
330
208
100
AcDbEntity
  8
0
  6
Continuous
 62
     7
100
AcDbLine
 10
7.483187158999998
 20
6.787903148699999
 30
0.0
 11
7.4440728457
 21
6.7870281283
 31
0.0
  0
LINE
  5
2A1
330
208
100
AcDbEntity
  8
0
  6
Continuous
 62
     7
100
AcDbLine
 10
7.4456829436
 20
6.787056907999999
 30
0.0
 11
7.407873488899999
 21
6.786551537699998
 31
0.0
  0
LINE
  5
2A2
330
208
100
AcDbEntity
  8
0
  6
Continuous
 62
     7
100
AcDbLine
 10
7.408639922799998
 20
6.7865582296
 30
0.0
 11
7.3730268769
 21
6.7863995397
 31
0.0
  0
LINE
  5
2A3
330
208
100
AcDbEntity
  8
0
  6
Continuous
 62
     7
100
AcDbLine
 10
7.373026885999999
 20
6.7863995783
 30
0.0
 11
7.337496977999999
 21
6.7865574871
 31
0.0
  0
LINE
  5
2A4
330
208
100
AcDbEntity
  8
0
  6
Continuous
 62
     7
100
AcDbLine
 10
7.338178522299998
 20
6.7865515546
 30
0.0
 11
7.300516912999999
 21
6.7870542653
 31
0.0
  0
LINE
  5
2A5
330
208
100
AcDbEntity
  8
0
  6
Continuous
 62
     7
100
AcDbLine
 10
7.301977310899999
 20
6.787028179299999
 30
0.0
 11
7.263055416599998
 21
6.787898007599999
 31
0.0
  0
LINE
  5
2A6
330
208
100
AcDbEntity
  8
0
  6
Continuous
 62
     7
100
AcDbLine
 10
7.265312367499999
 20
6.787837459199999
 30
0.0
 11
7.2251397376
 21
6.7890953269
 31
0.0
  0
LINE
  5
2A7
330
208
100
AcDbEntity
  8
0
  6
Continuous
 62
     7
100
AcDbLine
 10
7.228204108399999
 20
6.7889859184
 30
0.0
 11
7.186749046
 21
6.790653523099999
 31
0.0
  0
LWPOLYLINE
  5
2A8
330
208
100
AcDbEntity
  8
0
  6
Continuous
 62
     7
100
AcDbPolyline
 90
       10
 70
     0
 43
0.0
 10
3.218625996999998
 20
7.6284802852
 10
3.1934454866
 20
7.63102381
 10
3.1683447185
 20
7.6334410714
 10
3.143317946899998
 20
7.635732711599998
 10
3.118367385799998
 20
7.637898613399999
 10
3.093495236
 20
7.639938662499998
 10
3.0686958042
 20
7.641853347899999
 10
3.0439713448
 20
7.643642590099998
 10
3.019324156899998
 20
7.645306399999999
 10
2.994657985199998
 20
7.646850742
  0
LWPOLYLINE
  5
2A9
330
208
100
AcDbEntity
  8
0
  6
Continuous
 62
     7
100
AcDbPolyline
 90
        9
 70
     0
 43
0.0
 10
3.218534131499998
 20
7.6284897763
 10
3.193353178199998
 20
7.6310329083
 10
3.1682521085
 20
7.6334497582
 10
3.1432251816
 20
7.6357409787
 10
3.1182746067
 20
7.637906448699999
 10
3.0934025798
 20
7.6399460495
 10
3.068603412999998
 20
7.641860272999999
 10
3.0438793599
 20
7.643649051799999
 10
3.019232716999998
 20
7.645312385199998
  0
LWPOLYLINE
  5
2AA
330
208
100
AcDbEntity
  8
0
  6
Continuous
 62
     7
100
AcDbPolyline
 90
        7
 70
     0
 43
0.0
 10
3.371350419599998
 20
7.6105729271
 10
3.345695126799998
 20
7.613873009899998
 10
3.320125031
 20
7.617046414299999
 10
3.2946318586
 20
7.620094024099998
 10
3.269217165199998
 20
7.623015576799999
 10
3.2438839235
 20
7.625810774899998
 10
3.218534131499998
 20
7.6284897763
  0
LWPOLYLINE
  5
2AB
330
208
100
AcDbEntity
  8
0
  6
Continuous
 62
     7
100
AcDbPolyline
 90
        6
 70
     0
 43
0.0
 10
3.371263901499998
 20
7.610584252999999
 10
3.345607446399998
 20
7.613884096399998
 10
3.3200362666
 20
7.617057232499998
 10
3.2945421297
 20
7.620104539799998
 10
3.269126599399998
 20
7.623025771799999
 10
3.2437926405
 20
7.625820630199998
  0
LWPOLYLINE
  5
2AC
330
208
100
AcDbEntity
  8
0
  6
Continuous
 62
     7
100
AcDbPolyline
 90
        3
 70
     0
 43
0.0
 10
3.4229066011
 20
7.603594336799999
 10
3.3970882806
 20
7.6071465833
 10
3.371263901499998
 20
7.610584252999999
  0
LINE
  5
2AD
330
208
100
AcDbEntity
  8
0
  6
Continuous
 62
     7
100
AcDbLine
 10
3.422822669299998
 20
7.603606075499999
 30
0.0
 11
3.3970030129
 21
7.6071581244
 31
0.0
  0
LINE
  5
2AE
330
208
100
AcDbEntity
  8
0
  6
Continuous
 62
     7
100
AcDbLine
 10
3.4488144731
 20
7.599914965099999
 30
0.0
 11
3.422822669299998
 21
7.603606075499999
 31
0.0
  0
LINE
  5
2AF
330
208
100
AcDbEntity
  8
0
  6
Continuous
 62
     7
100
AcDbLine
 10
3.474809641899998
 20
7.596108927899999
 30
0.0
 11
3.4487318929
 21
7.599926888599998
 31
0.0
  0
LINE
  5
2B0
330
208
100
AcDbEntity
  8
0
  6
Continuous
 62
     7
100
AcDbLine
 10
3.500889873999998
 20
7.592176767399998
 30
0.0
 11
3.474728414399998
 21
7.5961210094
 31
0.0
  0
LINE
  5
2B1
330
208
100
AcDbEntity
  8
0
  6
Continuous
 62
     7
100
AcDbLine
 10
3.5270644079
 20
7.588117236499998
 30
0.0
 11
3.500810003899998
 21
7.592188986
 31
0.0
  0
LINE
  5
2B2
330
208
100
AcDbEntity
  8
0
  6
Continuous
 62
     7
100
AcDbLine
 10
3.5533309649
 20
7.5839307778
 30
0.0
 11
3.5269858399
 21
7.588129587899999
 31
0.0
  0
LINE
  5
2B3
330
208
100
AcDbEntity
  8
0
  6
Continuous
 62
     7
100
AcDbLine
 10
3.579687289499998
 20
7.579617950299998
 30
0.0
 11
3.553253642
 21
7.583943260599999
 31
0.0
  0
LINE
  5
2B4
330
208
100
AcDbEntity
  8
0
  6
Continuous
 62
     7
100
AcDbLine
 10
3.606142633799998
 20
7.575177430399999
 30
0.0
 11
3.579611146299998
 21
7.579630555599999
 31
0.0
  0
LINE
  5
2B5
330
208
100
AcDbEntity
  8
0
  6
Continuous
 62
     7
100
AcDbLine
 10
3.6326947248
 20
7.5706097296
 30
0.0
 11
3.6060675479
 21
7.5751901696
 31
0.0
  0
LINE
  5
2B6
330
208
100
AcDbEntity
  8
0
  6
Continuous
 62
     7
100
AcDbLine
 10
3.6593412492
 20
7.5659154364
 30
0.0
 11
3.6326205794
 21
7.5706226261
 31
0.0
  0
LINE
  5
2B7
330
208
100
AcDbEntity
  8
0
  6
Continuous
 62
     7
100
AcDbLine
 10
3.6860914448
 20
7.561093220499999
 30
0.0
 11
3.6592679169
 21
7.565928506799999
 31
0.0
  0
LINE
  5
2B8
330
208
100
AcDbEntity
  8
0
  6
Continuous
 62
     7
100
AcDbLine
 10
3.712943050899998
 20
7.5561437708
 30
0.0
 11
3.686018726899998
 21
7.56110648
 31
0.0
  0
LINE
  5
2B9
330
208
100
AcDbEntity
  8
0
  6
Continuous
 62
     7
100
AcDbLine
 10
3.7398937855
 20
7.5510678171
 30
0.0
 11
3.7128707616
 21
7.5561572421
 31
0.0
  0
LINE
  5
2BA
330
208
100
AcDbEntity
  8
0
  6
Continuous
 62
     7
100
AcDbLine
 10
3.766952857099998
 20
7.545863946399999
 30
0.0
 11
3.739821740899998
 21
7.5510815288
 31
0.0
  0
LINE
  5
2BB
330
208
100
AcDbEntity
  8
0
  6
Continuous
 62
     7
100
AcDbLine
 10
3.794117947599998
 20
7.540532913899999
 30
0.0
 11
3.766880795799998
 21
7.545877940099998
 31
0.0
  0
LINE
  5
2BC
330
208
100
AcDbEntity
  8
0
  6
Continuous
 62
     7
100
AcDbLine
 10
3.821386705
 20
7.5350755312
 30
0.0
 11
3.794045617
 21
7.5405472433
 31
0.0
  0
LWPOLYLINE
  5
2BD
330
208
100
AcDbEntity
  8
0
  6
Continuous
 62
     7
100
AcDbPolyline
 90
       11
 70
     0
 43
0.0
 10
11.8002457976
 20
7.649548766399998
 10
11.7758205435
 20
7.6482598761
 10
11.751318659
 20
7.646846063799999
 10
11.7267424565
 20
7.645307213899998
 10
11.7020942593
 20
7.643643401799999
 10
11.6773686233
 20
7.6418541365
 10
11.6525678471
 20
7.639939398099999
 10
11.62769418
 20
7.6378992783
 10
11.6027419972
 20
7.6357332859
 10
11.5777135035
 20
7.633441522999999
 10
11.5526109174
 20
7.631024094699998
  0
LWPOLYLINE
  5
2BE
330
208
100
AcDbEntity
  8
0
  6
Continuous
 62
     7
100
AcDbPolyline
 90
       12
 70
     0
 43
0.0
 10
11.8003126974
 20
7.649552113799998
 10
11.775888411
 20
7.6482636232
 10
11.7513876514
 20
7.6468502471
 10
11.7268127288
 20
7.645311831099999
 10
11.7021659654
 20
7.643648450099998
 10
11.6774418592
 20
7.641859630199999
 10
11.6526427073
 20
7.6399453683
 10
11.6277707614
 20
7.637905741299999
 10
11.6028203336
 20
7.6357402565
 10
11.5777936242
 20
7.6334490257
 10
11.5526928472
 20
7.6310321634
 10
11.5274285603
 20
7.628480382999999
  0
LINE
  5
2BF
330
208
100
AcDbEntity
  8
0
  6
Continuous
 62
     7
100
AcDbLine
 10
11.8246659232
 20
7.6507163107
 30
0.0
 11
11.8002457976
 21
7.649548766399998
 31
0.0
  0
LINE
  5
2C0
330
208
100
AcDbEntity
  8
0
  6
Continuous
 62
     7
100
AcDbLine
 10
11.848945709
 20
7.6517563375
 30
0.0
 11
11.824599775
 21
7.6507133295
 31
0.0
  0
LINE
  5
2C1
330
208
100
AcDbEntity
  8
0
  6
Continuous
 62
     7
100
AcDbLine
 10
11.8731496733
 20
7.6526723444
 30
0.0
 11
11.8488801016
 21
7.651753697899999
 31
0.0
  0
LWPOLYLINE
  5
2C2
330
208
100
AcDbEntity
  8
0
  6
Continuous
 62
     7
100
AcDbPolyline
 90
        7
 70
     0
 43
0.0
 10
12.0168551876
 20
7.655580174799998
 10
11.9930866282
 20
7.655402094099998
 10
11.9692425779
 20
7.6551018476
 10
11.9453281777
 20
7.654679148699998
 10
11.9213434005
 20
7.6541336287
 10
11.8972830708
 20
7.653464751
 10
11.8730844068
 20
7.652670023999998
  0
LWPOLYLINE
  5
2C3
330
208
100
AcDbEntity
  8
0
  6
Continuous
 62
     7
100
AcDbPolyline
 90
        7
 70
     0
 43
0.0
 10
12.0168200387
 20
7.6555799114
 10
12.0167857959
 20
7.6555798263
 10
11.9930187612
 20
7.6554014064
 10
11.9691759123
 20
7.655100837999999
 10
11.9452623348
 20
7.654677817499998
 10
11.9212780243
 20
7.654131958999998
 10
11.8972178821
 20
7.653462744999998
  0
LINE
  5
2C4
330
208
100
AcDbEntity
  8
0
  6
Continuous
 62
     7
100
AcDbLine
 10
0.7741591781999999
 20
7.6398562399
 30
0.0
 11
2.648621972399999
 21
7.639856234299999
 31
0.0
  0
LINE
  5
2C5
330
208
100
AcDbEntity
  8
0
  6
Continuous
 62
     7
100
AcDbLine
 10
12.0974290555
 20
7.639856237
 30
0.0
 11
13.971894576
 21
7.6398562399
 31
0.0
  0
LINE
  5
2C6
330
208
100
AcDbEntity
  8
0
  6
Continuous
 62
     7
100
AcDbLine
 10
13.9558122322
 20
7.655637218999998
 30
0.0
 11
13.9559941654
 21
7.6556372336
 31
0.0
  0
LINE
  5
2C7
330
208
100
AcDbEntity
  8
0
  6
Continuous
 62
     7
100
AcDbLine
 10
12.0397316458
 20
7.6556364994
 30
0.0
 11
13.9558122322
 21
7.655637218999998
 31
0.0
  0
LINE
  5
2C8
330
208
100
AcDbEntity
  8
0
  6
Continuous
 62
     7
100
AcDbLine
 10
12.0397316458
 20
7.655636439099998
 30
0.0
 11
12.0168551876
 21
7.655580174799998
 31
0.0
  0
LINE
  5
2C9
330
208
100
AcDbEntity
  8
0
  6
Continuous
 62
     7
100
AcDbLine
 10
2.7064813535
 20
7.655636498599998
 30
0.0
 11
0.7899439148000002
 21
7.6556364994
 31
0.0
  0
LINE
  5
2CA
330
208
100
AcDbEntity
  8
0
  6
Continuous
 62
     7
100
AcDbLine
 10
13.9559941654
 20
7.6556372336
 30
0.0
 11
13.9555369067
 21
7.655637239199999
 31
0.0
  0
LWPOLYLINE
  5
2CB
330
208
100
AcDbEntity
  8
0
  6
Continuous
 62
     7
100
AcDbPolyline
 90
        4
 70
     0
 43
0.0
 10
2.776885906399999
 20
7.6551007145
 10
2.7530406723
 20
7.655401347999999
 10
2.729270867399999
 20
7.655579810999999
 10
2.706481755299999
 20
7.6556365016
  0
LINE
  5
2CC
330
208
100
AcDbEntity
  8
0
  6
Continuous
 62
     7
100
AcDbLine
 10
2.776808009499999
 20
7.655101894199999
 30
0.0
 11
2.767039203399999
 21
7.6552248984
 31
0.0
  0
LWPOLYLINE
  5
2CD
330
208
100
AcDbEntity
  8
0
  6
Continuous
 62
     7
100
AcDbPolyline
 90
        3
 70
     0
 43
0.0
 10
2.824787333299998
 20
7.654131669099998
 10
2.8008014541
 20
7.6546776145
 10
2.776808009499999
 20
7.655101894199999
  0
LINE
  5
2CE
330
208
100
AcDbEntity
  8
0
  6
Continuous
 62
     7
100
AcDbLine
 10
2.824705578999998
 20
7.654133751199998
 30
0.0
 11
2.8007215704
 21
7.6546792288
 31
0.0
  0
LWPOLYLINE
  5
2CF
330
208
100
AcDbEntity
  8
0
  6
Continuous
 62
     7
100
AcDbPolyline
 90
        8
 70
     0
 43
0.0
 10
2.9947487316
 20
7.646845260499999
 10
2.9702473929
 20
7.6482590926
 10
2.9458224547
 20
7.649548028999998
 10
2.9214685018
 20
7.650712661799999
 10
2.8971879129
 20
7.6517531154
 10
2.872983064599998
 20
7.6526695374
 10
2.848848703199998
 20
7.6534623595
 10
2.824705578999998
 20
7.654133751199998
  0
LWPOLYLINE
  5
2D0
330
208
100
AcDbEntity
  8
0
  6
Continuous
 62
     7
100
AcDbPolyline
 90
        7
 70
     0
 43
0.0
 10
2.994657985199998
 20
7.646850742
 10
2.970157485899998
 20
7.648264052999999
 10
2.945733528999998
 20
7.6495524849
 10
2.9213807055
 20
7.650716627599998
 10
2.8971013954
 20
7.651756603099999
 10
2.872897981299998
 20
7.652672561599998
 10
2.8487652097
 20
7.6534649212
  0
LINE
  5
2D1
330
208
100
AcDbEntity
  8
0
  6
Continuous
 62
     7
100
AcDbLine
 10
10.8155371652
 20
7.512246200499999
 30
0.0
 11
10.8187243409
 21
7.4968233484
 31
0.0
  0
LWPOLYLINE
  5
2D2
330
208
100
AcDbEntity
  8
0
  6
Continuous
 62
     7
100
AcDbPolyline
 90
       48
 70
     0
 43
0.0
 10
11.234893593
 20
2.0678468352
 10
11.2385568767
 20
2.0784135297
 10
11.2428642363
 20
2.0905227517
 10
11.2472239182
 20
2.102451256
 10
11.2516241308
 20
2.1141744753
 10
11.2560618141
 20
2.125692283499998
 10
11.2605438588
 20
2.1370290862
 10
11.2650653451
 20
2.1481778296
 10
11.2696195538
 20
2.159127629299999
 10
11.2742127543
 20
2.169898552599998
 10
11.2788414138
 20
2.180486426899999
 10
11.2834996061
 20
2.1908820572
 10
11.2881914981
 20
2.201098736399998
 10
11.2929136134
 20
2.211132368499999
 10
11.2976614171
 20
2.220977005499999
 10
11.3024385479
 20
2.2306435638
 10
11.3072420384
 20
2.2401290119
 10
11.3120679943
 20
2.249428815499999
 10
11.3169194882
 20
2.2585518146
 10
11.3217942361
 20
2.267496309099998
 10
11.3266885708
 20
2.276258322599999
 10
11.3316040896
 20
2.2848433717
 10
11.3365391456
 20
2.293251023199998
 10
11.3414900719
 20
2.3014776108
 10
11.346455762
 20
2.309523981499999
 10
11.3514341131
 20
2.317389422199998
 10
11.3564222093
 20
2.325072142899998
 10
11.3614178466
 20
2.332571692599998
 10
11.3664174619
 20
2.339885828299999
 10
11.3714197573
 20
2.347015864399998
 10
11.3764261218
 20
2.3539668259
 10
11.3814331181
 20
2.360736944799998
 10
11.3864397715
 20
2.3673280004
 10
11.3914516129
 20
2.373749991499999
 10
11.3964667888
 20
2.3800029449
 10
11.4014834451
 20
2.3860870305
 10
11.4065076679
 20
2.392011791399998
 10
11.4115380135
 20
2.3977773615
 10
11.4165728407
 20
2.403383763799999
 10
11.4216184602
 20
2.4088396239
 10
11.4266738182
 20
2.414145078199998
 10
11.431737443
 20
2.419299916299999
 10
11.4368154904
 20
2.424311461999999
 10
11.4419067977
 20
2.429179341299998
 10
11.4470104795
 20
2.433903531199999
 10
11.4521335571
 20
2.438491033899998
 10
11.457277948
 20
2.442943631899999
 10
11.462440218
 20
2.447258457899998
  0
LWPOLYLINE
  5
2D3
330
208
100
AcDbEntity
  8
0
  6
Continuous
 62
     7
100
AcDbPolyline
 90
      111
 70
     0
 43
0.0
 10
11.462440218
 20
2.447258457899998
 10
11.503238542
 20
2.4799683583
 10
11.5451130724
 20
2.5140460183
 10
11.5867127942
 20
2.548468865999999
 10
11.6280348168
 20
2.583234849
 10
11.6690769916
 20
2.6183425576
 10
11.7098364668
 20
2.653790004799998
 10
11.7503103149
 20
2.689574876
 10
11.7904963594
 20
2.725695163199998
 10
11.8303924431
 20
2.7621488781
 10
11.8699954149
 20
2.7989331312
 10
11.9093016296
 20
2.8360445329
 10
11.9483086068
 20
2.873480757799998
 10
11.9870135598
 20
2.9112391893
 10
12.02541244
 20
2.949315939299998
 10
12.0635027241
 20
2.9877085767
 10
12.1012817314
 20
3.0264145131
 10
12.1387452502
 20
3.0654295472
 10
12.1758906108
 20
3.104751011999998
 10
12.2127153613
 20
3.144376469599998
 10
12.2492156909
 20
3.184301990699998
 10
12.2853883461
 20
3.2245241798
 10
12.321231538
 20
3.265041256099998
 10
12.3567436604
 20
3.3058517054
 10
12.3919220002
 20
3.346952678999998
 10
12.4267645318
 20
3.3883415863
 10
12.4612706152
 20
3.4300173567
 10
12.4954382724
 20
3.471977386199998
 10
12.5292650838
 20
3.5142185331
 10
12.5627496767
 20
3.5567389774
 10
12.5958899093
 20
3.5995359699
 10
12.6286834734
 20
3.642606547799998
 10
12.661128701
 20
3.6859486038
 10
12.6932233479
 20
3.7295592924
 10
12.7249651683
 20
3.773435766
 10
12.7563524538
 20
3.8175759397
 10
12.7873829857
 20
3.8619770454
 10
12.8180544476
 20
3.9066361766
 10
12.8483649504
 20
3.951551060899998
 10
12.8783124236
 20
3.9967191908
 10
12.9078943626
 20
4.042137410099998
 10
12.9371082272
 20
4.087802469299997
 10
12.9659519976
 20
4.133711493299998
 10
12.99442376
 20
4.1798612716
 10
13.0225212504
 20
4.2262479736
 10
13.0502426442
 20
4.272868460599998
 10
13.0775861157
 20
4.319719592799998
 10
13.1045494331
 20
4.366797513899999
 10
13.1311308501
 20
4.414099185299999
 10
13.1573284905
 20
4.461621338699998
 10
13.1831399695
 20
4.5093597473
 10
13.2085637496
 20
4.557311713399998
 10
13.233597788
 20
4.605473595
 10
13.2582390279
 20
4.653839700899998
 10
13.2824855492
 20
4.702406433399999
 10
13.3063358264
 20
4.7511709762
 10
13.3297874881
 20
4.800128762399999
 10
13.3528378104
 20
4.849274348499998
 10
13.3754861689
 20
4.8986067197
 10
13.397733319
 20
4.9481279631
 10
13.4195778933
 20
4.9978349291
 10
13.4410184362
 20
5.0477240635
 10
13.4620555854
 20
5.097796833999999
 10
13.4826893535
 20
5.1480536232
 10
13.5029166823
 20
5.1984874196
 10
13.5227336365
 20
5.249088583599998
 10
13.5421390598
 20
5.299854210899999
 10
13.5611314163
 20
5.3507804159
 10
13.5797065447
 20
5.401855951199999
 10
13.5978621961
 20
5.453074211599998
 10
13.6155983693
 20
5.5044348507
 10
13.6329144288
 20
5.555935954999998
 10
13.6498089056
 20
5.6075732002
 10
13.6662809108
 20
5.659344010899999
 10
13.6823305398
 20
5.711249144199999
 10
13.6979567387
 20
5.763285977699998
 10
13.7131579886
 20
5.8154503083
 10
13.7279337965
 20
5.867740490399999
 10
13.7422834054
 20
5.920153241599998
 10
13.7562059142
 20
5.972684735599999
 10
13.7697007633
 20
6.025332462699998
 10
13.7827671033
 20
6.078092871299999
 10
13.7954040845
 20
6.130962407899999
 10
13.8076110949
 20
6.183938571299998
 10
13.8193872808
 20
6.237017913499999
 10
13.8307317416
 20
6.290196781
 10
13.8416437514
 20
6.343472371599998
 10
13.8521225084
 20
6.3968416227
 10
13.8621670147
 20
6.4503004932
 10
13.8717762482
 20
6.5038447109
 10
13.8809493536
 20
6.5574708599
 10
13.8896854246
 20
6.611175233099999
 10
13.8979834074
 20
6.664953109899999
 10
13.9058424499
 20
6.7188009199
 10
13.9132618286
 20
6.7727150746
 10
13.9202410141
 20
6.826690779299999
 10
13.9267797201
 20
6.8807245098
 10
13.9328776295
 20
6.9348124961
 10
13.9385342879
 20
6.988949558899999
 10
13.9437494695
 20
7.0431324535
 10
13.9485228666
 20
7.097357118899998
 10
13.9528540068
 20
7.1516171396
 10
13.9567426997
 20
7.205908941799999
 10
13.9601887426
 20
7.260228782999999
 10
13.9631917849
 20
7.314569985499999
 10
13.9657517051
 20
7.3689288958
 10
13.967868381
 20
7.423301850499999
 10
13.96954161
 20
7.477682152799998
 10
13.9707713261
 20
7.532065133999998
 10
13.9715575177
 20
7.586448156
 10
13.9718978974
 20
7.6398512934
  0
ARC
  5
31F
330
208
100
AcDbEntity
  8
0
  6
Continuous
 62
     7
100
AcDbCircle
 10
2.0415127954
 20
-1.6306888402
 30
0.0
 40
9.336037535499999
100
AcDbArc
 50
78.1261405967
 51
78.3264842494
  0
ARC
  5
320
330
208
100
AcDbEntity
  8
0
  6
Continuous
 62
     7
100
AcDbCircle
 10
2.254652389699999
 20
-0.2118966661
 30
0.0
 40
7.903813863999998
100
AcDbArc
 50
77.7873184236
 51
78.3287703556
  0
ARC
  5
321
330
208
100
AcDbEntity
  8
0
  6
Continuous
 62
     7
100
AcDbCircle
 10
2.654833192399999
 20
2.70209906
 30
0.0
 40
4.953537385799998
100
AcDbArc
 50
89.40793625879999
 51
89.99807428910001
  0
ARC
  5
322
330
208
100
AcDbEntity
  8
0
  6
Continuous
 62
     7
100
AcDbCircle
 10
2.654932712299999
 20
2.7212360361
 30
0.0
 40
4.934400432099999
100
AcDbArc
 50
89.40494826959998
 51
89.9992526964
  0
ARC
  5
323
330
208
100
AcDbEntity
  8
0
  6
Continuous
 62
     7
100
AcDbCircle
 10
2.7662488299
 20
1.812694321699998
 30
0.0
 40
0.7873990950000001
100
AcDbArc
 50
14.9309436998
 51
18.907761669
  0
ARC
  5
324
330
208
100
AcDbEntity
  8
0
  6
Continuous
 62
     7
100
AcDbCircle
 10
3.5651038485
 20
2.025715239499998
 30
0.0
 40
0.0393700787
100
AcDbArc
 50
194.9309210461
 51
270.0
  0
ARC
  5
325
330
208
100
AcDbEntity
  8
0
  6
Continuous
 62
     7
100
AcDbCircle
 10
6.018696168399999
 20
1.9627231136
 30
0.0
 40
0.0157480315
100
AcDbArc
 50
270.0
 51
360.0
  0
ARC
  5
326
330
208
100
AcDbEntity
  8
0
  6
Continuous
 62
     7
100
AcDbCircle
 10
5.499011128999998
 20
1.9627231136
 30
0.0
 40
0.0157480315
100
AcDbArc
 50
180.0
 51
270.0
  0
ARC
  5
327
330
208
100
AcDbEntity
  8
0
  6
Continuous
 62
     7
100
AcDbCircle
 10
0.7899071636000002
 20
7.639889206499998
 30
0.0
 40
0.0157480213
100
AcDbArc
 50
90.01837464100002
 51
180.1199236975999
  0
ARC
  5
328
330
208
100
AcDbEntity
  8
0
  6
Continuous
 62
     7
100
AcDbCircle
 10
10.9342088621
 20
-4.404799892399998
 30
0.0
 40
6.471246882
100
AcDbArc
 50
89.97829547850002
 51
90.25308393420001
  0
ARC
  5
329
330
208
100
AcDbEntity
  8
0
  6
Continuous
 62
     7
100
AcDbCircle
 10
12.0912213461
 20
2.701888917599999
 30
0.0
 40
4.9537475281
100
AcDbArc
 50
90.00193734099999
 51
90.5939434008
  0
ARC
  5
32A
330
208
100
AcDbEntity
  8
0
  6
Continuous
 62
     7
100
AcDbCircle
 10
11.9797787064
 20
1.8127030986
 30
0.0
 40
0.7873989691
100
AcDbArc
 50
161.0922526732
 51
165.0696842667
  0
ARC
  5
32B
330
208
100
AcDbEntity
  8
0
  6
Continuous
 62
     7
100
AcDbCircle
 10
9.2470426251
 20
1.9627231136
 30
0.0
 40
0.0157480315
100
AcDbArc
 50
270.0
 51
360.0
  0
ARC
  5
32C
330
208
100
AcDbEntity
  8
0
  6
Continuous
 62
     7
100
AcDbCircle
 10
8.7273575857
 20
1.9627231136
 30
0.0
 40
0.0157480315
100
AcDbArc
 50
180.0
 51
270.0
  0
ARC
  5
32D
330
208
100
AcDbEntity
  8
0
  6
Continuous
 62
     7
100
AcDbCircle
 10
13.9561465904
 20
7.639889206499998
 30
0.0
 40
0.0157480213
100
AcDbArc
 50
359.8800762532
 51
89.9816262128
  0
SPLINE
  5
3C6
330
208
100
AcDbEntity
  8
0
  6
Continuous
 62
     7
100
AcDbSpline
210
0.0
220
0.0
230
1.0
 70
     8
 71
     3
 72
    10
 73
     6
 74
     0
 42
0.0000000001
 43
0.0000000001
 40
0.0
 40
0.0
 40
0.0
 40
0.0
 40
0.5110433809
 40
0.7597084167000001
 40
1.0
 40
1.0
 40
1.0
 40
1.0
 10
10.8194196649
 20
7.513046750499999
 30
0.0
 10
11.0242879388
 20
7.557380316699999
 30
0.0
 10
11.3317960903
 20
7.611503386499998
 30
0.0
 10
11.7404056216
 20
7.649177730199999
 30
0.0
 10
11.9410092775
 20
7.655634611199999
 30
0.0
 10
12.039567621
 20
7.655636498499998
 30
0.0
  0
SPLINE
  5
3C7
330
208
100
AcDbEntity
  8
0
  6
Continuous
 62
     7
100
AcDbSpline
210
0.0
220
0.0
230
1.0
 70
     8
 71
     3
 72
     9
 73
     5
 74
     0
 42
0.0000000001
 43
0.0000000001
 40
0.0
 40
0.0
 40
0.0
 40
0.0
 40
0.5101161311000002
 40
1.0
 40
1.0
 40
1.0
 40
1.0
 10
3.853558883999998
 20
7.5285020071
 30
0.0
 10
3.6698802867
 20
7.5664366944
 30
0.0
 10
3.306864790699998
 20
7.6276979522
 30
0.0
 10
2.939261786899998
 20
7.653284292599998
 30
0.0
 10
2.759157310199999
 20
7.655335206599998
 30
0.0
  0
SPLINE
  5
3C8
330
208
100
AcDbEntity
  8
0
  6
Continuous
 62
     7
100
AcDbSpline
210
0.0
220
0.0
230
1.0
 70
     8
 71
     3
 72
     9
 73
     5
 74
     0
 42
0.0000000001
 43
0.0000000001
 40
0.0
 40
0.0
 40
0.0
 40
0.0
 40
0.5099397525000002
 40
1.0
 40
1.0
 40
1.0
 40
1.0
 10
3.775638424999999
 20
7.542796894099998
 30
0.0
 10
3.596655218999998
 20
7.5763801232
 30
0.0
 10
3.2432895155
 20
7.630583939400001
 30
0.0
 10
2.886249264599998
 20
7.6533255897
 30
0.0
 10
2.711253203399999
 20
7.6553152077
 30
0.0
  0
SPLINE
  5
3C9
330
208
100
AcDbEntity
  8
0
  6
Continuous
 62
     7
100
AcDbSpline
210
0.0
220
0.0
230
1.0
 70
     8
 71
     3
 72
     9
 73
     5
 74
     0
 42
0.0000000001
 43
0.0000000001
 40
0.0
 40
0.0
 40
0.0
 40
0.0
 40
0.4899675101
 40
1.0
 40
1.0
 40
1.0
 40
1.0
 10
12.0398704157
 20
7.6553703083
 30
0.0
 10
11.8640784741
 20
7.653549667899999
 30
0.0
 10
11.5053269494
 20
7.6309468796
 30
0.0
 10
11.1502775987
 20
7.576544919299999
 30
0.0
 10
10.9704156148
 20
7.5427968447
 30
0.0
  0
SPLINE
  5
3CA
330
208
100
AcDbEntity
  8
0
  6
Continuous
 62
     7
100
AcDbSpline
210
0.0
220
0.0
230
1.0
 70
     8
 71
     3
 72
    10
 73
     6
 74
     0
 42
0.0000000001
 43
0.0000000001
 40
0.0
 40
0.0
 40
0.0
 40
0.0
 40
0.2411829221
 40
0.4899811255
 40
1.0
 40
1.0
 40
1.0
 40
1.0
 10
2.706178558999999
 20
7.655370356099998
 30
0.0
 10
2.8050903212
 20
7.654346039299999
 30
0.0
 10
3.006020127599998
 20
7.646350721699999
 30
0.0
 10
3.414475681799998
 20
7.6076569859
 30
0.0
 10
3.721768051499998
 20
7.5552837173
 30
0.0
 10
3.9266347787
 20
7.513045876299998
 30
0.0
  0
SPLINE
  5
3CB
330
208
100
AcDbEntity
  8
0
  6
Continuous
 62
     7
100
AcDbSpline
210
0.0
220
0.0
230
1.0
 70
     8
 71
     3
 72
    10
 73
     6
 74
     0
 42
0.0000000001
 43
0.0000000001
 40
0.0
 40
0.0
 40
0.0
 40
0.0
 40
0.5100187661
 40
0.7588170097
 40
1.0
 40
1.0
 40
1.0
 40
1.0
 10
10.8194203816
 20
7.5130461994
 30
0.0
 10
11.0242859963
 20
7.5552839672
 30
0.0
 10
11.3315768156
 20
7.607656775099998
 30
0.0
 10
11.7400302749
 20
7.6463505265
 30
0.0
 10
11.9409591037
 20
7.654345887699999
 30
0.0
 10
12.0398703917
 20
7.6553702844
 30
0.0
  0
SPLINE
  5
3CC
330
208
100
AcDbEntity
  8
0
  6
Continuous
 62
     7
100
AcDbSpline
210
0.0
220
0.0
230
1.0
 70
     8
 71
     3
 72
    10
 73
     6
 74
     0
 42
0.0000000001
 43
0.0000000001
 40
0.0
 40
0.0
 40
0.0
 40
0.0
 40
0.2402915403
 40
0.4889565529000002
 40
1.0
 40
1.0
 40
1.0
 40
1.0
 10
2.7064813535
 20
7.655636498599998
 30
0.0
 10
2.8050401047
 20
7.655634661199998
 30
0.0
 10
3.005644606399998
 20
7.649177999299999
 30
0.0
 10
3.4142559235
 20
7.611503671799999
 30
0.0
 10
3.721765430899998
 20
7.5573804095
 30
0.0
 10
3.9266346132
 20
7.513046635
 30
0.0
  0
LINE
  5
3CD
330
208
100
AcDbEntity
  8
0
  6
Continuous
 62
     7
100
AcDbLine
 10
11.9790317787
 20
7.6552390219
 30
0.0
 11
11.976795491
 21
7.6552092644
 31
0.0
  0
SPLINE
  5
3CE
330
208
100
AcDbEntity
  8
0
  6
Continuous
 62
     7
100
AcDbSpline
210
0.0
220
0.0
230
1.0
 70
     8
 71
     3
 72
     9
 73
     5
 74
     0
 42
0.0000000001
 43
0.0000000001
 40
0.0
 40
0.0
 40
0.0
 40
0.0
 40
0.4900737535000001
 40
1.0
 40
1.0
 40
1.0
 40
1.0
 10
11.976795491
 20
7.6552092644
 30
0.0
 10
11.7982761075
 20
7.6527911874
 30
0.0
 10
11.4340964173
 20
7.626900467799998
 30
0.0
 10
11.0744367894
 20
7.566077701
 30
0.0
 10
10.8925080705
 20
7.5285047326
 30
0.0
  0
SPLINE
  5
3CF
330
208
100
AcDbEntity
  8
0
  6
Continuous
 62
     7
100
AcDbSpline
210
0.0
220
0.0
230
1.0
 70
     8
 71
     3
 72
    12
 73
     8
 74
     0
 42
0.0000000001
 43
0.0000000001
 40
0.0
 40
0.0
 40
0.0
 40
0.0
 40
0.1502727826
 40
0.2512601205
 40
0.3720565267
 40
0.6656705912
 40
1.0
 40
1.0
 40
1.0
 40
1.0
 10
12.0910544883
 20
7.6556357086
 30
0.0
 10
12.0919608825
 20
7.655635317
 30
0.0
 10
12.0934164465
 20
7.654723166799999
 30
0.0
 10
12.0947061309
 20
7.6529087921
 30
0.0
 10
12.0960623444
 20
7.650085526599998
 30
0.0
 10
12.0971363211
 20
7.6456644897
 30
0.0
 10
12.0974306866
 20
7.641872797599998
 30
0.0
 10
12.0974290555
 20
7.639856237
 30
0.0
  0
LINE
  5
3D0
330
208
100
AcDbEntity
  8
0
  6
Continuous
 62
     7
100
AcDbLine
 10
11.2106524082
 20
2.0677056379
 30
0.0
 11
11.1990501064
 21
2.0676381829
 31
0.0
  0
LINE
  5
3D1
330
208
100
AcDbEntity
  8
0
  6
Continuous
 62
     7
100
AcDbLine
 10
11.2176677945
 20
2.067749662299998
 30
0.0
 11
11.2106524082
 21
2.0677056379
 31
0.0
  0
SPLINE
  5
3D2
330
208
100
AcDbEntity
  8
0
  6
Continuous
 62
     7
100
AcDbSpline
210
0.0
220
0.0
230
1.0
 70
     8
 71
     3
 72
     9
 73
     5
 74
     0
 42
0.0000000001
 43
0.0000000001
 40
0.0
 40
0.0
 40
0.0
 40
0.0
 40
0.4766481085
 40
1.0
 40
1.0
 40
1.0
 40
1.0
 10
10.3140346854
 20
2.065499120999998
 30
0.0
 10
9.8467504301
 20
2.065446223499999
 30
0.0
 10
8.866396974199998
 20
2.0676739255
 30
0.0
 10
7.8860443873
 20
2.069741324199998
 30
0.0
 10
7.372974024199999
 20
2.0701623736
 30
0.0
  0
SPLINE
  5
3D3
330
208
100
AcDbEntity
  8
0
  6
Continuous
 62
     7
100
AcDbSpline
210
0.0
220
0.0
230
1.0
 70
     8
 71
     3
 72
    12
 73
     8
 74
     0
 42
0.0000000001
 43
0.0000000001
 40
0.0
 40
0.0
 40
0.0
 40
0.0
 40
0.1056431345
 40
0.2178143345
 40
0.4595979294000001
 40
0.7214382477
 40
1.0
 40
1.0
 40
1.0
 40
1.0
 10
10.9037114853
 20
2.066374062399999
 30
0.0
 10
10.882946618
 20
2.066268905899999
 30
0.0
 10
10.8401332465
 20
2.066168171999998
 30
0.0
 10
10.7497953854
 20
2.065927425599999
 30
0.0
 10
10.6287553099
 20
2.065717619299999
 30
0.0
 10
10.4750095917
 20
2.065545423
 30
0.0
 10
10.3687885697
 20
2.065505314
 30
0.0
 10
10.3140346854
 20
2.065499120999998
 30
0.0
  0
LINE
  5
3D4
330
208
100
AcDbEntity
  8
0
  6
Continuous
 62
     7
100
AcDbLine
 10
10.9056250303
 20
2.0663798915
 30
0.0
 11
10.9037142206
 21
2.0663761271
 31
0.0
  0
LINE
  5
3D5
330
208
100
AcDbEntity
  8
0
  6
Continuous
 62
     7
100
AcDbLine
 10
11.4669605318
 20
2.450912076899999
 30
0.0
 11
7.373026877
 21
2.450912072699999
 31
0.0
  0
LINE
  5
3D6
330
208
100
AcDbEntity
  8
0
  6
Continuous
 62
     7
100
AcDbLine
 10
11.2348665259
 20
2.0678560665
 30
0.0
 11
11.2176677945
 21
2.067749662299998
 31
0.0
  0
SPLINE
  5
3D7
330
208
100
AcDbEntity
  8
0
  6
Continuous
 62
     7
100
AcDbSpline
210
0.0
220
0.0
230
1.0
 70
     8
 71
     3
 72
    33
 73
    29
 74
     0
 42
0.0000000001
 43
0.0000000001
 40
0.0
 40
0.0
 40
0.0
 40
0.0
 40
0.0001319665
 40
0.0005273793
 40
0.0011854101
 40
0.0021048656
 40
0.0032839116
 40
0.004719708
 40
0.0083508465
 40
0.0129736501
 40
0.01855653
 40
0.0250634995
 40
0.0324538357
 40
0.0497086491
 40
0.0699654084
 40
0.092873154
 40
0.1180943381
 40
0.1453271349
 40
0.1743087876
 40
0.2366225666
 40
0.3035612845
 40
0.3740616913000001
 40
0.4473337748
 40
0.5227921391
 40
0.5999750932
 40
0.6785056476000002
 40
0.8383061443999999
 40
1.0
 40
1.0
 40
1.0
 40
1.0
 10
3.527063022699998
 20
2.015571368699998
 30
0.0
 10
3.5272312267
 20
2.015589540699998
 30
0.0
 10
3.527909595
 20
2.015529134199999
 30
0.0
 10
3.529426883
 20
2.015555037499999
 30
0.0
 10
3.531957168099999
 20
2.015489728499999
 30
0.0
 10
3.535490123999998
 20
2.0154494868
 30
0.0
 10
3.5400208661
 20
2.015377974099998
 30
0.0
 10
3.548027330899998
 20
2.0152627653
 30
0.0
 10
3.5604484742
 20
2.0150818722
 30
0.0
 10
3.5781856923
 20
2.014833972699999
 30
0.0
 10
3.599609600899998
 20
2.0145451666
 30
0.0
 10
3.62458142
 20
2.014226558999999
 30
0.0
 10
3.664515957399998
 20
2.0137458801
 30
0.0
 10
3.7220773573
 20
2.013115192399999
 30
0.0
 10
3.799532205099998
 20
2.0123745775
 30
0.0
 10
3.887200857599998
 20
2.0116813402
 30
0.0
 10
3.9838137212
 20
2.011075921399998
 30
0.0
 10
4.088214088199999
 20
2.010571925399998
 30
0.0
 10
4.240167959099998
 20
2.010043648199999
 30
0.0
 10
4.443026245299998
 20
2.0097613602
 30
0.0
 10
4.6991121695
 20
2.009945637199999
 30
0.0
 10
4.9692459604
 20
2.0106299211
 30
0.0
 10
5.2503006686
 20
2.0117391691
 30
0.0
 10
5.539921110899999
 20
2.0131690258
 30
0.0
 10
5.836282096599998
 20
2.014781838899998
 30
0.0
 10
6.240769476199998
 20
2.0169325567
 30
0.0
 10
6.7536005919
 20
2.019432420899998
 30
0.0
 10
7.1657587646
 20
2.0207930303
 30
0.0
 10
7.3730520623
 20
2.021172187899999
 30
0.0
  0
SPLINE
  5
3D8
330
208
100
AcDbEntity
  8
0
  6
Continuous
 62
     7
100
AcDbSpline
210
0.0
220
0.0
230
1.0
 70
     8
 71
     3
 72
    12
 73
     8
 74
     0
 42
0.0000000001
 43
0.0000000001
 40
0.0
 40
0.0
 40
0.0
 40
0.0
 40
0.1501472758
 40
0.2511305827
 40
0.3719461174
 40
0.6656152013000001
 40
1.0
 40
1.0
 40
1.0
 40
1.0
 10
2.6549933212
 20
7.6556367925
 30
0.0
 10
2.654087770699999
 20
7.655636464299999
 30
0.0
 10
2.6526336496
 20
7.654723493999998
 30
0.0
 10
2.651345066899998
 20
7.6529096707
 30
0.0
 10
2.649988753499998
 20
7.65008627
 30
0.0
 10
2.648914416299998
 20
7.6456649772
 30
0.0
 10
2.648620285399998
 20
7.6418729359
 30
0.0
 10
2.648621972399999
 20
7.639856234299999
 30
0.0
  0
LINE
  5
3D9
330
208
100
AcDbEntity
  8
0
  6
Continuous
 62
     7
100
AcDbLine
 10
10.8194197006
 20
7.5130473522
 30
0.0
 11
10.8226181703
 21
7.4976224238
 31
0.0
  0
LINE
  5
3DA
330
208
100
AcDbEntity
  8
0
  6
Continuous
 62
     7
100
AcDbLine
 10
11.1990501064
 20
2.0676381829
 30
0.0
 11
10.9366602698
 21
2.066446525299999
 31
0.0
  0
LINE
  5
3DB
330
208
100
AcDbEntity
  8
0
  6
Continuous
 62
     7
100
AcDbLine
 10
3.517059882599998
 20
2.0678144645
 30
0.0
 11
3.5111610272
 21
2.067847517299998
 31
0.0
  0
LINE
  5
3DC
330
208
100
AcDbEntity
  8
0
  6
Continuous
 62
     7
100
AcDbLine
 10
3.5172932866
 20
2.067815524
 30
0.0
 11
3.517061104999998
 21
2.0678162189
 31
0.0
  0
LINE
  5
3DD
330
208
100
AcDbEntity
  8
0
  6
Continuous
 62
     7
100
AcDbLine
 10
3.529899485799998
 20
2.067741661899999
 30
0.0
 11
3.517291751899998
 21
2.067814667399999
 31
0.0
  0
LINE
  5
3DE
330
208
100
AcDbEntity
  8
0
  6
Continuous
 62
     7
100
AcDbLine
 10
3.553477268199998
 20
2.0675997742
 30
0.0
 11
3.529899485799998
 21
2.067741661899999
 31
0.0
  0
LINE
  5
3DF
330
208
100
AcDbEntity
  8
0
  6
Continuous
 62
     7
100
AcDbLine
 10
3.554502654599998
 20
2.0675952146
 30
0.0
 11
3.553477926899998
 21
2.0675980998
 31
0.0
  0
LINE
  5
3E0
330
208
100
AcDbEntity
  8
0
  6
Continuous
 62
     7
100
AcDbLine
 10
3.585941701399998
 20
2.067414975
 30
0.0
 11
3.5545032216
 21
2.067593605399999
 31
0.0
  0
LINE
  5
3E1
330
208
100
AcDbEntity
  8
0
  6
Continuous
 62
     7
100
AcDbLine
 10
3.7085268723
 20
2.066834485699998
 30
0.0
 11
3.585941701399998
 21
2.067414975
 31
0.0
  0
LINE
  5
3E2
330
208
100
AcDbEntity
  8
0
  6
Continuous
 62
     7
100
AcDbLine
 10
3.722485251499998
 20
2.0667774905
 30
0.0
 11
3.7085268723
 21
2.066834485699998
 31
0.0
  0
LINE
  5
3E3
330
208
100
AcDbEntity
  8
0
  6
Continuous
 62
     7
100
AcDbLine
 10
3.8252979608
 20
2.066396716999999
 30
0.0
 11
3.722485251499998
 21
2.0667774905
 31
0.0
  0
LINE
  5
3E4
330
208
100
AcDbEntity
  8
0
  6
Continuous
 62
     7
100
AcDbLine
 10
3.879276178699998
 20
2.066234060599998
 30
0.0
 11
3.8252979608
 21
2.066396716999999
 31
0.0
  0
LINE
  5
3E5
330
208
100
AcDbEntity
  8
0
  6
Continuous
 62
     7
100
AcDbLine
 10
3.8961105998
 20
2.0661872775
 30
0.0
 11
3.879276178699998
 21
2.066234060599998
 31
0.0
  0
LINE
  5
3E6
330
208
100
AcDbEntity
  8
0
  6
Continuous
 62
     7
100
AcDbLine
 10
4.2409292975
 20
2.0655895148
 30
0.0
 11
3.8961105998
 21
2.0661872775
 31
0.0
  0
LINE
  5
3E7
330
208
100
AcDbEntity
  8
0
  6
Continuous
 62
     7
100
AcDbLine
 10
4.5396472865
 20
2.0655058883
 30
0.0
 11
4.2409292975
 21
2.0655895148
 31
0.0
  0
LINE
  5
3E8
330
208
100
AcDbEntity
  8
0
  6
Continuous
 62
     7
100
AcDbLine
 10
4.5831358026
 20
2.065519113899998
 30
0.0
 11
4.5396472865
 21
2.0655058883
 31
0.0
  0
LINE
  5
3E9
330
208
100
AcDbEntity
  8
0
  6
Continuous
 62
     7
100
AcDbLine
 10
4.6476156576
 20
2.065549237299999
 30
0.0
 11
4.5831358026
 21
2.065519113899998
 31
0.0
  0
LINE
  5
3EA
330
208
100
AcDbEntity
  8
0
  6
Continuous
 62
     7
100
AcDbLine
 10
4.7852013391
 20
2.0656950081
 30
0.0
 11
4.6476156576
 21
2.065549237299999
 31
0.0
  0
LINE
  5
3EB
330
208
100
AcDbEntity
  8
0
  6
Continuous
 62
     7
100
AcDbLine
 10
4.860105851
 20
2.0657434266
 30
0.0
 11
4.7852013391
 21
2.0656950081
 31
0.0
  0
SPLINE
  5
3EC
330
208
100
AcDbEntity
  8
0
  6
Continuous
 62
     7
100
AcDbSpline
210
0.0
220
0.0
230
1.0
 70
     8
 71
     3
 72
    35
 73
    31
 74
     0
 42
0.0000000001
 43
0.0000000001
 40
0.0
 40
0.0
 40
0.0
 40
0.0
 40
0.0627830708
 40
0.1255633591
 40
0.188324454
 40
0.2510511245
 40
0.3763054493
 40
0.438795209
 40
0.5011676572
 40
0.5634336755
 40
0.6256217597
 40
0.6877761717000001
 40
0.749955382
 40
0.7810750059
 40
0.8122256199999997
 40
0.8434146230999999
 40
0.8746476540000001
 40
0.9059273529
 40
0.9215844290999999
 40
0.9372521406999998
 40
0.9529293723
 40
0.9607710924
 40
0.9686145645999999
 40
0.9764594951999999
 40
0.9803824202999999
 40
0.9843056368999999
 40
0.9882289848999999
 40
0.9921523596
 40
0.9960766003999999
 40
1.0
 40
1.0
 40
1.0
 40
1.0
 10
7.373026877
 20
6.774115092699998
 30
0.0
 10
7.4468966486
 20
6.7741977022
 30
0.0
 10
7.5946553622
 20
6.778277662599998
 30
0.0
 10
7.8156466653
 20
6.795469747
 30
0.0
 10
8.0355726969
 20
6.822475437699998
 30
0.0
 10
8.3268878684
 20
6.869431379699999
 30
0.0
 10
8.6154180892
 20
6.9302254847
 30
0.0
 10
8.901376520299997
 20
6.9997363858
 30
0.0
 10
9.1145019864
 20
7.0550308888
 30
0.0
 10
9.326689426199999
 20
7.112450866299998
 30
0.0
 10
9.538293414299999
 20
7.171027238699998
 30
0.0
 10
9.7497221097
 20
7.229850378099999
 30
0.0
 10
9.926081172199999
 20
7.2783465558
 30
0.0
 10
10.0674749337
 20
7.3164047708
 30
0.0
 10
10.1737909247
 20
7.3444918741
 30
0.0
 10
10.2803945153
 20
7.3720066845
 30
0.0
 10
10.3873284002
 20
7.3988403623
 30
0.0
 10
10.4767086792
 20
7.420532241
 30
0.0
 10
10.548403915
 20
7.437431257
 30
0.0
 10
10.6022896289
 20
7.4498677782
 30
0.0
 10
10.6472662735
 20
7.4600135154
 30
0.0
 10
10.6832931499
 20
7.467996344099998
 30
0.0
 10
10.7103397342
 20
7.473908866699999
 30
0.0
 10
10.7328938881
 20
7.4787814397
 30
0.0
 10
10.7509471836
 20
7.482644256499998
 30
0.0
 10
10.7644967413
 20
7.4855032644
 30
0.0
 10
10.7780493194
 20
7.488349280299998
 30
0.0
 10
10.7915860939
 20
7.491280429299999
 30
0.0
 10
10.8051733529
 20
7.493956016799999
 30
0.0
 10
10.8142396466
 20
7.495729363599998
 30
0.0
 10
10.8187241856
 20
7.496824100099998
 30
0.0
  0
SPLINE
  5
3ED
330
208
100
AcDbEntity
  8
0
  6
Continuous
 62
     7
100
AcDbSpline
210
0.0
220
0.0
230
1.0
 70
     8
 71
     3
 72
    23
 73
    19
 74
     0
 42
0.0000000001
 43
0.0000000001
 40
0.0
 40
0.0
 40
0.0
 40
0.0
 40
0.063163663
 40
0.1262933092
 40
0.1893663483
 40
0.2523627781
 40
0.3152649757
 40
0.3780595812
 40
0.4407369902000001
 40
0.5032906759
 40
0.5657189944
 40
0.6280253404
 40
0.6902179663
 40
0.7523084188000002
 40
0.8143120612
 40
0.8762468848999999
 40
0.9381350962
 40
1.0
 40
1.0
 40
1.0
 40
1.0
 10
10.8187590874
 20
7.4968225257
 30
0.0
 10
10.813742947
 20
7.385626842799998
 30
0.0
 10
10.7931747231
 20
7.1636255671
 30
0.0
 10
10.7309440056
 20
6.835287102399998
 30
0.0
 10
10.6379727053
 20
6.5145721046
 30
0.0
 10
10.5151751541
 20
6.2044918062
 30
0.0
 10
10.3637519909
 20
5.9078872533
 30
0.0
 10
10.1851696207
 20
5.6274641057
 30
0.0
 10
9.981126618300001
 20
5.3657617641
 30
0.0
 10
9.7535393077
 20
5.1251427279
 30
0.0
 10
9.5045773089
 20
4.9077077387
 30
0.0
 10
9.236549219199998
 20
4.7153504472
 30
0.0
 10
8.9518993549
 20
4.5497526712
 30
0.0
 10
8.653214874099997
 20
4.412329881399998
 30
0.0
 10
8.3431908036
 20
4.304243881999998
 30
0.0
 10
8.0245880514
 20
4.226391947099998
 30
0.0
 10
7.7002724514
 20
4.1794083188
 30
0.0
 10
7.482046934199999
 20
4.168929542099998
 30
0.0
 10
7.373026877
 20
4.168929542099998
 30
0.0
  0
SPLINE
  5
3EE
330
208
100
AcDbEntity
  8
0
  6
Continuous
 62
     7
100
AcDbSpline
210
0.0
220
0.0
230
1.0
 70
     8
 71
     3
 72
    35
 73
    31
 74
     0
 42
0.0000000001
 43
0.0000000001
 40
0.0
 40
0.0
 40
0.0
 40
0.0
 40
0.0039232514
 40
0.0078478327
 40
0.0117711879
 40
0.0156944817
 40
0.019617723
 40
0.0235406693
 40
0.031385601
 40
0.0392290862
 40
0.0470708166
 40
0.0627480686
 40
0.0784157971
 40
0.0940728903
 40
0.1253526235
 40
0.1565856912
 40
0.1877747301
 40
0.2189253836
 40
0.2500450448
 40
0.312224334
 40
0.3743788201
 40
0.4365669853
 40
0.4988330802000001
 40
0.5612056260000001
 40
0.6236953294
 40
0.7489495559999999
 40
0.8116761482999999
 40
0.8744370079999999
 40
0.9372171831999999
 40
1.0
 40
1.0
 40
1.0
 40
1.0
 10
3.927329605699998
 20
7.4968240874
 30
0.0
 10
3.931808271399998
 20
7.495706279299999
 30
0.0
 10
3.9408728216
 20
7.4939174127
 30
0.0
 10
3.954470867999998
 20
7.491297396799999
 30
0.0
 10
3.9680065056
 20
7.4883578371
 30
0.0
 10
3.9815552185
 20
7.485494221499998
 30
0.0
 10
3.995106199299998
 20
7.4826418809
 30
0.0
 10
4.0131608064
 20
7.478784917899999
 30
0.0
 10
4.0357136542
 20
7.4739060395
 30
0.0
 10
4.062760868999998
 20
7.467996262899999
 30
0.0
 10
4.098787642499998
 20
7.460012660599999
 30
0.0
 10
4.143764416899998
 20
7.4498672022
 30
0.0
 10
4.1976501722
 20
7.437430498899998
 30
0.0
 10
4.269345531799998
 20
7.420531569299999
 30
0.0
 10
4.358725913699998
 20
7.398839561299999
 30
0.0
 10
4.4656599624
 20
7.372005891099998
 30
0.0
 10
4.5722636937
 20
7.3444909733
 30
0.0
 10
4.678579873299999
 20
7.3164039421
 30
0.0
 10
4.8199738081
 20
7.278345505999999
 30
0.0
 10
4.996333201
 20
7.229849490499999
 30
0.0
 10
5.2077621492
 20
7.1710259961
 30
0.0
 10
5.4193664745
 20
7.112449587999999
 30
0.0
 10
5.631554244
 20
7.0550294286
 30
0.0
 10
5.8446800136
 20
6.9997353157
 30
0.0
 10
6.130638635499999
 20
6.9302249807
 30
0.0
 10
6.4191684307
 20
6.8694309137
 30
0.0
 10
6.710482402999999
 20
6.8224685144
 30
0.0
 10
6.930409972799998
 20
6.795479328499999
 30
0.0
 10
7.151398088799998
 20
6.778265424799998
 30
0.0
 10
7.299157360599999
 20
6.774174072899999
 30
0.0
 10
7.373026877
 20
6.774115092699998
 30
0.0
  0
SPLINE
  5
3EF
330
208
100
AcDbEntity
  8
0
  6
Continuous
 62
     7
100
AcDbSpline
210
0.0
220
0.0
230
1.0
 70
     8
 71
     3
 72
    23
 73
    19
 74
     0
 42
0.0000000001
 43
0.0000000001
 40
0.0
 40
0.0
 40
0.0
 40
0.0
 40
0.0618649038
 40
0.1237531151
 40
0.1856879388
 40
0.2476915812
 40
0.3097820337
 40
0.3719746597
 40
0.4342810056000002
 40
0.4967093241
 40
0.5592630098
 40
0.6219404188000001
 40
0.6847350243000001
 40
0.7476372218999999
 40
0.8106336517
 40
0.8737066907999999
 40
0.936836337
 40
1.0
 40
1.0
 40
1.0
 40
1.0
 10
7.373026877
 20
4.168929543099999
 30
0.0
 10
7.264006820099998
 20
4.168929543099999
 30
0.0
 10
7.0457813036
 20
4.1794083198
 30
0.0
 10
6.7214657046
 20
4.226391947799998
 30
0.0
 10
6.4028629533
 20
4.3042438822
 30
0.0
 10
6.092838883599998
 20
4.412329881
 30
0.0
 10
5.7941544035
 20
4.5497526701
 30
0.0
 10
5.509504539899999
 20
4.715350445199999
 30
0.0
 10
5.241476450699998
 20
4.907707735599998
 30
0.0
 10
4.9925144522
 20
5.125142723699998
 30
0.0
 10
4.7649271418
 20
5.365761758699998
 30
0.0
 10
4.560884139299998
 20
5.627464098999998
 30
0.0
 10
4.382301768999998
 20
5.907887245199998
 30
0.0
 10
4.2308786053
 20
6.204491796799999
 30
0.0
 10
4.1080810536
 20
6.5145720938
 30
0.0
 10
4.015109752399998
 20
6.835287090399999
 30
0.0
 10
3.9528790339
 20
7.1636255539
 30
0.0
 10
3.9323108092
 20
7.385626828799998
 30
0.0
 10
3.927294668299998
 20
7.496822511399998
 30
0.0
  0
LINE
  5
3F0
330
208
100
AcDbEntity
  8
0
  6
Continuous
 62
     7
100
AcDbLine
 10
7.373026877
 20
2.450912072699999
 30
0.0
 11
3.2790932222
 21
2.450912076899999
 31
0.0
  0
LINE
  5
3F1
330
208
100
AcDbEntity
  8
0
  6
Continuous
 62
     7
100
AcDbLine
 10
4.9685440275
 20
2.065849615599999
 30
0.0
 11
4.860105851
 21
2.0657434266
 31
0.0
  0
SPLINE
  5
3F2
330
208
100
AcDbEntity
  8
0
  6
Continuous
 62
     7
100
AcDbSpline
210
0.0
220
0.0
230
1.0
 70
     8
 71
     3
 72
    12
 73
     8
 74
     0
 42
0.0000000001
 43
0.0000000001
 40
0.0
 40
0.0
 40
0.0
 40
0.0
 40
0.2578095148
 40
0.5128658579
 40
0.7618188872000001
 40
0.8826254896
 40
1.0
 40
1.0
 40
1.0
 40
1.0
 10
7.3729740245
 20
2.070162300699998
 30
0.0
 10
7.166345438999998
 20
2.0699926009
 30
0.0
 10
6.755295024899998
 20
2.0694558653
 30
0.0
 10
6.144715151599998
 20
2.0682320106
 30
0.0
 10
5.643940172
 20
2.067102629199998
 30
0.0
 10
5.2535137048
 20
2.0662892846
 30
0.0
 10
5.0626169644
 20
2.06601843
 30
0.0
 10
4.9685440275
 20
2.065849615599999
 30
0.0
  0
LINE
  5
3F3
330
208
100
AcDbEntity
  8
0
  6
Continuous
 62
     7
100
AcDbLine
 10
7.3729740245
 20
2.070162300699998
 30
0.0
 11
7.3730520623
 21
2.021172187899999
 31
0.0
  0
SPLINE
  5
3F4
330
208
100
AcDbEntity
  8
0
  6
Continuous
 62
     7
100
AcDbSpline
210
0.0
220
0.0
230
1.0
 70
     8
 71
     3
 72
    16
 73
    12
 74
     0
 42
0.0000000001
 43
0.0000000001
 40
0.0
 40
0.0
 40
0.0
 40
0.0
 40
0.1189292335
 40
0.1793464086
 40
0.240324897
 40
0.3637820011
 40
0.488972549
 40
0.6155466811000001
 40
0.7431389144000002
 40
0.8714116162999998
 40
1.0
 40
1.0
 40
1.0
 40
1.0
 10
2.648618429899999
 20
7.6398674858
 30
0.0
 10
2.6995520105
 20
7.6404572746
 30
0.0
 10
2.7763883322
 20
7.639094522499998
 30
0.0
 10
2.8792259173
 20
7.6347662299
 30
0.0
 10
2.983950162499998
 20
7.6291984229
 30
0.0
 10
3.1162380923
 20
7.619682437499998
 30
0.0
 10
3.276143060599999
 20
7.6034361283
 30
0.0
 10
3.4373182655
 20
7.582784946699999
 30
0.0
 10
3.599277972599998
 20
7.558218559
 30
0.0
 10
3.761469590199998
 20
7.5297380103
 30
0.0
 10
3.869436224999999
 20
7.5085885069
 30
0.0
 10
3.9234070593
 20
7.497620735599999
 30
0.0
  0
SPLINE
  5
3F5
330
208
100
AcDbEntity
  8
0
  6
Continuous
 62
     7
100
AcDbSpline
210
0.0
220
0.0
230
1.0
 70
     8
 71
     3
 72
    33
 73
    29
 74
     0
 42
0.0000000001
 43
0.0000000001
 40
0.0
 40
0.0
 40
0.0
 40
0.0
 40
0.1616947786
 40
0.3214960719
 40
0.4000269307
 40
0.477210139
 40
0.5526684649
 40
0.6259412541
 40
0.6964416618000003
 40
0.7633808537000001
 40
0.8256949268999999
 40
0.8546768014999999
 40
0.8819099375
 40
0.9071308742999999
 40
0.9300388652
 40
0.9502968638
 40
0.9675507642999999
 40
0.9749404888999999
 40
0.9814476233
 40
0.9870317220999996
 40
0.9916561632999998
 40
0.9952878055999999
 40
0.9967228120999999
 40
0.9979002938
 40
0.9988178826999998
 40
0.9994741712999999
 40
0.9998684426
 40
1.0
 40
1.0
 40
1.0
 40
1.0
 10
7.3730520621
 20
2.021172094499998
 30
0.0
 10
7.580342299899998
 20
2.020792904999999
 30
0.0
 10
7.9924942407
 20
2.019432393
 30
0.0
 10
8.505317452899999
 20
2.0169323485
 30
0.0
 10
8.909798290700001
 20
2.0147817158
 30
0.0
 10
9.2061538767
 20
2.013168843
 30
0.0
 10
9.4957695734
 20
2.0117392532
 30
0.0
 10
9.776819384299999
 20
2.010629730999998
 30
0.0
 10
10.0469491599
 20
2.009945688199998
 30
0.0
 10
10.3030308281
 20
2.0097613059
 30
0.0
 10
10.5058862312
 20
2.0100437193
 30
0.0
 10
10.6578380884
 20
2.0105719386
 30
0.0
 10
10.7622367214
 20
2.0110758149
 30
0.0
 10
10.858848039
 20
2.011681342299998
 30
0.0
 10
10.9465164825
 20
2.012374631999998
 30
0.0
 10
11.02397048
 20
2.0131150018
 30
0.0
 10
11.0815303342
 20
2.0137458842
 30
0.0
 10
11.12146231
 20
2.014226585899999
 30
0.0
 10
11.1464346083
 20
2.0145452908
 30
0.0
 10
11.1678619496
 20
2.0148339233
 30
0.0
 10
11.1856031255
 20
2.0150818733
 30
0.0
 10
11.198025722
 20
2.0152623396
 30
0.0
 10
11.2060296901
 20
2.015378156599998
 30
0.0
 10
11.2105548375
 20
2.0154488418
 30
0.0
 10
11.2140813175
 20
2.015491585699999
 30
0.0
 10
11.2166049349
 20
2.015551566999998
 30
0.0
 10
11.2181188885
 20
2.015535392799999
 30
0.0
 10
11.2187943009
 20
2.015585831699998
 30
0.0
 10
11.2189623688
 20
2.0155717736
 30
0.0
  0
LINE
  5
3F6
330
208
100
AcDbEntity
  8
0
  6
Continuous
 62
     7
100
AcDbLine
 10
7.3730497721
 20
2.021172098899998
 30
0.0
 11
7.3730496185
 21
1.9863451608
 31
0.0
  0
SPLINE
  5
3F7
330
208
100
AcDbEntity
  8
0
  6
Continuous
 62
     7
100
AcDbSpline
210
0.0
220
0.0
230
1.0
 70
     8
 71
     3
 72
    15
 73
    11
 74
     0
 42
0.0000000001
 43
0.0000000001
 40
0.0
 40
0.0
 40
0.0
 40
0.0
 40
0.1285957299
 40
0.2568671657999999
 40
0.3844593218
 40
0.5110278683000002
 40
0.6362227636
 40
0.7596797148000001
 40
0.8810555697999998
 40
1.0
 40
1.0
 40
1.0
 40
1.0
 10
10.8226470683
 20
7.4976208145
 30
0.0
 10
10.8766285024
 20
7.5085348512
 30
0.0
 10
10.9845781127
 20
7.529745516799999
 30
0.0
 10
11.1467606654
 20
7.558237288599999
 30
0.0
 10
11.3087068682
 20
7.582805321399998
 30
0.0
 10
11.4698791945
 20
7.6033996219
 30
0.0
 10
11.6297722994
 20
7.619635141399998
 30
0.0
 10
11.7878393805
 20
7.631249337
 30
0.0
 10
11.9434924538
 20
7.638310897699998
 30
0.0
 10
12.0464227017
 20
7.639978071399998
 30
0.0
 10
12.0973629075
 20
7.6398660401
 30
0.0
  0
ENDSEC
  0
SECTION
  2
OBJECTS
  0
DICTIONARY
  5
C
330
0
100
AcDbDictionary
281
     1
  3
ACAD_COLOR
350
43C
  3
ACAD_GROUP
350
D
  3
ACAD_LAYOUT
350
1A
  3
ACAD_MATERIAL
350
412
  3
ACAD_MLEADERSTYLE
350
461
  3
ACAD_MLINESTYLE
350
17
  3
ACAD_PLOTSETTINGS
350
19
  3
ACAD_PLOTSTYLENAME
350
E
  3
ACAD_SCALELIST
350
43F
  3
ACAD_TABLESTYLE
350
43D
  3
ACAD_VISUALSTYLE
350
42B
  3
ACDB_RECOMPOSE_DATA
350
520
  3
AcDbVariableDictionary
350
51A
  3
AcmDictionary
350
4C0
  3
AMG
350
467
  3
AMGSNAPSETTINGS
350
506
  0
DICTIONARY
  5
43C
102
{ACAD_REACTORS
330
C
102
}
330
C
100
AcDbDictionary
281
     1
  0
DICTIONARY
  5
D
102
{ACAD_REACTORS
330
C
102
}
330
C
100
AcDbDictionary
281
     1
  0
DICTIONARY
  5
1A
102
{ACAD_REACTORS
330
C
102
}
330
C
100
AcDbDictionary
281
     1
  3
Layout1
350
40F
  3
Model
350
40E
  0
DICTIONARY
  5
412
102
{ACAD_REACTORS
330
C
102
}
330
C
100
AcDbDictionary
281
     1
  3
ByBlock
350
41B
  3
ByLayer
350
413
  3
Global
350
423
  0
DICTIONARY
  5
461
102
{ACAD_REACTORS
330
C
102
}
330
C
100
AcDbDictionary
281
     1
  3
Standard
350
462
  0
DICTIONARY
  5
17
102
{ACAD_REACTORS
330
C
102
}
330
C
100
AcDbDictionary
281
     1
  3
Standard
350
18
  0
DICTIONARY
  5
19
102
{ACAD_REACTORS
330
C
102
}
330
C
100
AcDbDictionary
281
     1
  0
ACDBDICTIONARYWDFLT
  5
E
102
{ACAD_REACTORS
330
C
102
}
330
C
100
AcDbDictionary
281
     1
  3
Normal
350
F
100
AcDbDictionaryWithDefault
340
F
  0
DICTIONARY
  5
43F
102
{ACAD_REACTORS
330
C
102
}
330
C
100
AcDbDictionary
281
     1
  3
A0
350
440
  3
A1
350
441
  3
A2
350
442
  3
A3
350
443
  3
A4
350
444
  3
A5
350
445
  3
A6
350
446
  3
A7
350
447
  3
A8
350
448
  3
A9
350
449
  3
B0
350
44A
  3
B1
350
44B
  3
B2
350
44C
  3
B3
350
44D
  3
B4
350
44E
  3
B5
350
44F
  3
B6
350
450
  3
B7
350
451
  3
B8
350
452
  3
B9
350
453
  3
C0
350
454
  3
C1
350
455
  3
C2
350
456
  3
C3
350
457
  3
C4
350
458
  3
C5
350
459
  3
C6
350
45A
  3
C7
350
45B
  3
C8
350
45C
  3
C9
350
45D
  3
D0
350
45E
  3
D1
350
45F
  3
D2
350
460
  0
DICTIONARY
  5
43D
102
{ACAD_REACTORS
330
C
102
}
330
C
100
AcDbDictionary
281
     1
  3
Standard
350
43E
  0
DICTIONARY
  5
42B
102
{ACAD_REACTORS
330
C
102
}
330
C
100
AcDbDictionary
281
     1
  3
2dWireframe
350
431
  3
3D Hidden
350
433
  3
3dWireframe
350
432
  3
Basic
350
430
  3
Brighten
350
437
  3
ColorChange
350
43B
  3
Conceptual
350
434
  3
Dim
350
436
  3
Facepattern
350
43A
  3
Flat
350
42C
  3
FlatWithEdges
350
42D
  3
Gouraud
350
42E
  3
GouraudWithEdges
350
42F
  3
Linepattern
350
439
  3
Realistic
350
435
  3
Thicken
350
438
  0
XRECORD
  5
520
102
{ACAD_REACTORS
330
C
102
}
330
C
100
AcDbXrecord
280
     1
 90
        1
330
43E
  0
DICTIONARY
  5
51A
102
{ACAD_REACTORS
330
C
102
}
330
C
100
AcDbDictionary
281
     1
  3
CANNOSCALE
350
51D
  3
CMLEADERSTYLE
350
51C
  3
CTABLESTYLE
350
51B
  0
DICTIONARY
  5
4C0
102
{ACAD_REACTORS
330
C
102
}
330
C
100
AcDbDictionary
281
     1
  3
AcmStdDictionary
350
4CD
  0
DICTIONARY
  5
467
102
{ACAD_REACTORS
330
C
102
}
330
C
100
AcDbDictionary
281
     1
  0
DICTIONARY
  5
506
102
{ACAD_REACTORS
330
C
102
}
330
C
100
AcDbDictionary
281
     1
  0
LAYOUT
  5
40F
102
{ACAD_REACTORS
330
1A
102
}
330
1A
100
AcDbPlotSettings
  1

  2
none_device
  4
ANSI_C_(22.00_x_17.00_Inches)
  6

 40
0.0
 41
0.0
 42
0.0
 43
0.0
 44
558.8
 45
431.8
 46
0.0
 47
0.0
 48
0.0
 49
0.0
140
0.0
141
0.0
142
1.0
143
1.0
 70
     0
 72
     0
 73
     0
 74
     0
  7

 75
     0
147
1.0
 76
     0
 77
     2
 78
   300
148
0.0
149
0.0
100
AcDbLayout
  1
Layout1
 70
     1
 71
     1
 10
0.0
 20
0.0
 11
12.0
 21
9.0
 12
0.0
 22
0.0
 32
0.0
 14
1.000000000000000E+20
 24
1.000000000000000E+20
 34
1.000000000000000E+20
 15
-1.000000000000000E+20
 25
-1.000000000000000E+20
 35
-1.000000000000000E+20
146
0.0
 13
0.0
 23
0.0
 33
0.0
 16
1.0
 26
0.0
 36
0.0
 17
0.0
 27
1.0
 37
0.0
 76
     0
330
209
  0
LAYOUT
  5
40E
102
{ACAD_REACTORS
330
1A
102
}
330
1A
100
AcDbPlotSettings
  1

  2
none_device
  4
ANSI_C_(22.00_x_17.00_Inches)
  6

 40
0.0
 41
0.0
 42
0.0
 43
0.0
 44
558.8
 45
431.8
 46
0.0
 47
0.0
 48
0.0
 49
0.0
140
0.0
141
0.0
142
1.0
143
1.0
 70
  1024
 72
     0
 73
     0
 74
     0
  7

 75
     0
147
1.0
 76
     0
 77
     2
 78
   300
148
0.0
149
0.0
100
AcDbLayout
  1
Model
 70
     0
 71
     0
 10
0.0
 20
0.0
 11
22.0
 21
17.0
 12
0.0
 22
0.0
 32
0.0
 14
0.0
 24
0.0
 34
0.0
 15
0.0
 25
0.0
 35
0.0
146
0.0
 13
0.0
 23
0.0
 33
0.0
 16
1.0
 26
0.0
 36
0.0
 17
0.0
 27
1.0
 37
0.0
 76
     0
330
208
331
1F4
  0
MATERIAL
  5
41B
102
{ACAD_XDICTIONARY
360
41C
102
}
102
{ACAD_REACTORS
330
412
102
}
330
412
100
AcDbMaterial
  1
ByBlock
 72
     0
 43
0.0208333333333333
 43
0.0
 43
0.0
 43
0.0
 43
0.0
 43
0.0208333333333333
 43
0.0
 43
0.0
 43
0.0
 43
0.0
 43
1.0
 43
0.0
 43
0.0
 43
0.0
 43
0.0
 43
1.0
 77
     0
 47
0.0208333333333333
 47
0.0
 47
0.0
 47
0.0
 47
0.0
 47
0.0208333333333333
 47
0.0
 47
0.0
 47
0.0
 47
0.0
 47
1.0
 47
0.0
 47
0.0
 47
0.0
 47
0.0
 47
1.0
171
     0
 49
0.0208333333333333
 49
0.0
 49
0.0
 49
0.0
 49
0.0
 49
0.0208333333333333
 49
0.0
 49
0.0
 49
0.0
 49
0.0
 49
1.0
 49
0.0
 49
0.0
 49
0.0
 49
0.0
 49
1.0
175
     0
142
0.0208333333333333
142
0.0
142
0.0
142
0.0
142
0.0
142
0.0208333333333333
142
0.0
142
0.0
142
0.0
142
0.0
142
1.0
142
0.0
142
0.0
142
0.0
142
0.0
142
1.0
179
     0
144
0.0208333333333333
144
0.0
144
0.0
144
0.0
144
0.0
144
0.0208333333333333
144
0.0
144
0.0
144
0.0
144
0.0
144
1.0
144
0.0
144
0.0
144
0.0
144
0.0
144
1.0
147
0.0208333333333333
147
0.0
147
0.0
147
0.0
147
0.0
147
0.0208333333333333
147
0.0
147
0.0
147
0.0
147
0.0
147
1.0
147
0.0
147
0.0
147
0.0
147
0.0
147
1.0
  0
MATERIAL
  5
413
102
{ACAD_XDICTIONARY
360
414
102
}
102
{ACAD_REACTORS
330
412
102
}
330
412
100
AcDbMaterial
  1
ByLayer
 72
     0
 43
0.0208333333333333
 43
0.0
 43
0.0
 43
0.0
 43
0.0
 43
0.0208333333333333
 43
0.0
 43
0.0
 43
0.0
 43
0.0
 43
1.0
 43
0.0
 43
0.0
 43
0.0
 43
0.0
 43
1.0
 77
     0
 47
0.0208333333333333
 47
0.0
 47
0.0
 47
0.0
 47
0.0
 47
0.0208333333333333
 47
0.0
 47
0.0
 47
0.0
 47
0.0
 47
1.0
 47
0.0
 47
0.0
 47
0.0
 47
0.0
 47
1.0
171
     0
 49
0.0208333333333333
 49
0.0
 49
0.0
 49
0.0
 49
0.0
 49
0.0208333333333333
 49
0.0
 49
0.0
 49
0.0
 49
0.0
 49
1.0
 49
0.0
 49
0.0
 49
0.0
 49
0.0
 49
1.0
175
     0
142
0.0208333333333333
142
0.0
142
0.0
142
0.0
142
0.0
142
0.0208333333333333
142
0.0
142
0.0
142
0.0
142
0.0
142
1.0
142
0.0
142
0.0
142
0.0
142
0.0
142
1.0
179
     0
144
0.0208333333333333
144
0.0
144
0.0
144
0.0
144
0.0
144
0.0208333333333333
144
0.0
144
0.0
144
0.0
144
0.0
144
1.0
144
0.0
144
0.0
144
0.0
144
0.0
144
1.0
147
0.0208333333333333
147
0.0
147
0.0
147
0.0
147
0.0
147
0.0208333333333333
147
0.0
147
0.0
147
0.0
147
0.0
147
1.0
147
0.0
147
0.0
147
0.0
147
0.0
147
1.0
  0
MATERIAL
  5
423
102
{ACAD_XDICTIONARY
360
424
102
}
102
{ACAD_REACTORS
330
412
102
}
330
412
100
AcDbMaterial
  1
Global
 72
     0
 43
0.0208333333333333
 43
0.0
 43
0.0
 43
0.0
 43
0.0
 43
0.0208333333333333
 43
0.0
 43
0.0
 43
0.0
 43
0.0
 43
1.0
 43
0.0
 43
0.0
 43
0.0
 43
0.0
 43
1.0
 77
     0
 47
0.0208333333333333
 47
0.0
 47
0.0
 47
0.0
 47
0.0
 47
0.0208333333333333
 47
0.0
 47
0.0
 47
0.0
 47
0.0
 47
1.0
 47
0.0
 47
0.0
 47
0.0
 47
0.0
 47
1.0
171
     0
 49
0.0208333333333333
 49
0.0
 49
0.0
 49
0.0
 49
0.0
 49
0.0208333333333333
 49
0.0
 49
0.0
 49
0.0
 49
0.0
 49
1.0
 49
0.0
 49
0.0
 49
0.0
 49
0.0
 49
1.0
175
     0
142
0.0208333333333333
142
0.0
142
0.0
142
0.0
142
0.0
142
0.0208333333333333
142
0.0
142
0.0
142
0.0
142
0.0
142
1.0
142
0.0
142
0.0
142
0.0
142
0.0
142
1.0
179
     0
144
0.0208333333333333
144
0.0
144
0.0
144
0.0
144
0.0
144
0.0208333333333333
144
0.0
144
0.0
144
0.0
144
0.0
144
1.0
144
0.0
144
0.0
144
0.0
144
0.0
144
1.0
147
0.0208333333333333
147
0.0
147
0.0
147
0.0
147
0.0
147
0.0208333333333333
147
0.0
147
0.0
147
0.0
147
0.0
147
1.0
147
0.0
147
0.0
147
0.0
147
0.0
147
1.0
  0
MLEADERSTYLE
  5
462
102
{ACAD_REACTORS
330
461
102
}
330
461
100
AcDbMLeaderStyle
170
     2
171
     1
172
     0
 90
        2
 40
0.0
 41
0.0
173
     1
 91
-1056964608
340
14
 92
       -2
290
     1
 42
0.09
291
     1
 43
0.36
  3
Standard
 44
0.18
300

342
11
174
     1
178
     6
175
     1
176
     0
 93
-1056964608
 45
0.18
292
     0
297
     0
 46
0.18
 94
-1056964608
 47
1.0
 49
1.0
140
1.0
293
     1
141
0.0
294
     1
177
     0
142
1.0
295
     0
296
     0
143
0.125
1001
ACAD_MLEADERVER
1070
     2
  0
MLINESTYLE
  5
18
102
{ACAD_REACTORS
330
17
102
}
330
17
100
AcDbMlineStyle
  2
STANDARD
 70
     0
  3

 62
   256
 51
90.0
 52
90.0
 71
     2
 49
0.5
 62
   256
  6
BYLAYER
 49
-0.5
 62
   256
  6
BYLAYER
  0
ACDBPLACEHOLDER
  5
F
102
{ACAD_REACTORS
330
E
102
}
330
E
  0
SCALE
  5
440
102
{ACAD_REACTORS
330
43F
102
}
330
43F
100
AcDbScale
 70
     0
300
1:1
140
1.0
141
1.0
290
     1
  0
SCALE
  5
441
102
{ACAD_REACTORS
330
43F
102
}
330
43F
100
AcDbScale
 70
     0
300
1:2
140
1.0
141
2.0
290
     0
  0
SCALE
  5
442
102
{ACAD_REACTORS
330
43F
102
}
330
43F
100
AcDbScale
 70
     0
300
1:4
140
1.0
141
4.0
290
     0
  0
SCALE
  5
443
102
{ACAD_REACTORS
330
43F
102
}
330
43F
100
AcDbScale
 70
     0
300
1:5
140
1.0
141
5.0
290
     0
  0
SCALE
  5
444
102
{ACAD_REACTORS
330
43F
102
}
330
43F
100
AcDbScale
 70
     0
300
1:8
140
1.0
141
8.0
290
     0
  0
SCALE
  5
445
102
{ACAD_REACTORS
330
43F
102
}
330
43F
100
AcDbScale
 70
     0
300
1:10
140
1.0
141
10.0
290
     0
  0
SCALE
  5
446
102
{ACAD_REACTORS
330
43F
102
}
330
43F
100
AcDbScale
 70
     0
300
1:16
140
1.0
141
16.0
290
     0
  0
SCALE
  5
447
102
{ACAD_REACTORS
330
43F
102
}
330
43F
100
AcDbScale
 70
     0
300
1:20
140
1.0
141
20.0
290
     0
  0
SCALE
  5
448
102
{ACAD_REACTORS
330
43F
102
}
330
43F
100
AcDbScale
 70
     0
300
1:30
140
1.0
141
30.0
290
     0
  0
SCALE
  5
449
102
{ACAD_REACTORS
330
43F
102
}
330
43F
100
AcDbScale
 70
     0
300
1:40
140
1.0
141
40.0
290
     0
  0
SCALE
  5
44A
102
{ACAD_REACTORS
330
43F
102
}
330
43F
100
AcDbScale
 70
     0
300
1:50
140
1.0
141
50.0
290
     0
  0
SCALE
  5
44B
102
{ACAD_REACTORS
330
43F
102
}
330
43F
100
AcDbScale
 70
     0
300
1:100
140
1.0
141
100.0
290
     0
  0
SCALE
  5
44C
102
{ACAD_REACTORS
330
43F
102
}
330
43F
100
AcDbScale
 70
     0
300
2:1
140
2.0
141
1.0
290
     0
  0
SCALE
  5
44D
102
{ACAD_REACTORS
330
43F
102
}
330
43F
100
AcDbScale
 70
     0
300
4:1
140
4.0
141
1.0
290
     0
  0
SCALE
  5
44E
102
{ACAD_REACTORS
330
43F
102
}
330
43F
100
AcDbScale
 70
     0
300
8:1
140
8.0
141
1.0
290
     0
  0
SCALE
  5
44F
102
{ACAD_REACTORS
330
43F
102
}
330
43F
100
AcDbScale
 70
     0
300
10:1
140
10.0
141
1.0
290
     0
  0
SCALE
  5
450
102
{ACAD_REACTORS
330
43F
102
}
330
43F
100
AcDbScale
 70
     0
300
100:1
140
100.0
141
1.0
290
     0
  0
SCALE
  5
451
102
{ACAD_REACTORS
330
43F
102
}
330
43F
100
AcDbScale
 70
     0
300
1/128" = 1'-0"
140
0.0078125
141
12.0
290
     0
  0
SCALE
  5
452
102
{ACAD_REACTORS
330
43F
102
}
330
43F
100
AcDbScale
 70
     0
300
1/64" = 1'-0"
140
0.015625
141
12.0
290
     0
  0
SCALE
  5
453
102
{ACAD_REACTORS
330
43F
102
}
330
43F
100
AcDbScale
 70
     0
300
1/32" = 1'-0"
140
0.03125
141
12.0
290
     0
  0
SCALE
  5
454
102
{ACAD_REACTORS
330
43F
102
}
330
43F
100
AcDbScale
 70
     0
300
1/16" = 1'-0"
140
0.0625
141
12.0
290
     0
  0
SCALE
  5
455
102
{ACAD_REACTORS
330
43F
102
}
330
43F
100
AcDbScale
 70
     0
300
3/32" = 1'-0"
140
0.09375
141
12.0
290
     0
  0
SCALE
  5
456
102
{ACAD_REACTORS
330
43F
102
}
330
43F
100
AcDbScale
 70
     0
300
1/8" = 1'-0"
140
0.125
141
12.0
290
     0
  0
SCALE
  5
457
102
{ACAD_REACTORS
330
43F
102
}
330
43F
100
AcDbScale
 70
     0
300
3/16" = 1'-0"
140
0.1875
141
12.0
290
     0
  0
SCALE
  5
458
102
{ACAD_REACTORS
330
43F
102
}
330
43F
100
AcDbScale
 70
     0
300
1/4" = 1'-0"
140
0.25
141
12.0
290
     0
  0
SCALE
  5
459
102
{ACAD_REACTORS
330
43F
102
}
330
43F
100
AcDbScale
 70
     0
300
3/8" = 1'-0"
140
0.375
141
12.0
290
     0
  0
SCALE
  5
45A
102
{ACAD_REACTORS
330
43F
102
}
330
43F
100
AcDbScale
 70
     0
300
1/2" = 1'-0"
140
0.5
141
12.0
290
     0
  0
SCALE
  5
45B
102
{ACAD_REACTORS
330
43F
102
}
330
43F
100
AcDbScale
 70
     0
300
3/4" = 1'-0"
140
0.75
141
12.0
290
     0
  0
SCALE
  5
45C
102
{ACAD_REACTORS
330
43F
102
}
330
43F
100
AcDbScale
 70
     0
300
1" = 1'-0"
140
1.0
141
12.0
290
     0
  0
SCALE
  5
45D
102
{ACAD_REACTORS
330
43F
102
}
330
43F
100
AcDbScale
 70
     0
300
1-1/2" = 1'-0"
140
1.5
141
12.0
290
     0
  0
SCALE
  5
45E
102
{ACAD_REACTORS
330
43F
102
}
330
43F
100
AcDbScale
 70
     0
300
3" = 1'-0"
140
3.0
141
12.0
290
     0
  0
SCALE
  5
45F
102
{ACAD_REACTORS
330
43F
102
}
330
43F
100
AcDbScale
 70
     0
300
6" = 1'-0"
140
6.0
141
12.0
290
     0
  0
SCALE
  5
460
102
{ACAD_REACTORS
330
43F
102
}
330
43F
100
AcDbScale
 70
     0
300
1'-0" = 1'-0"
140
12.0
141
12.0
290
     0
  0
TABLESTYLE
  5
43E
102
{ACAD_XDICTIONARY
360
51E
102
}
102
{ACAD_REACTORS
330
43D
102
}
330
43D
100
AcDbTableStyle
  3
Standard
 70
     0
 71
     0
 40
0.06
 41
0.06
280
     0
281
     0
  7
STANDARD
140
0.18
170
     2
 62
     0
 63
     7
283
     0
 90
      512
 91
        0
  1

274
    -2
284
     1
 64
     0
275
    -2
285
     1
 65
     0
276
    -2
286
     1
 66
     0
277
    -2
287
     1
 67
     0
278
    -2
288
     1
 68
     0
279
    -2
289
     1
 69
     0
  7
STANDARD
140
0.25
170
     5
 62
     0
 63
     7
283
     0
 90
      512
 91
        0
  1

274
    -2
284
     1
 64
     0
275
    -2
285
     1
 65
     0
276
    -2
286
     1
 66
     0
277
    -2
287
     1
 67
     0
278
    -2
288
     1
 68
     0
279
    -2
289
     1
 69
     0
  7
STANDARD
140
0.18
170
     5
 62
     0
 63
     7
283
     0
 90
      512
 91
        0
  1

274
    -2
284
     1
 64
     0
275
    -2
285
     1
 65
     0
276
    -2
286
     1
 66
     0
277
    -2
287
     1
 67
     0
278
    -2
288
     1
 68
     0
279
    -2
289
     1
 69
     0
  0
VISUALSTYLE
  5
431
102
{ACAD_REACTORS
330
42B
102
}
330
42B
100
AcDbVisualStyle
  2
2dWireframe
 70
     4
 71
     0
 72
     2
 73
     0
 90
        0
 40
-0.6
 41
-30.0
 62
     5
 63
     7
421
 16777215
 74
     1
 91
        4
 64
     7
 65
   257
 75
     1
175
     1
 42
1.0
 92
        0
 66
   257
 43
1.0
 76
     1
 77
     6
 78
     2
 67
     7
 79
     5
170
     0
171
     0
290
     0
174
     0
 93
        1
 44
0.0
173
     0
291
     0
 45
0.0
  0
VISUALSTYLE
  5
433
102
{ACAD_REACTORS
330
42B
102
}
330
42B
100
AcDbVisualStyle
  2
3D Hidden
 70
     6
 71
     1
 72
     2
 73
     2
 90
        0
 40
-0.6
 41
-30.0
 62
     5
 63
     7
421
 16777215
 74
     2
 91
        2
 64
     7
 65
   257
 75
     2
175
     1
 42
40.0
 92
        0
 66
   257
 43
1.0
 76
     1
 77
     6
 78
     2
 67
     7
 79
     3
170
     0
171
     0
290
     0
174
     0
 93
        1
 44
0.0
173
     0
291
     0
 45
0.0
  0
VISUALSTYLE
  5
432
102
{ACAD_REACTORS
330
42B
102
}
330
42B
100
AcDbVisualStyle
  2
3dWireframe
 70
     5
 71
     0
 72
     2
 73
     0
 90
        0
 40
-0.6
 41
-30.0
 62
     5
 63
     7
421
 16777215
 74
     1
 91
        4
 64
     7
 65
   257
 75
     1
175
     1
 42
1.0
 92
        0
 66
   257
 43
1.0
 76
     1
 77
     6
 78
     2
 67
     7
 79
     5
170
     0
171
     0
290
     0
174
     0
 93
        1
 44
0.0
173
     0
291
     0
 45
0.0
  0
VISUALSTYLE
  5
430
102
{ACAD_REACTORS
330
42B
102
}
330
42B
100
AcDbVisualStyle
  2
Basic
 70
     7
 71
     1
 72
     0
 73
     1
 90
        0
 40
-0.6
 41
-30.0
 62
     5
 63
     7
421
 16777215
 74
     0
 91
        4
 64
     7
 65
   257
 75
     1
175
     1
 42
1.0
 92
        8
 66
     7
 43
1.0
 76
     1
 77
     6
 78
     2
 67
     7
 79
     5
170
     0
171
     0
290
     0
174
     0
 93
        1
 44
0.0
173
     0
291
     1
 45
0.0
  0
VISUALSTYLE
  5
437
102
{ACAD_REACTORS
330
42B
102
}
330
42B
100
AcDbVisualStyle
  2
Brighten
 70
    12
 71
     2
 72
     2
 73
     0
 90
        0
 40
-0.6
 41
-30.0
 62
     5
 63
     7
421
 16777215
 74
     1
 91
        4
 64
     7
 65
   257
 75
     1
175
     1
 42
1.0
 92
        8
 66
     7
 43
1.0
 76
     1
 77
     6
 78
     2
 67
     7
 79
     5
170
     0
171
     0
290
     0
174
     0
 93
        1
 44
50.0
173
     0
291
     1
 45
0.0
  0
VISUALSTYLE
  5
43B
102
{ACAD_REACTORS
330
42B
102
}
330
42B
100
AcDbVisualStyle
  2
ColorChange
 70
    16
 71
     2
 72
     2
 73
     3
 90
        0
 40
-0.6
 41
-30.0
 62
     5
 63
     8
421
  8421504
 74
     1
 91
        4
 64
     7
 65
   257
 75
     1
175
     1
 42
1.0
 92
        8
 66
     8
424
  8421504
 43
1.0
 76
     1
 77
     6
 78
     2
 67
     7
 79
     5
170
     0
171
     0
290
     0
174
     0
 93
        1
 44
0.0
173
     0
291
     1
 45
0.0
  0
VISUALSTYLE
  5
434
102
{ACAD_REACTORS
330
42B
102
}
330
42B
100
AcDbVisualStyle
  2
Conceptual
 70
     9
 71
     3
 72
     2
 73
     0
 90
        0
 40
-0.6
 41
-30.0
 62
     5
 63
     7
421
 16777215
 74
     2
 91
        2
 64
     7
 65
   257
 75
     1
175
     1
 42
40.0
 92
        8
 66
     7
 43
1.0
 76
     1
 77
     6
 78
     2
 67
     7
 79
     3
170
     0
171
     0
290
     0
174
     0
 93
        1
 44
0.0
173
     0
291
     0
 45
0.0
  0
VISUALSTYLE
  5
436
102
{ACAD_REACTORS
330
42B
102
}
330
42B
100
AcDbVisualStyle
  2
Dim
 70
    11
 71
     2
 72
     2
 73
     0
 90
        0
 40
-0.6
 41
-30.0
 62
     5
 63
     7
421
 16777215
 74
     1
 91
        4
 64
     7
 65
   257
 75
     1
175
     1
 42
1.0
 92
        8
 66
     7
 43
1.0
 76
     1
 77
     6
 78
     2
 67
     7
 79
     5
170
     0
171
     0
290
     0
174
     0
 93
        1
 44
-50.0
173
     0
291
     1
 45
0.0
  0
VISUALSTYLE
  5
43A
102
{ACAD_REACTORS
330
42B
102
}
330
42B
100
AcDbVisualStyle
  2
Facepattern
 70
    15
 71
     2
 72
     2
 73
     0
 90
        0
 40
-0.6
 41
-30.0
 62
     5
 63
     7
421
 16777215
 74
     1
 91
        4
 64
     7
 65
   257
 75
     1
175
     1
 42
1.0
 92
        8
 66
     7
 43
1.0
 76
     1
 77
     6
 78
     2
 67
     7
 79
     5
170
     0
171
     0
290
     0
174
     0
 93
        1
 44
0.0
173
     0
291
     1
 45
0.0
  0
VISUALSTYLE
  5
42C
102
{ACAD_REACTORS
330
42B
102
}
330
42B
100
AcDbVisualStyle
  2
Flat
 70
     0
 71
     2
 72
     1
 73
     1
 90
        2
 40
-0.6
 41
30.0
 62
     5
 63
     7
421
 16777215
 74
     0
 91
        4
 64
     7
 65
   257
 75
     1
175
     1
 42
1.0
 92
        8
 66
     7
 43
1.0
 76
     1
 77
     6
 78
     2
 67
     7
 79
     5
170
     0
171
     0
290
     0
174
     0
 93
       13
 44
0.0
173
     0
291
     1
 45
0.0
  0
VISUALSTYLE
  5
42D
102
{ACAD_REACTORS
330
42B
102
}
330
42B
100
AcDbVisualStyle
  2
FlatWithEdges
 70
     1
 71
     2
 72
     1
 73
     1
 90
        2
 40
-0.6
 41
30.0
 62
     5
 63
     7
421
 16777215
 74
     1
 91
        4
 64
     7
 65
   257
 75
     1
175
     1
 42
1.0
 92
        0
 66
   257
 43
1.0
 76
     1
 77
     6
 78
     2
 67
     7
 79
     5
170
     0
171
     0
290
     0
174
     0
 93
       13
 44
0.0
173
     0
291
     1
 45
0.0
  0
VISUALSTYLE
  5
42E
102
{ACAD_REACTORS
330
42B
102
}
330
42B
100
AcDbVisualStyle
  2
Gouraud
 70
     2
 71
     2
 72
     2
 73
     1
 90
        2
 40
-0.6
 41
30.0
 62
     5
 63
     7
421
 16777215
 74
     0
 91
        4
 64
     7
 65
   257
 75
     1
175
     1
 42
1.0
 92
        0
 66
     7
 43
1.0
 76
     1
 77
     6
 78
     2
 67
     7
 79
     5
170
     0
171
     0
290
     0
174
     0
 93
       13
 44
0.0
173
     0
291
     1
 45
0.0
  0
VISUALSTYLE
  5
42F
102
{ACAD_REACTORS
330
42B
102
}
330
42B
100
AcDbVisualStyle
  2
GouraudWithEdges
 70
     3
 71
     2
 72
     2
 73
     1
 90
        2
 40
-0.6
 41
30.0
 62
     5
 63
     7
421
 16777215
 74
     1
 91
        4
 64
     7
 65
   257
 75
     1
175
     1
 42
1.0
 92
        0
 66
   257
 43
1.0
 76
     1
 77
     6
 78
     2
 67
     7
 79
     5
170
     0
171
     0
290
     0
174
     0
 93
       13
 44
0.0
173
     0
291
     1
 45
0.0
  0
VISUALSTYLE
  5
439
102
{ACAD_REACTORS
330
42B
102
}
330
42B
100
AcDbVisualStyle
  2
Linepattern
 70
    14
 71
     2
 72
     2
 73
     0
 90
        0
 40
-0.6
 41
-30.0
 62
     5
 63
     7
421
 16777215
 74
     1
 91
        4
 64
     7
 65
   257
 75
     7
175
     7
 42
1.0
 92
        8
 66
     7
 43
1.0
 76
     1
 77
     6
 78
     2
 67
     7
 79
     5
170
     0
171
     0
290
     0
174
     0
 93
        1
 44
0.0
173
     0
291
     1
 45
0.0
  0
VISUALSTYLE
  5
435
102
{ACAD_REACTORS
330
42B
102
}
330
42B
100
AcDbVisualStyle
  2
Realistic
 70
     8
 71
     2
 72
     2
 73
     0
 90
        0
 40
-0.6
 41
-30.0
 62
     5
 63
     7
421
 16777215
 74
     1
 91
        0
 64
     7
 65
   257
 75
     1
175
     1
 42
1.0
 92
        8
 66
     8
424
  7895160
 43
1.0
 76
     1
 77
     6
 78
     2
 67
     7
 79
     5
170
     0
171
     0
290
     0
174
     0
 93
       13
 44
0.0
173
     0
291
     0
 45
0.0
  0
VISUALSTYLE
  5
438
102
{ACAD_REACTORS
330
42B
102
}
330
42B
100
AcDbVisualStyle
  2
Thicken
 70
    13
 71
     2
 72
     2
 73
     0
 90
        0
 40
-0.6
 41
-30.0
 62
     5
 63
     7
421
 16777215
 74
     1
 91
        4
 64
     7
 65
   257
 75
     1
175
     1
 42
1.0
 92
       12
 66
     7
 43
1.0
 76
     1
 77
     6
 78
     2
 67
     7
 79
     5
170
     0
171
     0
290
     0
174
     0
 93
        1
 44
0.0
173
     0
291
     1
 45
0.0
  0
DICTIONARYVAR
  5
51D
102
{ACAD_REACTORS
330
51A
102
}
330
51A
100
DictionaryVariables
280
     0
  1
1:1
  0
DICTIONARYVAR
  5
51C
102
{ACAD_REACTORS
330
51A
102
}
330
51A
100
DictionaryVariables
280
     0
  1
STANDARD
  0
DICTIONARYVAR
  5
51B
102
{ACAD_REACTORS
330
51A
102
}
330
51A
100
DictionaryVariables
280
     0
  1
STANDARD
  0
DICTIONARY
  5
4CD
102
{ACAD_REACTORS
330
4C0
102
}
330
4C0
100
AcDbDictionary
281
     1
  0
DICTIONARY
  5
41C
330
41B
100
AcDbDictionary
280
     1
281
     1
  3
BUMPTILE
360
41E
  3
DIFFUSETILE
360
41D
  3
OPACITYTILE
360
421
  3
REFLECTIONTILE
360
420
  3
REFRACTIONTILE
360
422
  3
SPECULARTILE
360
41F
  0
DICTIONARY
  5
414
330
413
100
AcDbDictionary
280
     1
281
     1
  3
BUMPTILE
360
416
  3
DIFFUSETILE
360
415
  3
OPACITYTILE
360
419
  3
REFLECTIONTILE
360
418
  3
REFRACTIONTILE
360
41A
  3
SPECULARTILE
360
417
  0
DICTIONARY
  5
424
330
423
100
AcDbDictionary
280
     1
281
     1
  3
BUMPTILE
360
426
  3
DIFFUSETILE
360
425
  3
OPACITYTILE
360
429
  3
REFLECTIONTILE
360
428
  3
REFRACTIONTILE
360
42A
  3
SPECULARTILE
360
427
  0
DICTIONARY
  5
51E
330
43E
100
AcDbDictionary
280
     1
281
     1
  3
ACAD_ROUNDTRIP_2008_TABLESTYLE_CELLSTYLEMAP
360
59E
  0
XRECORD
  5
41E
102
{ACAD_REACTORS
330
41C
102
}
330
41C
100
AcDbXrecord
280
     1
270
     1
271
     1
  0
XRECORD
  5
41D
102
{ACAD_REACTORS
330
41C
102
}
330
41C
100
AcDbXrecord
280
     1
270
     1
271
     1
  0
XRECORD
  5
421
102
{ACAD_REACTORS
330
41C
102
}
330
41C
100
AcDbXrecord
280
     1
270
     1
271
     1
  0
XRECORD
  5
420
102
{ACAD_REACTORS
330
41C
102
}
330
41C
100
AcDbXrecord
280
     1
270
     1
271
     1
  0
XRECORD
  5
422
102
{ACAD_REACTORS
330
41C
102
}
330
41C
100
AcDbXrecord
280
     1
270
     1
271
     1
  0
XRECORD
  5
41F
102
{ACAD_REACTORS
330
41C
102
}
330
41C
100
AcDbXrecord
280
     1
270
     1
271
     1
  0
XRECORD
  5
416
102
{ACAD_REACTORS
330
414
102
}
330
414
100
AcDbXrecord
280
     1
270
     1
271
     1
  0
XRECORD
  5
415
102
{ACAD_REACTORS
330
414
102
}
330
414
100
AcDbXrecord
280
     1
270
     1
271
     1
  0
XRECORD
  5
419
102
{ACAD_REACTORS
330
414
102
}
330
414
100
AcDbXrecord
280
     1
270
     1
271
     1
  0
XRECORD
  5
418
102
{ACAD_REACTORS
330
414
102
}
330
414
100
AcDbXrecord
280
     1
270
     1
271
     1
  0
XRECORD
  5
41A
102
{ACAD_REACTORS
330
414
102
}
330
414
100
AcDbXrecord
280
     1
270
     1
271
     1
  0
XRECORD
  5
417
102
{ACAD_REACTORS
330
414
102
}
330
414
100
AcDbXrecord
280
     1
270
     1
271
     1
  0
XRECORD
  5
426
102
{ACAD_REACTORS
330
424
102
}
330
424
100
AcDbXrecord
280
     1
270
     1
271
     1
  0
XRECORD
  5
425
102
{ACAD_REACTORS
330
424
102
}
330
424
100
AcDbXrecord
280
     1
270
     1
271
     1
  0
XRECORD
  5
429
102
{ACAD_REACTORS
330
424
102
}
330
424
100
AcDbXrecord
280
     1
270
     1
271
     1
  0
XRECORD
  5
428
102
{ACAD_REACTORS
330
424
102
}
330
424
100
AcDbXrecord
280
     1
270
     1
271
     1
  0
XRECORD
  5
42A
102
{ACAD_REACTORS
330
424
102
}
330
424
100
AcDbXrecord
280
     1
270
     1
271
     1
  0
XRECORD
  5
427
102
{ACAD_REACTORS
330
424
102
}
330
424
100
AcDbXrecord
280
     1
270
     1
271
     1
  0
CELLSTYLEMAP
  5
59E
102
{ACAD_REACTORS
330
51E
102
}
330
51E
100
AcDbCellStyleMap
 90
        3
300
CELLSTYLE
  1
TABLEFORMAT_BEGIN
 90
        5
170
     1
 91
        0
 92
    32768
 62
   257
 93
        1
300
CONTENTFORMAT
  1
CONTENTFORMAT_BEGIN
 90
        0
 91
        0
 92
      512
 93
        0
300

 40
0.0
140
1.0
 94
        5
 62
     0
340
11
144
0.25
309
CONTENTFORMAT_END
171
     1
301
MARGIN
  1
CELLMARGIN_BEGIN
 40
0.06
 40
0.06
 40
0.06
 40
0.06
 40
0.18
 40
0.18
309
CELLMARGIN_END
 94
        6
 95
        1
302
GRIDFORMAT
  1
GRIDFORMAT_BEGIN
 90
        0
 91
        1
 62
     0
 92
       -2
340
0
 93
        0
 40
0.045
309
GRIDFORMAT_END
 95
        2
302
GRIDFORMAT
  1
GRIDFORMAT_BEGIN
 90
        0
 91
        1
 62
     0
 92
       -2
340
0
 93
        0
 40
0.045
309
GRIDFORMAT_END
 95
        4
302
GRIDFORMAT
  1
GRIDFORMAT_BEGIN
 90
        0
 91
        1
 62
     0
 92
       -2
340
0
 93
        0
 40
0.045
309
GRIDFORMAT_END
 95
        8
302
GRIDFORMAT
  1
GRIDFORMAT_BEGIN
 90
        0
 91
        1
 62
     0
 92
       -2
340
0
 93
        0
 40
0.045
309
GRIDFORMAT_END
 95
       16
302
GRIDFORMAT
  1
GRIDFORMAT_BEGIN
 90
        0
 91
        1
 62
     0
 92
       -2
340
0
 93
        0
 40
0.045
309
GRIDFORMAT_END
 95
       32
302
GRIDFORMAT
  1
GRIDFORMAT_BEGIN
 90
        0
 91
        1
 62
     0
 92
       -2
340
0
 93
        0
 40
0.045
309
GRIDFORMAT_END
309
TABLEFORMAT_END
  1
CELLSTYLE_BEGIN
 90
        1
 91
        1
300
_TITLE
309
CELLSTYLE_END
300
CELLSTYLE
  1
TABLEFORMAT_BEGIN
 90
        5
170
     1
 91
        0
 92
        0
 62
   257
 93
        1
300
CONTENTFORMAT
  1
CONTENTFORMAT_BEGIN
 90
        0
 91
        0
 92
      512
 93
        0
300

 40
0.0
140
1.0
 94
        5
 62
     0
340
11
144
0.18
309
CONTENTFORMAT_END
171
     1
301
MARGIN
  1
CELLMARGIN_BEGIN
 40
0.06
 40
0.06
 40
0.06
 40
0.06
 40
0.18
 40
0.18
309
CELLMARGIN_END
 94
        6
 95
        1
302
GRIDFORMAT
  1
GRIDFORMAT_BEGIN
 90
        0
 91
        1
 62
     0
 92
       -2
340
0
 93
        0
 40
0.045
309
GRIDFORMAT_END
 95
        2
302
GRIDFORMAT
  1
GRIDFORMAT_BEGIN
 90
        0
 91
        1
 62
     0
 92
       -2
340
0
 93
        0
 40
0.045
309
GRIDFORMAT_END
 95
        4
302
GRIDFORMAT
  1
GRIDFORMAT_BEGIN
 90
        0
 91
        1
 62
     0
 92
       -2
340
0
 93
        0
 40
0.045
309
GRIDFORMAT_END
 95
        8
302
GRIDFORMAT
  1
GRIDFORMAT_BEGIN
 90
        0
 91
        1
 62
     0
 92
       -2
340
0
 93
        0
 40
0.045
309
GRIDFORMAT_END
 95
       16
302
GRIDFORMAT
  1
GRIDFORMAT_BEGIN
 90
        0
 91
        1
 62
     0
 92
       -2
340
0
 93
        0
 40
0.045
309
GRIDFORMAT_END
 95
       32
302
GRIDFORMAT
  1
GRIDFORMAT_BEGIN
 90
        0
 91
        1
 62
     0
 92
       -2
340
0
 93
        0
 40
0.045
309
GRIDFORMAT_END
309
TABLEFORMAT_END
  1
CELLSTYLE_BEGIN
 90
        2
 91
        1
300
_HEADER
309
CELLSTYLE_END
300
CELLSTYLE
  1
TABLEFORMAT_BEGIN
 90
        5
170
     1
 91
        0
 92
        0
 62
   257
 93
        1
300
CONTENTFORMAT
  1
CONTENTFORMAT_BEGIN
 90
        0
 91
        0
 92
      512
 93
        0
300

 40
0.0
140
1.0
 94
        2
 62
     0
340
11
144
0.18
309
CONTENTFORMAT_END
171
     1
301
MARGIN
  1
CELLMARGIN_BEGIN
 40
0.06
 40
0.06
 40
0.06
 40
0.06
 40
0.18
 40
0.18
309
CELLMARGIN_END
 94
        6
 95
        1
302
GRIDFORMAT
  1
GRIDFORMAT_BEGIN
 90
        0
 91
        1
 62
     0
 92
       -2
340
0
 93
        0
 40
0.045
309
GRIDFORMAT_END
 95
        2
302
GRIDFORMAT
  1
GRIDFORMAT_BEGIN
 90
        0
 91
        1
 62
     0
 92
       -2
340
0
 93
        0
 40
0.045
309
GRIDFORMAT_END
 95
        4
302
GRIDFORMAT
  1
GRIDFORMAT_BEGIN
 90
        0
 91
        1
 62
     0
 92
       -2
340
0
 93
        0
 40
0.045
309
GRIDFORMAT_END
 95
        8
302
GRIDFORMAT
  1
GRIDFORMAT_BEGIN
 90
        0
 91
        1
 62
     0
 92
       -2
340
0
 93
        0
 40
0.045
309
GRIDFORMAT_END
 95
       16
302
GRIDFORMAT
  1
GRIDFORMAT_BEGIN
 90
        0
 91
        1
 62
     0
 92
       -2
340
0
 93
        0
 40
0.045
309
GRIDFORMAT_END
 95
       32
302
GRIDFORMAT
  1
GRIDFORMAT_BEGIN
 90
        0
 91
        1
 62
     0
 92
       -2
340
0
 93
        0
 40
0.045
309
GRIDFORMAT_END
309
TABLEFORMAT_END
  1
CELLSTYLE_BEGIN
 90
        3
 91
        2
300
_DATA
309
CELLSTYLE_END
  0
ENDSEC
  0
EOF
