  0
SECTION
  2
HEADER
  9
$ACADVER
  1
AC1009
  9
$INSBASE
 10
56.555110871822208
 20
24.4205222744
 30
0.0
  9
$EXTMIN
 10
46.879635436809593
 20
16.245802580136669
 30
-0.0000000349181948
  9
$EXTMAX
 10
66.232593358798994
 20
32.597048824741691
 30
0.0000000814935746
  9
$LIMMIN
 10
0.0
 20
0.0
  9
$LIMMAX
 10
11.692913385800001
 20
8.2677165353999982
  9
$ORTHOMODE
 70
     1
  9
$REGENMODE
 70
     1
  9
$FILLMODE
 70
     1
  9
$QTEXTMODE
 70
     0
  9
$MIRRTEXT
 70
     0
  9
$DRAGMODE
 70
     2
  9
$LTSCALE
 40
0.6431102362
  9
$OSMODE
 70
  3071
  9
$ATTMODE
 70
     1
  9
$TEXTSIZE
 40
0.2
  9
$TRACEWID
 40
0.05
  9
$TEXTSTYLE
  7
STANDARD
  9
$CLAYER
  8
0
  9
$CELTYPE
  6
BYLAYER
  9
$CECOLOR
 62
   256
  9
$DIMSCALE
 40
1.0
  9
$DIMASZ
 40
0.1875
  9
$DIMEXO
 40
0.0625
  9
$DIMDLI
 40
0.4443307087
  9
$DIMRND
 40
0.0
  9
$DIMDLE
 40
0.0
  9
$DIMEXE
 40
0.125
  9
$DIMTP
 40
0.0
  9
$DIMTM
 40
0.0
  9
$DIMTXT
 40
0.15625
  9
$DIMCEN
 40
0.1052362205
  9
$DIMTSZ
 40
0.0
  9
$DIMTOL
 70
     0
  9
$DIMLIM
 70
     0
  9
$DIMTIH
 70
     1
  9
$DIMTOH
 70
     1
  9
$DIMSE1
 70
     0
  9
$DIMSE2
 70
     0
  9
$DIMTAD
 70
     0
  9
$DIMZIN
 70
     0
  9
$DIMBLK
  1

  9
$DIMASO
 70
     1
  9
$DIMSHO
 70
     1
  9
$DIMPOST
  1

  9
$DIMAPOST
  1

  9
$DIMALT
 70
     0
  9
$DIMALTD
 70
     2
  9
$DIMALTF
 40
25.399999999999999
  9
$DIMLFAC
 40
1.0
  9
$DIMTOFL
 70
     0
  9
$DIMTVP
 40
0.0
  9
$DIMTIX
 70
     0
  9
$DIMSOXD
 70
     0
  9
$DIMSAH
 70
     0
  9
$DIMBLK1
  1

  9
$DIMBLK2
  1

  9
$DIMSTYLE
  2
STANDARD
  9
$DIMCLRD
 70
     0
  9
$DIMCLRE
 70
     0
  9
$DIMCLRT
 70
     0
  9
$DIMTFAC
 40
1.0
  9
$DIMGAP
 40
0.09
  9
$LUNITS
 70
     2
  9
$LUPREC
 70
     4
  9
$SKETCHINC
 40
0.1
  9
$FILLETRAD
 40
0.0
  9
$AUNITS
 70
     0
  9
$AUPREC
 70
     0
  9
$MENU
  1
.
  9
$ELEVATION
 40
0.0
  9
$PELEVATION
 40
0.0
  9
$THICKNESS
 40
0.0
  9
$LIMCHECK
 70
     0
  9
$BLIPMODE
 70
     0
  9
$CHAMFERA
 40
0.0
  9
$CHAMFERB
 40
0.0
  9
$SKPOLY
 70
     0
  9
$TDCREATE
 40
2457830.5221199999
  9
$TDUPDATE
 40
2457830.727592153
  9
$TDINDWG
 40
0.0223972685
  9
$TDUSRTIMER
 40
0.0223972685
  9
$USRTIMER
 70
     1
  9
$ANGBASE
 50
0.0
  9
$ANGDIR
 70
     0
  9
$PDMODE
 70
     0
  9
$PDSIZE
 40
0.3125
  9
$PLINEWID
 40
0.0
  9
$COORDS
 70
     1
  9
$SPLFRAME
 70
     0
  9
$SPLINETYPE
 70
     6
  9
$SPLINESEGS
 70
     8
  9
$ATTDIA
 70
     1
  9
$ATTREQ
 70
     1
  9
$HANDLING
 70
     1
  9
$HANDSEED
  5
32A5
  9
$SURFTAB1
 70
     6
  9
$SURFTAB2
 70
     6
  9
$SURFTYPE
 70
     6
  9
$SURFU
 70
     6
  9
$SURFV
 70
     6
  9
$UCSNAME
  2

  9
$UCSORG
 10
0.0
 20
0.0
 30
0.0
  9
$UCSXDIR
 10
1.0
 20
0.0
 30
0.0
  9
$UCSYDIR
 10
0.0
 20
1.0
 30
0.0
  9
$PUCSNAME
  2

  9
$PUCSORG
 10
0.0
 20
0.0
 30
0.0
  9
$PUCSXDIR
 10
1.0
 20
0.0
 30
0.0
  9
$PUCSYDIR
 10
0.0
 20
1.0
 30
0.0
  9
$USERI1
 70
     0
  9
$USERI2
 70
     0
  9
$USERI3
 70
     0
  9
$USERI4
 70
     0
  9
$USERI5
 70
     0
  9
$USERR1
 40
0.0
  9
$USERR2
 40
0.0
  9
$USERR3
 40
0.0
  9
$USERR4
 40
0.0
  9
$USERR5
 40
0.0
  9
$WORLDVIEW
 70
     1
  9
$SHADEDGE
 70
     3
  9
$SHADEDIF
 70
    70
  9
$TILEMODE
 70
     1
  9
$MAXACTVP
 70
    48
  9
$PLIMCHECK
 70
     0
  9
$PEXTMIN
 10
1.0000000000000000E+020
 20
1.0000000000000000E+020
 30
1.0000000000000000E+020
  9
$PEXTMAX
 10
-1.0000000000000000E+020
 20
-1.0000000000000000E+020
 30
-1.0000000000000000E+020
  9
$PLIMMIN
 10
0.0
 20
0.0
  9
$PLIMMAX
 10
12.0
 20
9.0
  9
$UNITMODE
 70
     0
  9
$VISRETAIN
 70
     1
  9
$PLINEGEN
 70
     0
  9
$PSLTSCALE
 70
     1
  0
ENDSEC
  0
SECTION
  2
TABLES
  0
TABLE
  2
VPORT
 70
     1
  0
VPORT
  2
*ACTIVE
 70
     0
 10
0.0
 20
0.0
 11
1.0
 21
1.0
 12
56.556114397804301
 22
24.42142570243918
 13
0.0
 23
0.0
 14
1.0
 24
1.0
 15
0.0
 25
0.0
 16
0.0
 26
0.0
 36
1.0
 17
0.0
 27
0.0
 37
0.0
 40
16.458820233056372
 41
2.102085620197585
 42
50.0
 43
0.0
 44
0.0
 50
0.0
 51
0.0
 71
     0
 72
   100
 73
     1
 74
     1
 75
     0
 76
     0
 77
     0
 78
     0
  0
ENDTAB
  0
TABLE
  2
LTYPE
 70
     2
  0
LTYPE
  2
CONTINUOUS
 70
     0
  3
Solid line
 72
    65
 73
     0
 40
0.0
  0
LTYPE
  2
PHANTOM2
 70
     0
  3
___ _ _ ___ _ _ ___ _ _ ___ _ _
 72
    65
 73
     6
 40
1.25
 49
0.625
 49
-0.125
 49
0.125
 49
-0.125
 49
0.125
 49
-0.125
  0
ENDTAB
  0
TABLE
  2
LAYER
 70
     2
  0
LAYER
  2
0
 70
     0
 62
     7
  6
CONTINUOUS
  0
LAYER
  2
DEFPOINTS
 70
     0
 62
     7
  6
CONTINUOUS
  0
ENDTAB
  0
TABLE
  2
STYLE
 70
     1
  0
STYLE
  2
STANDARD
 70
     0
 40
0.0
 41
0.8
 50
0.0
 71
     0
 42
0.2
  3
txt
  4

  0
ENDTAB
  0
TABLE
  2
VIEW
 70
     0
  0
ENDTAB
  0
TABLE
  2
UCS
 70
     0
  0
ENDTAB
  0
TABLE
  2
APPID
 70
     5
  0
APPID
  2
ACAD
 70
     0
  0
APPID
  2
ACAD_MLEADERVER
 70
     0
  0
APPID
  2
ACAD_EXEMPT_FROM_CAD_STANDARDS
 70
     0
  0
APPID
  2
ACAD_NAV_VCDISPLAY
 70
     0
  0
APPID
  2
ACDBATTR
 70
     0
  0
ENDTAB
  0
TABLE
  2
DIMSTYLE
 70
     1
  0
DIMSTYLE
  2
STANDARD
 70
     0
  3

  4

  5

  6

  7

 40
1.0
 41
0.1875
 42
0.0625
 43
0.38
 44
0.125
 45
0.0
 46
0.0
 47
1.5
 48
1.5
140
0.15625
141
0.09
142
0.0
143
25.399999999999999
144
1.0
145
0.0
146
1.0
147
0.09
 71
     0
 72
     0
 73
     1
 74
     1
 75
     0
 76
     0
 77
     0
 78
     4
170
     0
171
     2
172
     0
173
     0
174
     0
175
     0
176
     0
177
     0
178
     0
  0
ENDTAB
  0
ENDSEC
  0
SECTION
  2
BLOCKS
  0
BLOCK
  8
0
  2
$MODEL_SPACE
 70
     0
 10
0.0
 20
0.0
 30
0.0
  3
$MODEL_SPACE
  1

  0
ENDBLK
  5
21
  8
0
  0
BLOCK
 67
     1
  8
0
  2
$PAPER_SPACE
 70
     0
 10
0.0
 20
0.0
 30
0.0
  3
$PAPER_SPACE
  1

  0
ENDBLK
  5
1D
 67
     1
  8
0
  0
ENDSEC
  0
SECTION
  2
ENTITIES
  0
ATTDEF
  5
302F
  8
DEFPOINTS
 10
56.558011114381081
 20
24.422152032816001
 30
0.0
 40
0.001
  1
K-17889-RL
  3

  2
MODELNUMBER
 70
     0
1001
ACDBATTR
1070
     0
1070
     1
  0
ATTDEF
  5
3030
  8
DEFPOINTS
 10
56.558011114381081
 20
24.420485366149329
 30
0.0
 40
0.001
  1
DERRING
  3

  2
TRADENAME
 70
     0
1001
ACDBATTR
1070
     0
1070
     1
  0
ATTDEF
  5
3031
  8
DEFPOINTS
 10
56.558011114381081
 20
24.418818699482671
 30
0.0
 40
0.001
  1
BATHROOM SINK 
  3

  2
PRODUCT
 70
     0
1001
ACDBATTR
1070
     0
1070
     1
  0
ATTDEF
  5
3032
  8
DEFPOINTS
 10
56.558011114381081
 20
24.417152032815991
 30
0.0
 40
0.001
  1
VITREOUS CHINA
  3

  2
MATERIAL
 70
     0
1001
ACDBATTR
1070
     0
1070
     1
  0
CIRCLE
  5
3162
  8
0
 10
56.555110871822208
 20
24.4205222744
 30
0.0
 40
0.8750000000000012
  0
CIRCLE
  5
3163
  8
0
 10
56.555110871822208
 20
24.4205222744
 30
0.0
 40
1.278783325816458
  0
ARC
  5
3164
  8
0
 10
53.995584366691261
 20
24.40361451148032
 30
0.0
 40
7.1139330933379421
 50
146.82078554115481
 51
179.8638243375392
  0
ARC
  5
3165
  8
0
 10
55.33280291928083
 20
23.57672758965985
 30
0.0
 40
8.6857481186285526
 50
126.3209232531966
 51
147.08288004575439
  0
ARC
  5
3166
  8
0
 10
56.450619374227728
 20
21.873867153031341
 30
0.0
 40
10.720398091371839
 50
89.673515203819235
 51
125.74381492295529
  0
ARC
  5
3167
  8
0
 10
59.114637717893643
 20
24.40361451148032
 30
0.0
 40
7.1139330933379421
 50
0.136175662460789
 51
33.179214458845273
  0
ARC
  5
3168
  8
0
 10
57.77741916530406
 20
23.57672758965985
 30
0.0
 40
8.6857481186285526
 50
32.917119954245372
 51
53.679076746803318
  0
ARC
  5
3169
  8
0
 10
56.655823639729483
 20
21.866361872327911
 30
0.0
 40
10.72869732573662
 50
54.263218768769597
 51
90.769670203541182
  0
ARC
  5
316A
  8
0
 10
53.995584366691261
 20
24.4374299073923
 30
0.0
 40
7.1139330933379421
 50
180.1361756624608
 51
213.17921445884451
  0
ARC
  5
316B
  8
0
 10
55.33280291928083
 20
25.26431682921277
 30
0.0
 40
8.6857481186285526
 50
212.91711995424549
 51
233.6790767468033
  0
ARC
  5
316C
  8
0
 10
56.450619374227728
 20
26.967177265841279
 30
0.0
 40
10.720398091371839
 50
234.25618507704471
 51
270.32648479618001
  0
ARC
  5
316D
  8
0
 10
59.114637717893643
 20
24.4374299073923
 30
0.0
 40
7.1139330933379421
 50
326.82078554115469
 51
359.8638243375392
  0
ARC
  5
316E
  8
0
 10
57.77741916530406
 20
25.26431682921277
 30
0.0
 40
8.6857481186285526
 50
306.32092325319672
 51
327.082880045754
  0
ARC
  5
316F
  8
0
 10
56.655823639729491
 20
26.974682546544692
 30
0.0
 40
10.72869732573659
 50
269.23032979645802
 51
305.73678123123068
  0
ARC
  5
3170
  8
0
 10
54.015585212398307
 20
24.389699151916439
 30
0.0
 40
6.2559670714123001
 50
157.0530461051377
 51
179.63914554222271
  0
ARC
  5
3171
  8
0
 10
54.953136300020958
 20
23.91243833960656
 30
0.0
 40
7.3057744269375711
 50
131.20147881068439
 51
156.47298448444769
  0
ARC
  5
3172
  8
0
 10
56.423676969876013
 20
22.095447588745461
 30
0.0
 40
9.6419567938997943
 50
89.218949845578294
 51
130.6640682267913
  0
ARC
  5
3173
  8
0
 10
59.09463699617551
 20
24.389699247848299
 30
0.0
 40
6.2559670714123001
 50
0.3608566221539978
 51
22.946956059238921
  0
ARC
  5
3174
  8
0
 10
58.157085926581608
 20
23.91243840012196
 30
0.0
 40
7.3057744269375711
 50
23.52701767992901
 51
48.798523353692183
  0
ARC
  5
3175
  8
0
 10
56.686545335491083
 20
22.095447611038448
 30
0.0
 40
9.6419567741569061
 50
49.335933916134842
 51
90.781051266882741
  0
ARC
  5
3176
  8
0
 10
54.013534496970628
 20
24.450706589783731
 30
0.0
 40
6.2538296079069742
 50
180.1979575025502
 51
202.94889006631681
  0
ARC
  5
3177
  8
0
 10
54.953136300020951
 20
24.928606145667871
 30
0.0
 40
7.3057744269375711
 50
203.52701636932599
 51
228.79852118931561
  0
ARC
  5
3178
  8
0
 10
56.423676959749223
 20
26.745596879200949
 30
0.0
 40
9.6419567741569061
 50
229.33593175175861
 51
270.78104910250562
  0
ARC
  5
3179
  8
0
 10
59.096687782980723
 20
24.45070647153463
 30
0.0
 40
6.2538295334850336
 50
337.05110770187071
 51
359.8020466224562
  0
ARC
  5
317A
  8
0
 10
58.157085926581608
 20
24.92860608515246
 30
0.0
 40
7.3057744269375711
 50
311.20147664630781
 51
336.4729823200712
  0
ARC
  5
317B
  8
0
 10
56.686545325364293
 20
26.745596891563942
 30
0.0
 40
9.6419567938997712
 50
269.2189476812012
 51
310.66406606241532
  0
ENDSEC
  0
EOF
