  0
SECTION
  2
HEADER
  9
$ACADVER
  1
AC1009
  9
$INSBASE
 10
56.555110955822201
 20
13.08077184465
 30
0.0
  9
$EXTMIN
 10
46.878361787618928
 20
5.8901993520253271
 30
-0.0000000000000053
  9
$EXTMAX
 10
66.232880074558153
 20
13.09015303134372
 30
0.0000000000000099
  9
$LIMMIN
 10
0.0
 20
0.0
  9
$LIMMAX
 10
11.692913385800001
 20
8.2677165353999982
  9
$ORTHOMODE
 70
     1
  9
$REGENMODE
 70
     1
  9
$FILLMODE
 70
     1
  9
$QTEXTMODE
 70
     0
  9
$MIRRTEXT
 70
     0
  9
$DRAGMODE
 70
     2
  9
$LTSCALE
 40
0.6431102362
  9
$OSMODE
 70
  3071
  9
$ATTMODE
 70
     1
  9
$TEXTSIZE
 40
0.2
  9
$TRACEWID
 40
0.05
  9
$TEXTSTYLE
  7
STANDARD
  9
$CLAYER
  8
0
  9
$CELTYPE
  6
BYLAYER
  9
$CECOLOR
 62
   256
  9
$DIMSCALE
 40
1.0
  9
$DIMASZ
 40
0.1875
  9
$DIMEXO
 40
0.0625
  9
$DIMDLI
 40
0.4443307087
  9
$DIMRND
 40
0.0
  9
$DIMDLE
 40
0.0
  9
$DIMEXE
 40
0.125
  9
$DIMTP
 40
0.0
  9
$DIMTM
 40
0.0
  9
$DIMTXT
 40
0.15625
  9
$DIMCEN
 40
0.1052362205
  9
$DIMTSZ
 40
0.0
  9
$DIMTOL
 70
     0
  9
$DIMLIM
 70
     0
  9
$DIMTIH
 70
     1
  9
$DIMTOH
 70
     1
  9
$DIMSE1
 70
     0
  9
$DIMSE2
 70
     0
  9
$DIMTAD
 70
     0
  9
$DIMZIN
 70
     0
  9
$DIMBLK
  1

  9
$DIMASO
 70
     1
  9
$DIMSHO
 70
     1
  9
$DIMPOST
  1

  9
$DIMAPOST
  1

  9
$DIMALT
 70
     0
  9
$DIMALTD
 70
     2
  9
$DIMALTF
 40
25.399999999999999
  9
$DIMLFAC
 40
1.0
  9
$DIMTOFL
 70
     0
  9
$DIMTVP
 40
0.0
  9
$DIMTIX
 70
     0
  9
$DIMSOXD
 70
     0
  9
$DIMSAH
 70
     0
  9
$DIMBLK1
  1

  9
$DIMBLK2
  1

  9
$DIMSTYLE
  2
STANDARD
  9
$DIMCLRD
 70
     0
  9
$DIMCLRE
 70
     0
  9
$DIMCLRT
 70
     0
  9
$DIMTFAC
 40
1.0
  9
$DIMGAP
 40
0.09
  9
$LUNITS
 70
     2
  9
$LUPREC
 70
     4
  9
$SKETCHINC
 40
0.1
  9
$FILLETRAD
 40
0.0
  9
$AUNITS
 70
     0
  9
$AUPREC
 70
     0
  9
$MENU
  1
.
  9
$ELEVATION
 40
0.0
  9
$PELEVATION
 40
0.0
  9
$THICKNESS
 40
0.0
  9
$LIMCHECK
 70
     0
  9
$BLIPMODE
 70
     0
  9
$CHAMFERA
 40
0.0
  9
$CHAMFERB
 40
0.0
  9
$SKPOLY
 70
     0
  9
$TDCREATE
 40
2457830.5221199999
  9
$TDUPDATE
 40
2457830.7272426742
  9
$TDINDWG
 40
0.0275430556
  9
$TDUSRTIMER
 40
0.0275430556
  9
$USRTIMER
 70
     1
  9
$ANGBASE
 50
0.0
  9
$ANGDIR
 70
     0
  9
$PDMODE
 70
     0
  9
$PDSIZE
 40
0.3125
  9
$PLINEWID
 40
0.0
  9
$COORDS
 70
     1
  9
$SPLFRAME
 70
     0
  9
$SPLINETYPE
 70
     6
  9
$SPLINESEGS
 70
     8
  9
$ATTDIA
 70
     1
  9
$ATTREQ
 70
     1
  9
$HANDLING
 70
     1
  9
$HANDSEED
  5
3675
  9
$SURFTAB1
 70
     6
  9
$SURFTAB2
 70
     6
  9
$SURFTYPE
 70
     6
  9
$SURFU
 70
     6
  9
$SURFV
 70
     6
  9
$UCSNAME
  2

  9
$UCSORG
 10
0.0
 20
0.0
 30
0.0
  9
$UCSXDIR
 10
1.0
 20
0.0
 30
0.0
  9
$UCSYDIR
 10
0.0
 20
1.0
 30
0.0
  9
$PUCSNAME
  2

  9
$PUCSORG
 10
0.0
 20
0.0
 30
0.0
  9
$PUCSXDIR
 10
1.0
 20
0.0
 30
0.0
  9
$PUCSYDIR
 10
0.0
 20
1.0
 30
0.0
  9
$USERI1
 70
     0
  9
$USERI2
 70
     0
  9
$USERI3
 70
     0
  9
$USERI4
 70
     0
  9
$USERI5
 70
     0
  9
$USERR1
 40
0.0
  9
$USERR2
 40
0.0
  9
$USERR3
 40
0.0
  9
$USERR4
 40
0.0
  9
$USERR5
 40
0.0
  9
$WORLDVIEW
 70
     1
  9
$SHADEDGE
 70
     3
  9
$SHADEDIF
 70
    70
  9
$TILEMODE
 70
     1
  9
$MAXACTVP
 70
    48
  9
$PLIMCHECK
 70
     0
  9
$PEXTMIN
 10
1.0000000000000000E+020
 20
1.0000000000000000E+020
 30
1.0000000000000000E+020
  9
$PEXTMAX
 10
-1.0000000000000000E+020
 20
-1.0000000000000000E+020
 30
-1.0000000000000000E+020
  9
$PLIMMIN
 10
0.0
 20
0.0
  9
$PLIMMAX
 10
12.0
 20
9.0
  9
$UNITMODE
 70
     0
  9
$VISRETAIN
 70
     1
  9
$PLINEGEN
 70
     0
  9
$PSLTSCALE
 70
     1
  0
ENDSEC
  0
SECTION
  2
TABLES
  0
TABLE
  2
VPORT
 70
     1
  0
VPORT
  2
*ACTIVE
 70
     0
 10
0.0
 20
0.0
 11
1.0
 21
1.0
 12
56.555620931088541
 22
9.4901761916845224
 13
0.0
 23
0.0
 14
1.0
 24
1.0
 15
0.0
 25
0.0
 16
0.0
 26
0.0
 36
1.0
 17
0.0
 27
0.0
 37
0.0
 40
9.2361093176538578
 41
2.102085620197585
 42
50.0
 43
0.0
 44
0.0
 50
0.0
 51
0.0
 71
     0
 72
   100
 73
     1
 74
     1
 75
     0
 76
     0
 77
     0
 78
     0
  0
ENDTAB
  0
TABLE
  2
LTYPE
 70
     2
  0
LTYPE
  2
CONTINUOUS
 70
     0
  3
Solid line
 72
    65
 73
     0
 40
0.0
  0
LTYPE
  2
PHANTOM2
 70
     0
  3
___ _ _ ___ _ _ ___ _ _ ___ _ _
 72
    65
 73
     6
 40
1.25
 49
0.625
 49
-0.125
 49
0.125
 49
-0.125
 49
0.125
 49
-0.125
  0
ENDTAB
  0
TABLE
  2
LAYER
 70
     2
  0
LAYER
  2
0
 70
     0
 62
     7
  6
CONTINUOUS
  0
LAYER
  2
DEFPOINTS
 70
     0
 62
     7
  6
CONTINUOUS
  0
ENDTAB
  0
TABLE
  2
STYLE
 70
     1
  0
STYLE
  2
STANDARD
 70
     0
 40
0.0
 41
0.8
 50
0.0
 71
     0
 42
0.2
  3
txt
  4

  0
ENDTAB
  0
TABLE
  2
VIEW
 70
     0
  0
ENDTAB
  0
TABLE
  2
UCS
 70
     0
  0
ENDTAB
  0
TABLE
  2
APPID
 70
     5
  0
APPID
  2
ACAD
 70
     0
  0
APPID
  2
ACAD_MLEADERVER
 70
     0
  0
APPID
  2
ACAD_EXEMPT_FROM_CAD_STANDARDS
 70
     0
  0
APPID
  2
ACAD_NAV_VCDISPLAY
 70
     0
  0
APPID
  2
ACDBATTR
 70
     0
  0
ENDTAB
  0
TABLE
  2
DIMSTYLE
 70
     1
  0
DIMSTYLE
  2
STANDARD
 70
     0
  3

  4

  5

  6

  7

 40
1.0
 41
0.1875
 42
0.0625
 43
0.38
 44
0.125
 45
0.0
 46
0.0
 47
1.5
 48
1.5
140
0.15625
141
0.09
142
0.0
143
25.399999999999999
144
1.0
145
0.0
146
1.0
147
0.09
 71
     0
 72
     0
 73
     1
 74
     1
 75
     0
 76
     0
 77
     0
 78
     4
170
     0
171
     2
172
     0
173
     0
174
     0
175
     0
176
     0
177
     0
178
     0
  0
ENDTAB
  0
ENDSEC
  0
SECTION
  2
BLOCKS
  0
BLOCK
  8
0
  2
$MODEL_SPACE
 70
     0
 10
0.0
 20
0.0
 30
0.0
  3
$MODEL_SPACE
  1

  0
ENDBLK
  5
21
  8
0
  0
BLOCK
 67
     1
  8
0
  2
$PAPER_SPACE
 70
     0
 10
0.0
 20
0.0
 30
0.0
  3
$PAPER_SPACE
  1

  0
ENDBLK
  5
1D
 67
     1
  8
0
  0
ENDSEC
  0
SECTION
  2
ENTITIES
  0
ATTDEF
  5
30BA
  8
DEFPOINTS
 10
56.5510498687199
 20
13.08887537895308
 30
0.0
 40
0.001
  1
K-17889-RL
  3

  2
MODELNUMBER
 70
     0
1001
ACDBATTR
1070
     0
1070
     1
  0
ATTDEF
  5
30BB
  8
DEFPOINTS
 10
56.5510498687199
 20
13.08720871228642
 30
0.0
 40
0.001
  1
DERRING
  3

  2
TRADENAME
 70
     0
1001
ACDBATTR
1070
     0
1070
     1
  0
ATTDEF
  5
30BC
  8
DEFPOINTS
 10
56.5510498687199
 20
13.08554204561975
 30
0.0
 40
0.001
  1
BATHROOM SINK 
  3

  2
PRODUCT
 70
     0
1001
ACDBATTR
1070
     0
1070
     1
  0
ATTDEF
  5
30BD
  8
DEFPOINTS
 10
56.5510498687199
 20
13.08387537895308
 30
0.0
 40
0.001
  1
VITREOUS CHINA
  3

  2
MATERIAL
 70
     0
1001
ACDBATTR
1070
     0
1070
     1
  0
LINE
  5
33A5
  8
0
 10
47.1610257186722
 20
13.08077184175
 30
0.0
 11
65.949195480372481
 21
13.08077184175
 31
0.0
  0
LINE
  5
33A6
  8
0
 10
66.201445213272223
 20
12.86077270875
 30
0.0
 11
46.908776698272213
 21
12.86077270875
 31
0.0
  0
ARC
  5
33A7
  8
0
 10
46.908776682385977
 20
12.890772708703221
 30
0.0
 40
0.0299999999532268
 50
154.62301508837231
 51
270.0000303404488
  0
ARC
  5
33A8
  8
0
 10
47.162801530066382
 20
12.769128462980451
 30
0.0
 40
0.3116484382072301
 50
90.326480213683695
 51
154.4320904600377
  0
ARC
  5
33A9
  8
0
 10
66.201444516658711
 20
12.890772708703221
 30
0.0
 40
0.0299999999532268
 50
269.9999696595504
 51
25.376984911627719
  0
ARC
  5
33AA
  8
0
 10
65.947419668978313
 20
12.769128462980451
 30
0.0
 40
0.3116484382072301
 50
25.56790953996213
 51
89.673519786316305
  0
ARC
  5
33AB
  8
0
 10
65.639733180156753
 20
12.66835531303553
 30
0.0
 40
0.1924663797727927
 50
91.292697130119407
 51
152.88379601611851
  0
ARC
  5
33AC
  8
0
 10
56.518358182104649
 20
17.26054412491678
 30
0.0
 40
10.019672192333809
 50
279.11475518571052
 51
333.28441775444259
  0
ARC
  5
33AD
  8
0
 10
58.135237660925021
 20
7.1797160015022312
 30
0.0
 40
0.1900000001252056
 50
98.974702370185355
 51
177.99999994872701
  0
LINE
  5
33AE
  8
0
 10
57.945353403672208
 20
7.1863469060499989
 30
0.0
 11
57.906514169196392
 21
6.0741367517345122
 31
0.0
  0
ARC
  5
33AF
  8
0
 10
57.716630088572202
 20
6.0807727087500076
 30
0.0
 40
0.1900000000000206
 50
270.00000000000409
 51
357.99847541232708
  0
ARC
  5
33B0
  8
0
 10
56.207031277213069
 20
-10.766150493967791
 30
0.0
 40
18.170295826294911
 50
88.902349062371954
 51
93.756496055421266
  0
ARC
  5
33B1
  8
0
 10
56.903190362641993
 20
-10.766150493967791
 30
0.0
 40
18.170295826294911
 50
86.243504711749537
 51
91.097650937628032
  0
ARC
  5
33B2
  8
0
 10
47.470488145887678
 20
12.66835531303553
 30
0.0
 40
0.1924663797727927
 50
27.116203983881569
 51
88.707302869879783
  0
ARC
  5
33B3
  8
0
 10
56.591863143939769
 20
17.26054412491678
 30
0.0
 40
10.019672192333809
 50
206.71558224555741
 51
260.88524481428948
  0
ARC
  5
33B4
  8
0
 10
54.97498366511941
 20
7.1797160015022312
 30
0.0
 40
0.1900000001252056
 50
2.0000000512730138
 51
81.025297629814645
  0
LINE
  5
33B5
  8
0
 10
55.164867922372217
 20
7.1863469060499989
 30
0.0
 11
55.203707156848033
 21
6.0741367517345122
 31
0.0
  0
ARC
  5
33B6
  8
0
 10
55.393591237472229
 20
6.0807727087500076
 30
0.0
 40
0.1900000000000206
 50
182.0015245876728
 51
269.99999999999591
  0
LINE
  5
33B7
  8
0
 10
55.393591237472208
 20
5.8907727087499868
 30
0.0
 11
57.716630088572202
 21
5.8907727087499868
 31
0.0
  0
ENDSEC
  0
EOF
